999
DXF file: s_91_t_f_2.dxf
999
Pro/ENGINEER 2011370 by Parametric Technology Corporation
  0
SECTION
  2
HEADER
  9
$ACADVER
  1
AC1015
  9
$DWGCODEPAGE
  3
ANSI_1252
  9
$EXTMAX
 10
210.0
 20
297.0
 30
0.0
  9
$EXTMIN
 10
0.0
 20
0.0
 30
0.0
  9
$LIMMIN
 10
0.0
 20
0.0
  9
$LIMMAX
 10
210.0
 20
297.0
  9
$VIEWCTR
 10
105.0
 20
148.5
  9
$VIEWSIZE
 40
297.0
  9
$CLAYER
  8
0
  9
$LTSCALE
 40
19.36
  9
$CELTYPE
  6
BYLAYER
  9
$DIMSCALE
 40
1.0
  9
$DIMASZ
 40
2.0
  9
$DIMEXO
 40
2.2
  9
$DIMDLI
 40
13.376
  9
$DIMEXE
 40
6.336
  9
$DIMCEN
 40
3.168
  9
$DIMLFAC
 40
1.0
  9
$DIMBLK
  1
_FILLED
  9
$DIMTXT
 40
2.0
  9
$DIMTOL
 70
0
  9
$DIMLIM
 70
0
  9
$DIMTFAC
 40
1.0
  9
$PDMODE
 70
3
  9
$PDSIZE
 40
0.3125
  9
$HANDSEED
  5
6C5
  9
$TILEMODE
 70
1
  9
$MEASUREMENT
 70
1
  9
$INSUNITS
 70
4
  0
ENDSEC
  0
SECTION
  2
CLASSES
  0
CLASS
  1
ACDBDICTIONARYWDFLT
  2
AcDbDictionaryWithDefault
  3
AutoCAD 2000
 90
0
280
0
281
0
  0
CLASS
  1
ACDBPLACEHOLDER
  2
AcDbPlaceHolder
  3
AutoCAD 2000
 90
0
280
0
281
0
  0
CLASS
  1
LAYOUT
  2
AcDbLayout
  3
AutoCAD 2000
 90
0
280
0
281
0
  0
ENDSEC
  0
SECTION
  2
TABLES
  0
TABLE
  2
VPORT
  5
8
100
AcDbSymbolTable
 70
2
  0
VPORT
  5
1F4
100
AcDbSymbolTableRecord
100
AcDbViewportTableRecord
  2
*ACTIVE
 70
0
 10
0.0
 20
0.0
 11
1.0
 21
1.0
 12
105.0
 22
148.5
 13
0.0
 23
0.0
 14
1.0
 24
1.0
 15
0.0
 25
0.0
 16
0.0
 26
0.0
 36
1.0
 17
0.0
 27
0.0
 37
0.0
 40
297.0
 41
0.7070707071
 42
50.0
 43
0.0
 44
0.0
 50
0.0
 51
0.0
 71
0
 72
100
 73
1
 74
1
 75
0
 76
0
 77
0
 78
0
  0
ENDTAB
  0
TABLE
  2
LTYPE
  5
5
100
AcDbSymbolTable
 70
6
  0
LTYPE
  5
14
100
AcDbSymbolTableRecord
100
AcDbLinetypeTableRecord
  2
BYBLOCK
 70
0
  3

 72
65
 73
0
 40
0.0
  0
LTYPE
  5
15
100
AcDbSymbolTableRecord
100
AcDbLinetypeTableRecord
  2
BYLAYER
 70
0
  3

 72
65
 73
0
 40
0.0
  0
LTYPE
  5
16
100
AcDbSymbolTableRecord
100
AcDbLinetypeTableRecord
  2
CONTINUOUS
 70
64
  3
Solid line
 72
65
 73
0
 40
0.0
  0
LTYPE
  5
1F5
100
AcDbSymbolTableRecord
100
AcDbLinetypeTableRecord
  2
CENTER
 70
64
  3
____ _ ____ _ ____ _ ____ _ ____ _ ____ _ ____
 72
65
 73
4
 40
0.6
 49
0.375
 74
0
 49
-0.075
 74
0
 49
0.075
 74
0
 49
-0.075
 74
0
  0
LTYPE
  5
1F6
100
AcDbSymbolTableRecord
100
AcDbLinetypeTableRecord
  2
HIDDEN
 70
64
  3
- - - - - - - - - - - - - - - - - - - -
 72
65
 73
2
 40
0.2
 49
0.1
 74
0
 49
-0.1
 74
0
  0
LTYPE
  5
1F7
100
AcDbSymbolTableRecord
100
AcDbLinetypeTableRecord
  2
PHANTOM
 70
64
  3
_____ _ _ _____ _ _ _____ _ _ _____
 72
65
 73
6
 40
0.8
 49
0.45
 74
0
 49
-0.05
 74
0
 49
0.1
 74
0
 49
-0.05
 74
0
 49
0.1
 74
0
 49
-0.05
 74
0
  0
LTYPE
  5
1F8
100
AcDbSymbolTableRecord
100
AcDbLinetypeTableRecord
  2
DOT
 70
64
  3
. . . . . . . . . . . . . . . . . . . .
 72
65
 73
2
 40
0.2
 49
0.1
 74
0
 49
-0.1
 74
0
  0
LTYPE
  5
1F9
100
AcDbSymbolTableRecord
100
AcDbLinetypeTableRecord
  2
DASHED
 70
64
  3
- - - - - - - - - - - - - - - - - - - -
 72
65
 73
2
 40
0.2
 49
0.1
 74
0
 49
-0.1
 74
0
  0
ENDTAB
  0
TABLE
  2
LAYER
  5
2
100
AcDbSymbolTable
 70
36
  0
LAYER
  5
10
100
AcDbSymbolTableRecord
100
AcDbLayerTableRecord
  2
0
 70
0
 62
7
  6
CONTINUOUS
370
-3
390
F
  0
LAYER
  5
1FA
100
AcDbSymbolTableRecord
100
AcDbLayerTableRecord
  2
DEFAULT_1
 70
0
 62
7
  6
CENTER
370
-3
390
F
  0
LAYER
  5
1FB
100
AcDbSymbolTableRecord
100
AcDbLayerTableRecord
  2
DEFAULT_2
 70
0
 62
8
  6
HIDDEN
370
-3
390
F
  0
LAYER
  5
1FC
100
AcDbSymbolTableRecord
100
AcDbLayerTableRecord
  2
DEFAULT_3
 70
0
 62
7
  6
PHANTOM
370
-3
390
F
  0
LAYER
  5
1FD
100
AcDbSymbolTableRecord
100
AcDbLayerTableRecord
  2
01___PRT_ALL_DTM_PLN
 70
0
 62
7
  6
CONTINUOUS
370
-3
390
F
  0
LAYER
  5
1FE
100
AcDbSymbolTableRecord
100
AcDbLayerTableRecord
  2
01___PRT_DEF_DTM_PLN
 70
0
 62
7
  6
CONTINUOUS
370
-3
390
F
  0
LAYER
  5
1FF
100
AcDbSymbolTableRecord
100
AcDbLayerTableRecord
  2
02___PRT_ALL_AXES
 70
0
 62
7
  6
CONTINUOUS
370
-3
390
F
  0
LAYER
  5
200
100
AcDbSymbolTableRecord
100
AcDbLayerTableRecord
  2
03___PRT_ALL_CURVES
 70
0
 62
7
  6
CONTINUOUS
370
-3
390
F
  0
LAYER
  5
201
100
AcDbSymbolTableRecord
100
AcDbLayerTableRecord
  2
04___PRT_ALL_DTM_PNT
 70
0
 62
7
  6
CONTINUOUS
370
-3
390
F
  0
LAYER
  5
202
100
AcDbSymbolTableRecord
100
AcDbLayerTableRecord
  2
05___PRT_ALL_DTM_CSYS
 70
0
 62
7
  6
CONTINUOUS
370
-3
390
F
  0
LAYER
  5
203
100
AcDbSymbolTableRecord
100
AcDbLayerTableRecord
  2
05___PRT_DEF_DTM_CSYS
 70
0
 62
7
  6
CONTINUOUS
370
-3
390
F
  0
LAYER
  5
204
100
AcDbSymbolTableRecord
100
AcDbLayerTableRecord
  2
06___PRT_ALL_SURFS
 70
0
 62
7
  6
CONTINUOUS
370
-3
390
F
  0
LAYER
  5
205
100
AcDbSymbolTableRecord
100
AcDbLayerTableRecord
  2
1_ALL_PLANES
 70
0
 62
7
  6
CONTINUOUS
370
-3
390
F
  0
LAYER
  5
206
100
AcDbSymbolTableRecord
100
AcDbLayerTableRecord
  2
1_SISCO
 70
0
 62
7
  6
CONTINUOUS
370
-3
390
F
  0
LAYER
  5
207
100
AcDbSymbolTableRecord
100
AcDbLayerTableRecord
  2
1__DEF_ASM_PLN
 70
0
 62
7
  6
CONTINUOUS
370
-3
390
F
  0
LAYER
  5
208
100
AcDbSymbolTableRecord
100
AcDbLayerTableRecord
  2
1__DEF_PLANES
 70
0
 62
7
  6
CONTINUOUS
370
-3
390
F
  0
LAYER
  5
209
100
AcDbSymbolTableRecord
100
AcDbLayerTableRecord
  2
2_ALL_CSYS
 70
0
 62
7
  6
CONTINUOUS
370
-3
390
F
  0
LAYER
  5
20A
100
AcDbSymbolTableRecord
100
AcDbLayerTableRecord
  2
2_PIANI
 70
0
 62
7
  6
CONTINUOUS
370
-3
390
F
  0
LAYER
  5
20B
100
AcDbSymbolTableRecord
100
AcDbLayerTableRecord
  2
2__DEF_ASM_CSYS
 70
0
 62
7
  6
CONTINUOUS
370
-3
390
F
  0
LAYER
  5
20C
100
AcDbSymbolTableRecord
100
AcDbLayerTableRecord
  2
2__DEF_CSYS
 70
0
 62
7
  6
CONTINUOUS
370
-3
390
F
  0
LAYER
  5
20D
100
AcDbSymbolTableRecord
100
AcDbLayerTableRecord
  2
3_ALL_AXES
 70
0
 62
7
  6
CONTINUOUS
370
-3
390
F
  0
LAYER
  5
20E
100
AcDbSymbolTableRecord
100
AcDbLayerTableRecord
  2
3_PUNTI
 70
0
 62
7
  6
CONTINUOUS
370
-3
390
F
  0
LAYER
  5
20F
100
AcDbSymbolTableRecord
100
AcDbLayerTableRecord
  2
4_ALL_POINTS
 70
0
 62
7
  6
CONTINUOUS
370
-3
390
F
  0
LAYER
  5
210
100
AcDbSymbolTableRecord
100
AcDbLayerTableRecord
  2
4_CURVE
 70
0
 62
7
  6
CONTINUOUS
370
-3
390
F
  0
LAYER
  5
211
100
AcDbSymbolTableRecord
100
AcDbLayerTableRecord
  2
5_ALL_CURVES
 70
0
 62
7
  6
CONTINUOUS
370
-3
390
F
  0
LAYER
  5
212
100
AcDbSymbolTableRecord
100
AcDbLayerTableRecord
  2
5_SUPERFICI
 70
0
 62
7
  6
CONTINUOUS
370
-3
390
F
  0
LAYER
  5
213
100
AcDbSymbolTableRecord
100
AcDbLayerTableRecord
  2
6_ALL_SURFS
 70
0
 62
7
  6
CONTINUOUS
370
-3
390
F
  0
LAYER
  5
214
100
AcDbSymbolTableRecord
100
AcDbLayerTableRecord
  2
7_ALL_QUILTS
 70
0
 62
7
  6
CONTINUOUS
370
-3
390
F
  0
LAYER
  5
215
100
AcDbSymbolTableRecord
100
AcDbLayerTableRecord
  2
8_ALL_CGFEAT
 70
0
 62
7
  6
CONTINUOUS
370
-3
390
F
  0
LAYER
  5
216
100
AcDbSymbolTableRecord
100
AcDbLayerTableRecord
  2
9_ALL_THREAD
 70
0
 62
7
  6
CONTINUOUS
370
-3
390
F
  0
LAYER
  5
217
100
AcDbSymbolTableRecord
100
AcDbLayerTableRecord
  2
FILETTATURE
 70
0
 62
7
  6
CONTINUOUS
370
-3
390
F
  0
ENDTAB
  0
TABLE
  2
STYLE
  5
3
100
AcDbSymbolTable
 70
1
  0
STYLE
  5
11
100
AcDbSymbolTableRecord
100
AcDbTextStyleTableRecord
  2
STANDARD
 70
0
 40
0.0
 41
1.0
 50
0.0
 71
0
 42
0.2
  3
arial.ttf
  4

  0
STYLE
  5
218
100
AcDbSymbolTableRecord
100
AcDbTextStyleTableRecord
  2
TEXTSTYLE_1
 70
0
 40
0.0
 41
0.8
 50
0.0
 71
0
 42
0.2
  3
gdt
  4

  0
ENDTAB
  0
TABLE
  2
VIEW
  5
6
100
AcDbSymbolTable
 70
0
  0
ENDTAB
  0
TABLE
  2
UCS
  5
7
100
AcDbSymbolTable
 70
0
  0
ENDTAB
  0
TABLE
  2
APPID
  5
9
100
AcDbSymbolTable
 70
1
  0
APPID
  5
219
100
AcDbSymbolTableRecord
100
AcDbRegAppTableRecord
  2
ACAD
 70
0
  0
ENDTAB
  0
TABLE
  2
BLOCK_RECORD
  5
1
100
AcDbSymbolTable
 70
0
  0
BLOCK_RECORD
  5
21A
100
AcDbSymbolTableRecord
100
AcDbBlockTableRecord
  2
*Model_Space
  0
BLOCK_RECORD
  5
21B
100
AcDbSymbolTableRecord
100
AcDbBlockTableRecord
  2
*Paper_Space
  0
ENDTAB
  0
TABLE
  2
DIMSTYLE
  5
A
100
AcDbSymbolTable
 70
1
100
AcDbDimStyleTable
 71
0
  0
DIMSTYLE
105
21C
100
AcDbSymbolTableRecord
100
AcDbDimStyleTableRecord
  2
STANDARD
 70
0
  3

  4

 40
1.0
 41
2.0
 42
0.0625
 43
0.38
 44
0.18
 45
0.0
 46
0.0
 47
0.01
 48
0.01
140
2.0
141
0.09
142
0.0
143
25.4
144
1.0
145
0.0
146
1.0
147
0.09
 71
0.0
 72
0.0
 73
1
 74
1
 75
0
 76
0
 77
0
 78
8
170
0
171
2
172
0
173
0
174
0
175
0
176
0
177
0
178
0
270
2
271
2
272
2
273
2
274
2
275
0
280
0
281
0
282
0
283
1
284
8
285
0
286
0
287
3
288
0
340
11
  0
ENDTAB
  0
ENDSEC
  0
SECTION
  2
BLOCKS
  0
BLOCK
  5
20
100
AcDbEntity
  8
0
100
AcDbBlockBegin
  2
*Model_Space
 70
0
 10
0.0
 20
0.0
 30
0.0
  3
*Model_Space
  1

  0
ENDBLK
  5
21
100
AcDbEntity
  8
0
100
AcDbBlockEnd
  0
BLOCK
  5
1C
100
AcDbEntity
  8
0
100
AcDbBlockBegin
  2
*Paper_Space
 70
0
 10
0.0
 20
0.0
 30
0.0
  3
*Paper_Space
  1

  0
ENDBLK
  5
1D
100
AcDbEntity
  8
0
100
AcDbBlockEnd
  0
ENDSEC
  0
SECTION
  2
ENTITIES
  0
LINE
  5
21D
100
AcDbEntity
  8
0
100
AcDbLine
 62
7
  6
CONTINUOUS
 10
701.5192213173
 20
324.9053444845
 11
701.5192213173
 21
121.4738411763
  0
LINE
  5
21E
100
AcDbEntity
  8
0
100
AcDbLine
 62
9
  6
CONTINUOUS
 10
707.3770842459
 20
107.3317069294
 11
707.3770842459
 21
339.0474787314
  0
LINE
  5
21F
100
AcDbEntity
  8
0
100
AcDbLine
 62
9
  6
CONTINUOUS
 10
715.6613309592
 20
347.3317270751
 11
715.6613309592
 21
99.0474585858
  0
LINE
  5
220
100
AcDbEntity
  8
0
100
AcDbLine
 62
9
  6
CONTINUOUS
 10
729.8034679626
 20
353.1895928176
 11
729.8034679626
 21
93.1895928433
  0
LINE
  5
221
100
AcDbEntity
  8
0
100
AcDbLine
 62
7
  6
CONTINUOUS
 10
707.3770842459
 20
107.3317069294
 11
715.661330935
 21
99.0474585977
  0
LINE
  5
222
100
AcDbEntity
  8
0
100
AcDbLine
 62
7
  6
CONTINUOUS
 10
771.5192213173
 20
103.1895928304
 11
781.5192213173
 21
93.1895928304
  0
LINE
  5
223
100
AcDbEntity
  8
0
100
AcDbLine
 62
7
  6
CONTINUOUS
 10
771.5192213173
 20
353.1880691933
 11
771.5192213173
 21
93.1911164676
  0
LINE
  5
224
100
AcDbEntity
  8
0
100
AcDbLine
 62
7
  6
CONTINUOUS
 10
781.5192213173
 20
353.1895928304
 11
781.5192213173
 21
93.1895928304
  0
LINE
  5
225
100
AcDbEntity
  8
0
100
AcDbLine
 62
7
  6
CONTINUOUS
 10
707.3770842459
 20
339.0474787314
 11
715.661330935
 21
347.3317270631
  0
LINE
  5
226
100
AcDbEntity
  8
0
100
AcDbLine
 62
3
  6
CONTINUOUS
 10
831.5192213173
 20
91.1895928304
 11
831.5192213173
 21
27.1895928304
  0
LINE
  5
227
100
AcDbEntity
  8
0
100
AcDbLine
 62
7
  6
CONTINUOUS
 10
831.5192213173
 20
23.1895928304
 11
831.5192213173
 21
27.1895928304
  0
LINE
  5
228
100
AcDbEntity
  8
0
100
AcDbLine
 62
7
  6
CONTINUOUS
 10
832.5192213173
 20
91.1895928304
 11
832.5192213173
 21
106.1895928304
  0
LINE
  5
229
100
AcDbEntity
  8
0
100
AcDbLine
 62
7
  6
CONTINUOUS
 10
771.5192213173
 20
343.1895928304
 11
781.5192213173
 21
353.1895928304
  0
LINE
  5
22A
100
AcDbEntity
  8
0
100
AcDbLine
 62
9
  6
CONTINUOUS
 10
846.5192213173
 20
23.1895928304
 11
846.5192213173
 21
27.1895928304
  0
LINE
  5
22B
100
AcDbEntity
  8
0
100
AcDbLine
 62
7
  6
CONTINUOUS
 10
1351.0192213173
 20
23.1895928304
 11
1291.0192213173
 21
23.1895928304
  0
LINE
  5
22C
100
AcDbEntity
  8
0
100
AcDbLine
 62
7
  6
CONTINUOUS
 10
831.5192213173
 20
23.1895928304
 11
1051.5192213173
 21
23.1895928304
  0
LINE
  5
22D
100
AcDbEntity
  8
0
100
AcDbLine
 62
3
  6
CONTINUOUS
 10
831.5192213173
 20
27.1895928304
 11
1051.5192213173
 21
27.1895928304
  0
LINE
  5
22E
100
AcDbEntity
  8
0
100
AcDbLine
 62
9
  6
CONTINUOUS
 10
831.5192213173
 20
31.1895928304
 11
1051.5192213173
 21
31.1895928304
  0
LINE
  5
22F
100
AcDbEntity
  8
0
100
AcDbLine
 62
7
  6
CONTINUOUS
 10
1427.0192213173
 20
34.1895928304
 11
1351.0192213173
 21
34.1895928304
  0
LINE
  5
230
100
AcDbEntity
  8
0
100
AcDbLine
 62
7
  6
CONTINUOUS
 10
1291.0192213173
 20
34.1895928304
 11
1247.0192213173
 21
34.1895928304
  0
LINE
  5
231
100
AcDbEntity
  8
0
100
AcDbLine
 62
9
  6
CONTINUOUS
 10
1301.0192213173
 20
38.1895928304
 11
1351.0192213173
 21
38.1895928304
  0
LINE
  5
232
100
AcDbEntity
  8
0
100
AcDbLine
 62
7
  6
CONTINUOUS
 10
1291.0192213173
 20
41.1895928304
 11
1348.0192213173
 21
41.1895928304
  0
LINE
  5
233
100
AcDbEntity
  8
02___PRT_ALL_AXES
100
AcDbLine
 62
7
  6
CONTINUOUS
 10
1450.0626393032
 20
43.1895928304
 11
1467.0192213173
 21
43.1895928304
  0
LINE
  5
234
100
AcDbEntity
  8
0
100
AcDbLine
 62
7
  6
CONTINUOUS
 10
929.5192213173
 20
332.7341043315
 11
929.5192213173
 21
403.1895928304
  0
LINE
  5
235
100
AcDbEntity
  8
0
100
AcDbLine
 62
7
  6
CONTINUOUS
 10
1351.0192213173
 20
59.9437031472
 11
1301.0192213173
 21
59.9437031472
  0
LINE
  5
236
100
AcDbEntity
  8
0
100
AcDbLine
 62
9
  6
CONTINUOUS
 10
831.5192213173
 20
83.1895928304
 11
1051.5192213173
 21
83.1895928304
  0
LINE
  5
237
100
AcDbEntity
  8
0
100
AcDbLine
 62
7
  6
CONTINUOUS
 10
1216.5192213173
 20
88.1895928304
 11
1207.5192213173
 21
88.1895928304
  0
LINE
  5
238
100
AcDbEntity
  8
0
100
AcDbLine
 62
3
  6
CONTINUOUS
 10
831.5192213173
 20
91.1895928304
 11
832.5192213173
 21
91.1895928304
  0
LINE
  5
239
100
AcDbEntity
  8
0
100
AcDbLine
 62
7
  6
CONTINUOUS
 10
832.5192213173
 20
91.1895928304
 11
1050.5192213173
 21
91.1895928304
  0
LINE
  5
23A
100
AcDbEntity
  8
0
100
AcDbLine
 62
3
  6
CONTINUOUS
 10
1050.5192213173
 20
91.1895928304
 11
1051.5192213173
 21
91.1895928304
  0
LINE
  5
23B
100
AcDbEntity
  8
02___PRT_ALL_AXES
100
AcDbLine
 62
7
  6
CONTINUOUS
 10
729.8034679537
 20
93.1895928304
 11
771.5192213173
 21
93.1895928304
  0
LINE
  5
23C
100
AcDbEntity
  8
02___PRT_ALL_AXES
100
AcDbLine
 62
7
  6
CONTINUOUS
 10
781.5192213173
 20
93.1895928304
 11
832.5192213173
 21
93.1895928304
  0
LINE
  5
23D
100
AcDbEntity
  8
02___PRT_ALL_AXES
100
AcDbLine
 62
7
  6
CONTINUOUS
 10
1050.5192213173
 20
93.1895928304
 11
1099.5192212543
 21
93.1895928304
  0
LINE
  5
23E
100
AcDbEntity
  8
3_ALL_AXES
100
AcDbLine
 62
7
  6
CONTINUOUS
 10
1217.0192213173
 20
100.6895928304
 11
1216.5192213173
 21
100.6895928304
  0
LINE
  5
23F
100
AcDbEntity
  8
02___PRT_ALL_AXES
100
AcDbLine
 62
7
  6
CONTINUOUS
 10
1467.0192213173
 20
103.1895928304
 11
1461.0192213173
 21
103.1895928304
  0
LINE
  5
240
100
AcDbEntity
  8
0
100
AcDbLine
 62
7
  6
CONTINUOUS
 10
1301.0192213173
 20
104.7628354823
 11
1291.0192213173
 21
104.7628354823
  0
LINE
  5
241
100
AcDbEntity
  8
0
100
AcDbLine
 62
7
  6
CONTINUOUS
 10
832.5192213173
 20
106.1895928304
 11
1050.5192213173
 21
106.1895928304
  0
LINE
  5
242
100
AcDbEntity
  8
0
100
AcDbLine
 62
9
  6
CONTINUOUS
 10
1199.5238422206
 20
146.9916341837
 11
1202.5192213173
 21
147.1580795712
  0
LINE
  5
243
100
AcDbEntity
  8
3_ALL_AXES
100
AcDbLine
 62
7
  6
CONTINUOUS
 10
1132.5192213173
 20
123.1895928304
 11
1120.5192213173
 21
123.1895928304
  0
LINE
  5
244
100
AcDbEntity
  8
0
100
AcDbLine
 62
7
  6
CONTINUOUS
 10
1120.5192213173
 20
123.1895928304
 11
1201.5192213173
 21
123.1895928304
  0
LINE
  5
245
100
AcDbEntity
  8
0
100
AcDbLine
 62
9
  6
CONTINUOUS
 10
1134.5192213173
 20
125.1895928304
 11
1205.5192213173
 21
125.1895928302
  0
LINE
  5
246
100
AcDbEntity
  8
0
100
AcDbLine
 62
7
  6
CONTINUOUS
 10
1137.5192213173
 20
133.1895928304
 11
1199.5192213173
 21
133.1895928304
  0
LINE
  5
247
100
AcDbEntity
  8
0
100
AcDbLine
 62
9
  6
CONTINUOUS
 10
1205.5192213173
 20
134.3166094839
 11
1203.517042607
 21
134.3166094842
  0
LINE
  5
248
100
AcDbEntity
  8
0
100
AcDbLine
 62
9
  6
CONTINUOUS
 10
1134.5192213173
 20
136.1895928304
 11
1202.5192213173
 21
136.1895928304
  0
LWPOLYLINE
  5
249
100
AcDbEntity
  8
0
100
AcDbPolyline
 62
7
  6
CONTINUOUS
 90
6
 70
0
 10
1461.0192213173
 20
103.1895973702
 10
1460.4992395358
 20
103.2235389914
 10
1459.1350514963
 20
103.6611549861
 10
1458.0125698663
 20
104.5514064669
 10
1457.2757879824
 20
105.7800889753
 10
1457.0192201594
 20
107.1895845015
  0
LINE
  5
24A
100
AcDbEntity
  8
0
100
AcDbLine
 62
9
  6
CONTINUOUS
 10
1202.5192213173
 20
153.1896018599
 11
1205.5192213173
 21
153.1895928304
  0
LINE
  5
24B
100
AcDbEntity
  8
0
100
AcDbLine
 62
7
  6
CONTINUOUS
 10
1467.0192213173
 20
163.1895928304
 11
1461.0192213173
 21
163.1895928304
  0
LINE
  5
24C
100
AcDbEntity
  8
0
100
AcDbLine
 62
9
  6
CONTINUOUS
 10
1119.5192213173
 20
163.1895928304
 11
1134.5192213173
 21
163.1895928304
  0
LINE
  5
24D
100
AcDbEntity
  8
0
100
AcDbLine
 62
9
  6
CONTINUOUS
 10
1162.7769973782
 20
179.5862672692
 11
1138.5192213173
 21
179.5862672692
  0
LINE
  5
24E
100
AcDbEntity
  8
0
100
AcDbLine
 62
9
  6
CONTINUOUS
 10
1036.5192213173
 20
23.1895928304
 11
1036.5192213173
 21
27.1895928304
  0
LINE
  5
24F
100
AcDbEntity
  8
0
100
AcDbLine
 62
7
  6
CONTINUOUS
 10
1050.5192213173
 20
91.1895928304
 11
1050.5192213173
 21
106.1895928304
  0
LINE
  5
250
100
AcDbEntity
  8
0
100
AcDbLine
 62
3
  6
CONTINUOUS
 10
1051.5192213173
 20
91.1895928304
 11
1051.5192213173
 21
27.1895928304
  0
LINE
  5
251
100
AcDbEntity
  8
0
100
AcDbLine
 62
7
  6
CONTINUOUS
 10
1051.5192213173
 20
23.1895928304
 11
1051.5192213173
 21
27.1895928304
  0
LINE
  5
252
100
AcDbEntity
  8
0
100
AcDbLine
 62
9
  6
CONTINUOUS
 10
1162.7769973782
 20
182.4612118117
 11
1138.5192213173
 21
182.4612118117
  0
LINE
  5
253
100
AcDbEntity
  8
0
100
AcDbLine
 62
9
  6
CONTINUOUS
 10
1457.0192213173
 20
188.1895928304
 11
1467.0192213173
 21
188.1895928304
  0
LINE
  5
254
100
AcDbEntity
  8
0
100
AcDbLine
 62
9
  6
CONTINUOUS
 10
1137.4703606847
 20
178.0045274584
 11
1134.5192213173
 21
178.5437643579
  0
LINE
  5
255
100
AcDbEntity
  8
0
100
AcDbLine
 62
7
  6
CONTINUOUS
 10
1069.5192213173
 20
332.7341043315
 11
1069.5192213173
 21
403.1895928304
  0
LWPOLYLINE
  5
256
100
AcDbEntity
  8
0
100
AcDbPolyline
 62
7
  6
CONTINUOUS
 90
3
 70
0
 10
1260.5367561054
 20
434.359728203
 10
1259.6383074531
 20
433.6621399861
 10
1258.3779281842
 20
433.23276724
  0
LINE
  5
257
100
AcDbEntity
  8
0
100
AcDbLine
 62
9
  6
CONTINUOUS
 10
1134.5192213173
 20
215.1895928304
 11
1132.5192213173
 21
215.1895928304
  0
LINE
  5
258
100
AcDbEntity
  8
0
100
AcDbLine
 62
9
  6
CONTINUOUS
 10
1202.5192213173
 20
215.1895928304
 11
1205.5192213173
 21
215.1895928304
  0
LINE
  5
259
100
AcDbEntity
  8
0
100
AcDbLine
 62
9
  6
CONTINUOUS
 10
1138.5192213173
 20
215.7170653579
 11
1162.7769973782
 21
215.7170653579
  0
LINE
  5
25A
100
AcDbEntity
  8
0
100
AcDbLine
 62
7
  6
CONTINUOUS
 10
1202.5192213173
 20
218.1895928304
 11
1137.5192213173
 21
218.1895928304
  0
LINE
  5
25B
100
AcDbEntity
  8
0
100
AcDbLine
 62
9
  6
CONTINUOUS
 10
1137.5192213173
 20
220.1895928304
 11
1205.5192213173
 21
220.1895928306
  0
LINE
  5
25C
100
AcDbEntity
  8
0
100
AcDbLine
 62
9
  6
CONTINUOUS
 10
1217.0192213173
 20
223.1895928304
 11
1457.0192213173
 21
223.1895928304
  0
LINE
  5
25D
100
AcDbEntity
  8
0
100
AcDbLine
 62
9
  6
CONTINUOUS
 10
1137.5192213173
 20
226.1895928304
 11
1205.5192213173
 21
226.1895928302
  0
LINE
  5
25E
100
AcDbEntity
  8
0
100
AcDbLine
 62
7
  6
CONTINUOUS
 10
1137.5192213173
 20
228.1895928304
 11
1202.5192213173
 21
228.1895928304
  0
LINE
  5
25F
100
AcDbEntity
  8
0
100
AcDbLine
 62
9
  6
CONTINUOUS
 10
1162.7769973782
 20
230.6621203029
 11
1138.5192213173
 21
230.6621203029
  0
LINE
  5
260
100
AcDbEntity
  8
0
100
AcDbLine
 62
9
  6
CONTINUOUS
 10
1205.5192213173
 20
231.1895928304
 11
1202.5192213173
 21
231.1895928304
  0
LINE
  5
261
100
AcDbEntity
  8
0
100
AcDbLine
 62
9
  6
CONTINUOUS
 10
1134.5192213173
 20
231.1895928304
 11
1132.5192213173
 21
231.1895928307
  0
LINE
  5
262
100
AcDbEntity
  8
0
100
AcDbLine
 62
7
  6
CONTINUOUS
 10
1099.5192213781
 20
353.1895928304
 11
1099.5192213781
 21
93.1895928304
  0
LINE
  5
263
100
AcDbEntity
  8
0
100
AcDbLine
 62
7
  6
CONTINUOUS
 10
1119.5192213173
 20
333.1883146429
 11
1119.5192213173
 21
113.1908710179
  0
LINE
  5
264
100
AcDbEntity
  8
0
100
AcDbLine
 62
9
  6
CONTINUOUS
 10
1120.5192213173
 20
123.1895928304
 11
1120.5192213173
 21
323.1895928304
  0
LINE
  5
265
100
AcDbEntity
  8
0
100
AcDbLine
 62
9
  6
CONTINUOUS
 10
1137.4703606847
 20
268.3746582025
 11
1134.5192213173
 21
267.835421303
  0
LINE
  5
266
100
AcDbEntity
  8
0
100
AcDbLine
 62
9
  6
CONTINUOUS
 10
1217.0192213173
 20
250.1092548964
 11
1457.0192213173
 21
250.1092548964
  0
LINE
  5
267
100
AcDbEntity
  8
0
100
AcDbLine
 62
9
  6
CONTINUOUS
 10
1457.0192213173
 20
258.1895928304
 11
1467.0192213173
 21
258.1895928304
  0
LINE
  5
268
100
AcDbEntity
  8
0
100
AcDbLine
 62
9
  6
CONTINUOUS
 10
1138.5192213173
 20
263.9179738492
 11
1162.7769973782
 21
263.9179738492
  0
LINE
  5
269
100
AcDbEntity
  8
0
100
AcDbLine
 62
9
  6
CONTINUOUS
 10
1138.5192213173
 20
266.7929183917
 11
1162.7769973782
 21
266.7929183917
  0
LINE
  5
26A
100
AcDbEntity
  8
02___PRT_ALL_AXES
100
AcDbLine
 62
7
  6
CONTINUOUS
 10
1533.0192213173
 20
273.1895928304
 11
1550.0192213173
 21
273.1895928304
  0
LINE
  5
26B
100
AcDbEntity
  8
0
100
AcDbLine
 62
9
  6
CONTINUOUS
 10
1132.5192213173
 20
323.1895928304
 11
1132.5192213173
 21
231.1895928304
  0
LINE
  5
26C
100
AcDbEntity
  8
0
100
AcDbLine
 62
9
  6
CONTINUOUS
 10
1132.5192213173
 20
215.1895928304
 11
1132.5192213173
 21
123.1895928304
  0
LINE
  5
26D
100
AcDbEntity
  8
0
100
AcDbLine
 62
7
  6
CONTINUOUS
 10
1134.5192213173
 20
321.1895928304
 11
1134.5192213173
 21
231.1895928304
  0
LINE
  5
26E
100
AcDbEntity
  8
0
100
AcDbLine
 62
7
  6
CONTINUOUS
 10
1134.5192213173
 20
215.1895928304
 11
1134.5192213173
 21
125.1895928304
  0
LINE
  5
26F
100
AcDbEntity
  8
0
100
AcDbLine
 62
9
  6
CONTINUOUS
 10
1137.5192213173
 20
228.1895928304
 11
1137.5192213173
 21
226.1895928304
  0
LINE
  5
270
100
AcDbEntity
  8
0
100
AcDbLine
 62
9
  6
CONTINUOUS
 10
1137.5192213173
 20
177.7775900118
 11
1137.5192213173
 21
123.1895928304
  0
LINE
  5
271
100
AcDbEntity
  8
0
100
AcDbLine
 62
9
  6
CONTINUOUS
 10
1137.5192213173
 20
218.1895928304
 11
1137.5192213175
 21
220.1895928304
  0
LINE
  5
272
100
AcDbEntity
  8
0
100
AcDbLine
 62
9
  6
CONTINUOUS
 10
1137.5192213173
 20
268.6015956491
 11
1137.5192213175
 21
323.1895928304
  0
LINE
  5
273
100
AcDbEntity
  8
0
100
AcDbLine
 62
9
  6
CONTINUOUS
 10
1138.5192213173
 20
266.7929183917
 11
1138.5192213173
 21
228.1895928304
  0
LINE
  5
274
100
AcDbEntity
  8
0
100
AcDbLine
 62
9
  6
CONTINUOUS
 10
1138.5192213173
 20
179.5862672692
 11
1138.5192213173
 21
218.1895928304
  0
LINE
  5
275
100
AcDbEntity
  8
0
100
AcDbLine
 62
9
  6
CONTINUOUS
 10
1162.7769973782
 20
179.5862672692
 11
1162.7769973782
 21
218.1895928304
  0
LINE
  5
276
100
AcDbEntity
  8
0
100
AcDbLine
 62
9
  6
CONTINUOUS
 10
1162.7769973782
 20
228.1895928304
 11
1162.7769973782
 21
266.7929183917
  0
LINE
  5
277
100
AcDbEntity
  8
0
100
AcDbLine
 62
7
  6
CONTINUOUS
 10
1261.0192213173
 20
435.0247926638
 11
1260.5367561054
 21
434.359728203
  0
LINE
  5
278
100
AcDbEntity
  8
0
100
AcDbLine
 62
7
  6
CONTINUOUS
 10
1467.0192213173
 20
283.1895928304
 11
1461.0192213173
 21
283.1895928304
  0
LINE
  5
279
100
AcDbEntity
  8
0
100
AcDbLine
 62
9
  6
CONTINUOUS
 10
1119.5192213173
 20
283.1895928304
 11
1134.5192213173
 21
283.1895928304
  0
LINE
  5
27A
100
AcDbEntity
  8
0
100
AcDbLine
 62
9
  6
CONTINUOUS
 10
1205.5192213173
 20
293.1895928304
 11
1202.5192213173
 21
293.1895838377
  0
LINE
  5
27B
100
AcDbEntity
  8
0
100
AcDbLine
 62
9
  6
CONTINUOUS
 10
1134.5192213173
 20
310.1895928304
 11
1202.5192213173
 21
310.1895928304
  0
LINE
  5
27C
100
AcDbEntity
  8
0
100
AcDbLine
 62
9
  6
CONTINUOUS
 10
1199.5238422206
 20
299.3875514771
 11
1202.5192213173
 21
299.2211060896
  0
LINE
  5
27D
100
AcDbEntity
  8
0
100
AcDbLine
 62
7
  6
CONTINUOUS
 10
1119.51923207
 20
333.1896035325
 11
1099.5192339636
 21
353.1896055398
  0
LINE
  5
27E
100
AcDbEntity
  8
0
100
AcDbLine
 62
9
  6
CONTINUOUS
 10
1166.1131222324
 20
268.1132899523
 11
1167.9192982557
 21
265.8052939268
  0
LINE
  5
27F
100
AcDbEntity
  8
0
100
AcDbLine
 62
9
  6
CONTINUOUS
 10
1167.9192982557
 20
180.5738917459
 11
1167.9192982557
 21
215.5835322813
  0
LINE
  5
280
100
AcDbEntity
  8
0
100
AcDbLine
 62
9
  6
CONTINUOUS
 10
1167.9192982557
 20
230.7956533795
 11
1167.9192982557
 21
265.8052939268
  0
LINE
  5
281
100
AcDbEntity
  8
02___PRT_ALL_AXES
100
AcDbLine
 62
7
  6
CONTINUOUS
 10
1191.0192213173
 20
509.1895928304
 11
1191.0192213173
 21
526.1895928304
  0
LINE
  5
282
100
AcDbEntity
  8
0
100
AcDbLine
 62
9
  6
CONTINUOUS
 10
1203.5170427541
 20
312.0625761766
 11
1205.5192213173
 21
312.0625761769
  0
LINE
  5
283
100
AcDbEntity
  8
0
100
AcDbLine
 62
7
  6
CONTINUOUS
 10
1477.0192213173
 20
313.1895928304
 11
1457.0192213173
 21
313.1895928304
  0
LINE
  5
284
100
AcDbEntity
  8
0
100
AcDbLine
 62
7
  6
CONTINUOUS
 10
1199.5192213173
 20
313.1895928304
 11
1137.5192213173
 21
313.1895928304
  0
LINE
  5
285
100
AcDbEntity
  8
0
100
AcDbLine
 62
9
  6
CONTINUOUS
 10
1134.5192213173
 20
321.1895928304
 11
1205.5192213173
 21
321.1895928306
  0
LINE
  5
286
100
AcDbEntity
  8
0
100
AcDbLine
 62
7
  6
CONTINUOUS
 10
1201.5192213173
 20
323.1895928304
 11
1120.5192213173
 21
323.1895928304
  0
LINE
  5
287
100
AcDbEntity
  8
0
100
AcDbLine
 62
9
  6
CONTINUOUS
 10
1480.0192213173
 20
325.1895928304
 11
1467.0192213173
 21
325.1895928304
  0
LINE
  5
288
100
AcDbEntity
  8
02___PRT_ALL_AXES
100
AcDbLine
 62
7
  6
CONTINUOUS
 10
1482.0192213173
 20
325.1895928304
 11
1528.0192213173
 21
325.1895928304
  0
LINE
  5
289
100
AcDbEntity
  8
0
100
AcDbLine
 62
9
  6
CONTINUOUS
 10
1467.0192213173
 20
328.1895928304
 11
1457.0192213173
 21
328.1895928304
  0
LINE
  5
28A
100
AcDbEntity
  8
0
100
AcDbLine
 62
7
  6
CONTINUOUS
 10
929.5192213173
 20
332.7341043315
 11
1069.5192213173
 21
332.7341043315
  0
LINE
  5
28B
100
AcDbEntity
  8
0
100
AcDbLine
 62
9
  6
CONTINUOUS
 10
1197.7397654691
 20
295.3379427757
 11
1199.6615221948
 21
293.0706209836
  0
LINE
  5
28C
100
AcDbEntity
  8
0
100
AcDbLine
 62
9
  6
CONTINUOUS
 10
1197.9424403374
 20
295.5167419164
 11
1199.865198348
 21
293.2481259408
  0
LINE
  5
28D
100
AcDbEntity
  8
0
100
AcDbLine
 62
9
  6
CONTINUOUS
 10
1199.5192213173
 20
131.1895683341
 11
1199.5192213173
 21
146.705666359
  0
LINE
  5
28E
100
AcDbEntity
  8
0
100
AcDbLine
 62
9
  6
CONTINUOUS
 10
1199.5192213173
 20
299.6735193018
 11
1199.5192213173
 21
315.1896173307
  0
LINE
  5
28F
100
AcDbEntity
  8
0
100
AcDbLine
 62
9
  6
CONTINUOUS
 10
1199.6615221948
 20
153.3085646773
 11
1199.6615221948
 21
215.4403963275
  0
LINE
  5
290
100
AcDbEntity
  8
0
100
AcDbLine
 62
9
  6
CONTINUOUS
 10
1199.6615221948
 20
230.9387893333
 11
1199.6615221948
 21
293.0706209836
  0
LINE
  5
291
100
AcDbEntity
  8
0
100
AcDbLine
 62
9
  6
CONTINUOUS
 10
1201.5192213173
 20
123.1895928304
 11
1201.5192213173
 21
131.4959755904
  0
LINE
  5
292
100
AcDbEntity
  8
0
100
AcDbLine
 62
9
  6
CONTINUOUS
 10
1201.5192213173
 20
314.8832103101
 11
1201.5192213173
 21
323.1895928304
  0
LINE
  5
293
100
AcDbEntity
  8
0
100
AcDbLine
 62
7
  6
CONTINUOUS
 10
1202.5192213173
 20
136.1895928304
 11
1202.5192213173
 21
215.1895928304
  0
LINE
  5
294
100
AcDbEntity
  8
0
100
AcDbLine
 62
9
  6
CONTINUOUS
 10
1202.5192213173
 20
218.1895928304
 11
1202.5192213173
 21
228.1895928304
  0
LINE
  5
295
100
AcDbEntity
  8
0
100
AcDbLine
 62
7
  6
CONTINUOUS
 10
1202.5192213173
 20
231.1895928304
 11
1202.5192213173
 21
310.1895928304
  0
LINE
  5
296
100
AcDbEntity
  8
0
100
AcDbLine
 62
9
  6
CONTINUOUS
 10
1204.0192213159
 20
153.1895928304
 11
1204.0192213173
 21
215.1895928304
  0
LINE
  5
297
100
AcDbEntity
  8
0
100
AcDbLine
 62
9
  6
CONTINUOUS
 10
1204.0192213173
 20
231.1895928304
 11
1204.0192213159
 21
293.1895928312
  0
LINE
  5
298
100
AcDbEntity
  8
0
100
AcDbLine
 62
7
  6
CONTINUOUS
 10
1205.5192213173
 20
356.1895928304
 11
1205.5192213173
 21
90.1895928304
  0
LINE
  5
299
100
AcDbEntity
  8
0
100
AcDbLine
 62
9
  6
CONTINUOUS
 10
1207.5192213173
 20
358.1895928304
 11
1207.5192213173
 21
88.1895928304
  0
LINE
  5
29A
100
AcDbEntity
  8
0
100
AcDbLine
 62
7
  6
CONTINUOUS
 10
1216.5192213173
 20
358.1895928304
 11
1216.5192213173
 21
88.1895928304
  0
LINE
  5
29B
100
AcDbEntity
  8
0
100
AcDbLine
 62
7
  6
CONTINUOUS
 10
1217.0192213173
 20
64.189592884
 11
1217.0192213173
 21
403.1895928304
  0
LINE
  5
29C
100
AcDbEntity
  8
0
100
AcDbLine
 62
9
  6
CONTINUOUS
 10
1166.1131192369
 20
178.2658980532
 11
1167.9192982557
 21
180.5738917459
  0
LINE
  5
29D
100
AcDbEntity
  8
3_ALL_AXES
100
AcDbLine
 62
7
  6
CONTINUOUS
 10
1217.0192213173
 20
345.6895928304
 11
1216.5192213173
 21
345.6895928304
  0
LINE
  5
29E
100
AcDbEntity
  8
02___PRT_ALL_AXES
100
AcDbLine
 62
7
  6
CONTINUOUS
 10
729.8034679537
 20
353.1895928304
 11
771.5192213173
 21
353.1895928304
  0
LINE
  5
29F
100
AcDbEntity
  8
02___PRT_ALL_AXES
100
AcDbLine
 62
7
  6
CONTINUOUS
 10
781.5192213173
 20
353.1895928304
 11
929.5192213173
 21
353.1895928304
  0
LINE
  5
2A0
100
AcDbEntity
  8
02___PRT_ALL_AXES
100
AcDbLine
 62
7
  6
CONTINUOUS
 10
1069.5192213173
 20
353.1895928304
 11
1099.5192212543
 21
353.1895928304
  0
LINE
  5
2A1
100
AcDbEntity
  8
0
100
AcDbLine
 62
7
  6
CONTINUOUS
 10
1216.5192213173
 20
358.1895928304
 11
1207.5192213173
 21
358.1895928304
  0
LINE
  5
2A2
100
AcDbEntity
  8
0
100
AcDbLine
 62
7
  6
CONTINUOUS
 10
1231.0192213173
 20
453.1895928304
 11
1231.0192213173
 21
428.4899596928
  0
LINE
  5
2A3
100
AcDbEntity
  8
0
100
AcDbLine
 62
9
  6
CONTINUOUS
 10
1243.0192213173
 20
456.1895928304
 11
1243.0192213173
 21
443.1895928304
  0
LINE
  5
2A4
100
AcDbEntity
  8
02___PRT_ALL_AXES
100
AcDbLine
 62
7
  6
CONTINUOUS
 10
1243.0192213173
 20
458.1895928304
 11
1243.0192213173
 21
504.1895928304
  0
LINE
  5
2A5
100
AcDbEntity
  8
0
100
AcDbLine
 62
9
  6
CONTINUOUS
 10
1246.0192213173
 20
443.1895928304
 11
1246.0192213173
 21
433.0907816709
  0
LINE
  5
2A6
100
AcDbEntity
  8
0
100
AcDbLine
 62
9
  6
CONTINUOUS
 10
1247.0192213173
 20
34.1895928304
 11
1247.0192213302
 21
433.1895928304
  0
LINE
  5
2A7
100
AcDbEntity
  8
02___PRT_ALL_AXES
100
AcDbLine
 62
7
  6
CONTINUOUS
 10
1261.0192213173
 20
443.1895928304
 11
1261.0192213173
 21
433.5457687568
  0
LINE
  5
2A8
100
AcDbEntity
  8
0
100
AcDbLine
 62
7
  6
CONTINUOUS
 10
1261.0192214013
 20
433.5310729805
 11
1261.0192215674
 21
433.5266823105
  0
LINE
  5
2A9
100
AcDbEntity
  8
0
100
AcDbLine
 62
9
  6
CONTINUOUS
 10
1197.7397654949
 20
151.0412428633
 11
1199.6615221948
 21
153.3085646773
  0
LINE
  5
2AA
100
AcDbEntity
  8
0
100
AcDbLine
 62
9
  6
CONTINUOUS
 10
1197.9424403374
 20
150.8624437444
 11
1199.865198348
 21
153.13105972
  0
LINE
  5
2AB
100
AcDbEntity
  8
0
100
AcDbLine
 62
7
  6
CONTINUOUS
 10
1119.51923207
 20
113.1895821284
 11
1099.5192339636
 21
93.1895801211
  0
LINE
  5
2AC
100
AcDbEntity
  8
0
100
AcDbLine
 62
7
  6
CONTINUOUS
 10
929.5192213173
 20
403.1895928304
 11
1069.5192213173
 21
403.1895928304
  0
LINE
  5
2AD
100
AcDbEntity
  8
0
100
AcDbLine
 62
7
  6
CONTINUOUS
 10
1291.0192213173
 20
23.1895928304
 11
1291.0192213173
 21
104.7628354823
  0
LINE
  5
2AE
100
AcDbEntity
  8
0
100
AcDbLine
 62
7
  6
CONTINUOUS
 10
1258.3779281842
 20
433.23276724
 11
1257.8392096704
 21
433.1895204102
  0
LINE
  5
2AF
100
AcDbEntity
  8
0
100
AcDbLine
 62
9
  6
CONTINUOUS
 10
1467.0192213173
 20
418.1895928304
 11
1449.8441661557
 21
418.1895928304
  0
LINE
  5
2B0
100
AcDbEntity
  8
0
100
AcDbLine
 62
9
  6
CONTINUOUS
 10
1480.0192213173
 20
421.1895928304
 11
1467.0192213173
 21
421.1895928304
  0
LINE
  5
2B1
100
AcDbEntity
  8
02___PRT_ALL_AXES
100
AcDbLine
 62
7
  6
CONTINUOUS
 10
1482.0192213173
 20
421.1895928304
 11
1528.0192213173
 21
421.1895928304
  0
LINE
  5
2B2
100
AcDbEntity
  8
0
100
AcDbLine
 62
9
  6
CONTINUOUS
 10
1324.6660419338
 20
432.6792771351
 11
1427.0192213173
 21
432.6792771351
  0
LINE
  5
2B3
100
AcDbEntity
  8
0
100
AcDbLine
 62
9
  6
CONTINUOUS
 10
1247.0192213308
 20
432.6792816791
 11
1257.3724007007
 21
432.6792771351
  0
LINE
  5
2B4
100
AcDbEntity
  8
0
100
AcDbLine
 62
7
  6
CONTINUOUS
 10
1477.0192213173
 20
433.1895928304
 11
1324.1971446667
 21
433.1895928304
  0
LINE
  5
2B5
100
AcDbEntity
  8
0
100
AcDbLine
 62
7
  6
CONTINUOUS
 10
1257.8401117966
 20
433.1895928304
 11
1247.0192213173
 21
433.1895928304
  0
LINE
  5
2B6
100
AcDbEntity
  8
0
100
AcDbLine
 62
7
  6
CONTINUOUS
 10
1351.0192213173
 20
443.1895928304
 11
1321.0192213173
 21
443.1895928304
  0
LINE
  5
2B7
100
AcDbEntity
  8
0
100
AcDbLine
 62
7
  6
CONTINUOUS
 10
1261.019396423
 20
443.1895928304
 11
1231.0192213173
 21
443.1895928304
  0
LINE
  5
2B8
100
AcDbEntity
  8
02___PRT_ALL_AXES
100
AcDbLine
 62
7
  6
CONTINUOUS
 10
1261.019396423
 20
443.1895928304
 11
1321.0190462115
 21
443.1895928304
  0
LINE
  5
2B9
100
AcDbEntity
  8
0
100
AcDbLine
 62
7
  6
CONTINUOUS
 10
1324.232662199
 20
433.1895920314
 11
1324.1978761483
 21
433.1897450216
  0
LINE
  5
2BA
100
AcDbEntity
  8
0
100
AcDbLine
 62
7
  6
CONTINUOUS
 10
1301.0192213173
 20
38.1895928304
 11
1301.0192213173
 21
104.7628354823
  0
LINE
  5
2BB
100
AcDbEntity
  8
0
100
AcDbLine
 62
7
  6
CONTINUOUS
 10
1321.0192211281
 20
433.5279758395
 11
1321.0192212424
 21
433.5319145791
  0
LINE
  5
2BC
100
AcDbEntity
  8
02___PRT_ALL_AXES
100
AcDbLine
 62
7
  6
CONTINUOUS
 10
1321.0192213173
 20
433.5457786193
 11
1321.0192213173
 21
443.1895928304
  0
LINE
  5
2BD
100
AcDbEntity
  8
0
100
AcDbLine
 62
9
  6
CONTINUOUS
 10
1231.0192213173
 20
453.1895928304
 11
1351.0192213173
 21
453.1895928304
  0
LINE
  5
2BE
100
AcDbEntity
  8
0
100
AcDbLine
 62
7
  6
CONTINUOUS
 10
1234.0192213173
 20
456.1895928304
 11
1348.0192213173
 21
456.1895928304
  0
LINE
  5
2BF
100
AcDbEntity
  8
0
100
AcDbLine
 62
9
  6
CONTINUOUS
 10
1243.0192213175
 20
458.1895928304
 11
1339.0192213171
 21
458.1895928304
  0
LINE
  5
2C0
100
AcDbEntity
  8
02___PRT_ALL_AXES
100
AcDbLine
 62
7
  6
CONTINUOUS
 10
1533.0192213173
 20
473.1895928304
 11
1550.0192213173
 21
473.1895928304
  0
LINE
  5
2C1
100
AcDbEntity
  8
0
100
AcDbLine
 62
7
  6
CONTINUOUS
 10
1324.1978741093
 20
433.1895319115
 11
1323.6377725689
 21
433.2363084282
  0
LINE
  5
2C2
100
AcDbEntity
  8
0
100
AcDbLine
 62
9
  6
CONTINUOUS
 10
1336.0192213173
 20
443.1895928304
 11
1336.0192213173
 21
433.1895928304
  0
LINE
  5
2C3
100
AcDbEntity
  8
0
100
AcDbLine
 62
9
  6
CONTINUOUS
 10
1339.0192213173
 20
456.1895928304
 11
1339.0192213173
 21
443.1895928304
  0
LINE
  5
2C4
100
AcDbEntity
  8
0
100
AcDbLine
 62
9
  6
CONTINUOUS
 10
1339.0192213173
 20
23.1895928304
 11
1339.0192213173
 21
41.1895928304
  0
LINE
  5
2C5
100
AcDbEntity
  8
02___PRT_ALL_AXES
100
AcDbLine
 62
7
  6
CONTINUOUS
 10
1339.0192213173
 20
458.1895928304
 11
1339.0192213173
 21
504.1895928304
  0
LINE
  5
2C6
100
AcDbEntity
  8
0
100
AcDbLine
 62
7
  6
CONTINUOUS
 10
1351.0192213173
 20
453.1895928304
 11
1351.0192213173
 21
433.1895928304
  0
LINE
  5
2C7
100
AcDbEntity
  8
0
100
AcDbLine
 62
7
  6
CONTINUOUS
 10
1351.0192213173
 20
59.9437031472
 11
1351.0192213173
 21
23.1895928304
  0
LINE
  5
2C8
100
AcDbEntity
  8
0
100
AcDbLine
 62
9
  6
CONTINUOUS
 10
1339.019221317
 20
504.1895928304
 11
1243.0192213175
 21
504.1895928304
  0
LINE
  5
2C9
100
AcDbEntity
  8
0
100
AcDbLine
 62
7
  6
CONTINUOUS
 10
1194.0192213173
 20
506.1895928304
 11
1388.0192213173
 21
506.1895928304
  0
LINE
  5
2CA
100
AcDbEntity
  8
0
100
AcDbLine
 62
9
  6
CONTINUOUS
 10
1391.0192213173
 20
509.1895928304
 11
1191.0192213173
 21
509.1895928304
  0
LWPOLYLINE
  5
2CB
100
AcDbEntity
  8
0
100
AcDbPolyline
 62
7
  6
CONTINUOUS
 90
3
 70
0
 10
1323.6377725689
 20
433.2363084282
 10
1322.3730694706
 20
433.6772822106
 10
1321.4815009344
 20
434.3814087975
  0
LINE
  5
2CC
100
AcDbEntity
  8
02___PRT_ALL_AXES
100
AcDbLine
 62
7
  6
CONTINUOUS
 10
1391.0192213173
 20
509.1895928304
 11
1391.0192213173
 21
526.1895928304
  0
LINE
  5
2CD
100
AcDbEntity
  8
02___PRT_ALL_AXES
100
AcDbLine
 62
7
  6
CONTINUOUS
 10
1191.0196504244
 20
526.1895928304
 11
1391.0187922101
 21
526.1895928304
  0
LINE
  5
2CE
100
AcDbEntity
  8
0
100
AcDbLine
 62
7
  6
CONTINUOUS
 10
1321.4815009344
 20
434.3814087975
 11
1321.0192213173
 21
435.0291020602
  0
LINE
  5
2CF
100
AcDbEntity
  8
0
100
AcDbLine
 62
9
  6
CONTINUOUS
 10
1427.0192213173
 20
432.6792771351
 11
1427.0192213173
 21
34.1895928304
  0
LINE
  5
2D0
100
AcDbEntity
  8
0
100
AcDbLine
 62
7
  6
CONTINUOUS
 10
1457.0192213173
 20
397.3539491981
 11
1457.0192213173
 21
79.4171104691
  0
LINE
  5
2D1
100
AcDbEntity
  8
0
100
AcDbLine
 62
9
  6
CONTINUOUS
 10
1461.0192213173
 20
283.1895928304
 11
1461.0192213173
 21
163.1895928304
  0
LINE
  5
2D2
100
AcDbEntity
  8
0
100
AcDbLine
 62
9
  6
CONTINUOUS
 10
1461.0192213173
 20
103.1895928304
 11
1461.0192213173
 21
78.0711695799
  0
LINE
  5
2D3
100
AcDbEntity
  8
02___PRT_ALL_AXES
100
AcDbLine
 62
7
  6
CONTINUOUS
 10
1467.0192213173
 20
283.1895928304
 11
1467.0192213173
 21
163.1895928304
  0
LINE
  5
2D4
100
AcDbEntity
  8
02___PRT_ALL_AXES
100
AcDbLine
 62
7
  6
CONTINUOUS
 10
1467.0192213173
 20
103.1894177246
 11
1467.0192213173
 21
43.1897679362
  0
LINE
  5
2D5
100
AcDbEntity
  8
0
100
AcDbLine
 62
7
  6
CONTINUOUS
 10
1467.0192213173
 20
313.1895928304
 11
1467.0192213173
 21
433.1895928304
  0
LINE
  5
2D6
100
AcDbEntity
  8
0
100
AcDbLine
 62
9
  6
CONTINUOUS
 10
1477.0192213173
 20
433.1895928304
 11
1477.0192213173
 21
313.1895928304
  0
LINE
  5
2D7
100
AcDbEntity
  8
0
100
AcDbLine
 62
7
  6
CONTINUOUS
 10
1480.0192213173
 20
430.1895928304
 11
1480.0192213173
 21
316.1895928304
  0
LINE
  5
2D8
100
AcDbEntity
  8
0
100
AcDbLine
 62
9
  6
CONTINUOUS
 10
1482.0192213173
 20
421.1895928302
 11
1482.0192213173
 21
325.1895928306
  0
LWPOLYLINE
  5
2D9
100
AcDbEntity
  8
0
100
AcDbPolyline
 62
7
  6
CONTINUOUS
 90
4
 70
0
 10
1447.3516450398
 20
42.1307530667
 10
1448.5070085013
 20
42.8746831898
 10
1449.7236448719
 20
43.1751851637
 10
1450.0626392924
 20
43.1895756753
  0
LINE
  5
2DA
100
AcDbEntity
  8
0
100
AcDbLine
 62
9
  6
CONTINUOUS
 10
1528.0192213173
 20
325.1895928306
 11
1528.0192213173
 21
421.1895928302
  0
LINE
  5
2DB
100
AcDbEntity
  8
0
100
AcDbLine
 62
7
  6
CONTINUOUS
 10
1530.0192213173
 20
470.1895928304
 11
1530.0192213173
 21
276.1895928304
  0
LINE
  5
2DC
100
AcDbEntity
  8
0
100
AcDbLine
 62
9
  6
CONTINUOUS
 10
1533.0192213173
 20
273.1895928304
 11
1533.0192213173
 21
473.1895928304
  0
LINE
  5
2DD
100
AcDbEntity
  8
02___PRT_ALL_AXES
100
AcDbLine
 62
7
  6
CONTINUOUS
 10
1550.0192213173
 20
473.1891637233
 11
1550.0192213173
 21
273.1900219376
  0
LINE
  5
2DE
100
AcDbEntity
  8
0
100
AcDbLine
 62
7
  6
CONTINUOUS
 10
367.0119527997
 20
23.1895928304
 11
297.0119527997
 21
23.1895928304
  0
LINE
  5
2DF
100
AcDbEntity
  8
0
100
AcDbLine
 62
7
  6
CONTINUOUS
 10
97.0119527997
 20
23.1895928304
 11
27.0119527997
 21
23.1895928304
  0
LINE
  5
2E0
100
AcDbEntity
  8
0
100
AcDbLine
 62
7
  6
CONTINUOUS
 10
289.8698171759
 20
34.1895928304
 11
104.1540884234
 21
34.1895928304
  0
LINE
  5
2E1
100
AcDbEntity
  8
0
100
AcDbLine
 62
9
  6
CONTINUOUS
 10
27.0119527997
 20
38.1895928304
 11
94.0119527997
 21
38.1895928304
  0
LINE
  5
2E2
100
AcDbEntity
  8
0
100
AcDbLine
 62
9
  6
CONTINUOUS
 10
300.0119527997
 20
38.1895928304
 11
367.0119527997
 21
38.1895928304
  0
LINE
  5
2E3
100
AcDbEntity
  8
0
100
AcDbLine
 62
7
  6
CONTINUOUS
 10
30.0119527997
 20
41.1895928304
 11
97.0119527997
 21
41.1895928304
  0
LINE
  5
2E4
100
AcDbEntity
  8
0
100
AcDbLine
 62
7
  6
CONTINUOUS
 10
297.0119527997
 20
41.1895928304
 11
364.0119527997
 21
41.1895928304
  0
LINE
  5
2E5
100
AcDbEntity
  8
0
100
AcDbLine
 62
7
  6
CONTINUOUS
 10
22.0119527997
 20
250.1092548964
 11
22.0119527997
 21
223.1895928304
  0
LINE
  5
2E6
100
AcDbEntity
  8
0
100
AcDbLine
 62
7
  6
CONTINUOUS
 10
27.0119527997
 20
23.1895928304
 11
27.0119527997
 21
41.1895928304
  0
LINE
  5
2E7
100
AcDbEntity
  8
0
100
AcDbLine
 62
9
  6
CONTINUOUS
 10
39.0119527997
 20
23.1895928304
 11
39.0119527997
 21
41.1895928304
  0
LINE
  5
2E8
100
AcDbEntity
  8
0
100
AcDbLine
 62
9
  6
CONTINUOUS
 10
143.1114902409
 20
79.4171087303
 11
146.878315438
 21
78.071144719
  0
LINE
  5
2E9
100
AcDbEntity
  8
0
100
AcDbLine
 62
9
  6
CONTINUOUS
 10
52.0119527997
 20
250.1092548964
 11
52.0119527997
 21
223.1895928304
  0
LWPOLYLINE
  5
2EA
100
AcDbEntity
  8
0
100
AcDbPolyline
 62
7
  6
CONTINUOUS
 90
3
 70
0
 10
85.6919427497
 20
392.0963859184
 10
85.6691222219
 20
392.0438816762
 10
85.5268630179
 20
391.7549240398
  0
LWPOLYLINE
  5
2EB
100
AcDbEntity
  8
0
100
AcDbPolyline
 62
7
  6
CONTINUOUS
 90
7
 70
0
 10
85.6766955194
 20
392.061076321
 10
85.5710235677
 20
391.8384917662
 10
85.4243929335
 20
391.577276315
 10
85.268278553
 20
391.3412411867
 10
85.1090507542
 20
391.1328820879
 10
84.955929387
 20
390.9563664521
 10
84.8236809435
 20
390.8193381012
  0
LWPOLYLINE
  5
2EC
100
AcDbEntity
  8
0
100
AcDbPolyline
 62
7
  6
CONTINUOUS
 90
6
 70
0
 10
85.5268630179
 20
391.7549240398
 10
85.3707193756
 20
391.4920548225
 10
85.2065734438
 20
391.2572261448
 10
85.0421765604
 20
391.0533640426
 10
84.8903959642
 20
390.8869957209
 10
84.7763965665
 20
390.7735924062
  0
LWPOLYLINE
  5
2ED
100
AcDbEntity
  8
0
100
AcDbPolyline
 62
7
  6
CONTINUOUS
 90
3
 70
0
 10
84.8236809435
 20
390.8193381012
 10
84.7540162948
 20
390.7522105504
 10
84.7299381769
 20
390.729807453
  0
LWPOLYLINE
  5
2EE
100
AcDbEntity
  8
0
100
AcDbPolyline
 62
7
  6
CONTINUOUS
 90
3
 70
0
 10
84.7763965665
 20
390.7735924062
 10
84.7305232387
 20
390.7305109524
 10
84.7156949334
 20
390.7169245657
  0
LINE
  5
2EF
100
AcDbEntity
  8
0
100
AcDbLine
 62
7
  6
CONTINUOUS
 10
84.7156949334
 20
390.7169245657
 11
84.7141397843
 21
390.7155140943
  0
LINE
  5
2F0
100
AcDbEntity
  8
0
100
AcDbLine
 62
7
  6
CONTINUOUS
 10
84.712208217
 20
390.712862668
 11
84.6855279292
 21
390.6888920401
  0
LINE
  5
2F1
100
AcDbEntity
  8
0
100
AcDbLine
 62
7
  6
CONTINUOUS
 10
86.0119527997
 20
443.1895928304
 11
86.0119527997
 21
393.6641224559
  0
LINE
  5
2F2
100
AcDbEntity
  8
02___PRT_ALL_AXES
100
AcDbLine
 62
7
  6
CONTINUOUS
 10
97.0119527997
 20
23.1895928304
 11
97.0119527997
 21
27.0474572067
  0
LINE
  5
2F3
100
AcDbEntity
  8
02___PRT_ALL_AXES
100
AcDbLine
 62
7
  6
CONTINUOUS
 10
277.7098362441
 20
46.3495737622
 11
297.0119527997
 21
27.0474572067
  0
LINE
  5
2F4
100
AcDbEntity
  8
0
100
AcDbLine
 62
9
  6
CONTINUOUS
 10
117.0119527997
 20
258.1895928304
 11
117.0119527997
 21
188.1895928304
  0
LINE
  5
2F5
100
AcDbEntity
  8
02___PRT_ALL_AXES
100
AcDbLine
 62
7
  6
CONTINUOUS
 10
121.0119527997
 20
258.1895928304
 11
121.0119527997
 21
188.1895928304
  0
LINE
  5
2F6
100
AcDbEntity
  8
0
100
AcDbLine
 62
9
  6
CONTINUOUS
 10
146.0119527997
 20
159.1895928304
 11
276.0119527997
 21
159.1895928304
  0
LINE
  5
2F7
100
AcDbEntity
  8
02___PRT_ALL_AXES
100
AcDbLine
 62
7
  6
CONTINUOUS
 10
146.0119527997
 20
163.1895928304
 11
276.0119527997
 21
163.1895928304
  0
LINE
  5
2F8
100
AcDbEntity
  8
0
100
AcDbLine
 62
7
  6
CONTINUOUS
 10
300.0119527997
 20
38.1895928304
 11
287.7376518356
 21
50.4638937945
  0
LINE
  5
2F9
100
AcDbEntity
  8
0
100
AcDbLine
 62
9
  6
CONTINUOUS
 10
146.0119527997
 20
287.1895928304
 11
146.0119527997
 21
283.1895928304
  0
LINE
  5
2FA
100
AcDbEntity
  8
0
100
AcDbLine
 62
9
  6
CONTINUOUS
 10
146.0119527997
 20
159.1895928304
 11
146.0119527997
 21
163.1895928304
  0
LINE
  5
2FB
100
AcDbEntity
  8
0
100
AcDbLine
 62
9
  6
CONTINUOUS
 10
305.0119527997
 20
188.1895928304
 11
301.0119527997
 21
188.1895928304
  0
LINE
  5
2FC
100
AcDbEntity
  8
0
100
AcDbLine
 62
9
  6
CONTINUOUS
 10
117.0119527997
 20
188.1895928304
 11
121.0119527997
 21
188.1895928304
  0
LINE
  5
2FD
100
AcDbEntity
  8
0
100
AcDbLine
 62
7
  6
CONTINUOUS
 10
27.0119527997
 20
41.1895928304
 11
63.715981558
 21
104.7628354823
  0
LINE
  5
2FE
100
AcDbEntity
  8
0
100
AcDbLine
 62
9
  6
CONTINUOUS
 10
52.0119527997
 20
223.1895928304
 11
22.0119527997
 21
223.1895928305
  0
LINE
  5
2FF
100
AcDbEntity
  8
0
100
AcDbLine
 62
9
  6
CONTINUOUS
 10
370.0119527997
 20
223.1895928304
 11
400.0119527997
 21
223.1895928304
  0
LINE
  5
300
100
AcDbEntity
  8
0
100
AcDbLine
 62
9
  6
CONTINUOUS
 10
52.0119527997
 20
250.1092548964
 11
22.0119527997
 21
250.1092548964
  0
LINE
  5
301
100
AcDbEntity
  8
0
100
AcDbLine
 62
9
  6
CONTINUOUS
 10
370.0119527997
 20
250.1092548964
 11
400.0119527997
 21
250.1092548964
  0
LINE
  5
302
100
AcDbEntity
  8
0
100
AcDbLine
 62
9
  6
CONTINUOUS
 10
305.0119527997
 20
258.1895928304
 11
301.0119527997
 21
258.1895928304
  0
LINE
  5
303
100
AcDbEntity
  8
0
100
AcDbLine
 62
9
  6
CONTINUOUS
 10
117.0119527997
 20
258.1895928304
 11
121.0119527997
 21
258.1895928304
  0
LINE
  5
304
100
AcDbEntity
  8
0
100
AcDbLine
 62
7
  6
CONTINUOUS
 10
341.0951440143
 20
86.0788224168
 11
367.0119527997
 21
41.1895928304
  0
LINE
  5
305
100
AcDbEntity
  8
0
100
AcDbLine
 62
7
  6
CONTINUOUS
 10
246.0119527997
 20
526.1895928304
 11
246.0119527997
 21
509.1895928304
  0
LINE
  5
306
100
AcDbEntity
  8
02___PRT_ALL_AXES
100
AcDbLine
 62
7
  6
CONTINUOUS
 10
246.0119527997
 20
509.1895928304
 11
246.0119527997
 21
526.1895928304
  0
LINE
  5
307
100
AcDbEntity
  8
02___PRT_ALL_AXES
100
AcDbLine
 62
7
  6
CONTINUOUS
 10
276.0119527997
 20
283.1895928304
 11
254.2293546913
 21
283.1895928304
  0
LINE
  5
308
100
AcDbEntity
  8
02___PRT_ALL_AXES
100
AcDbLine
 62
7
  6
CONTINUOUS
 10
167.7945509153
 20
283.1895928304
 11
146.0119527997
 21
283.1895928304
  0
LINE
  5
309
100
AcDbEntity
  8
0
100
AcDbLine
 62
9
  6
CONTINUOUS
 10
276.0119527997
 20
287.1895928304
 11
261.9280709381
 21
287.1895928304
  0
LINE
  5
30A
100
AcDbEntity
  8
0
100
AcDbLine
 62
9
  6
CONTINUOUS
 10
160.0958346612
 20
287.1895928304
 11
146.0119527997
 21
287.1895928304
  0
LINE
  5
30B
100
AcDbEntity
  8
0
100
AcDbLine
 62
9
  6
CONTINUOUS
 10
276.0119527997
 20
287.1895928304
 11
276.0119527997
 21
283.1895928304
  0
LINE
  5
30C
100
AcDbEntity
  8
0
100
AcDbLine
 62
9
  6
CONTINUOUS
 10
276.0119527997
 20
159.1895928304
 11
276.0119527997
 21
163.1895928304
  0
LINE
  5
30D
100
AcDbEntity
  8
0
100
AcDbLine
 62
7
  6
CONTINUOUS
 10
286.0119527997
 20
453.1895928304
 11
286.0119527997
 21
439.1689654167
  0
LINE
  5
30E
100
AcDbEntity
  8
02___PRT_ALL_AXES
100
AcDbLine
 62
7
  6
CONTINUOUS
 10
297.0119527997
 20
23.1895928304
 11
297.0119527997
 21
27.0474572067
  0
LINE
  5
30F
100
AcDbEntity
  8
0
100
AcDbLine
 62
9
  6
CONTINUOUS
 10
298.0119527997
 20
456.1895928304
 11
298.0119527997
 21
443.1895928304
  0
LINE
  5
310
100
AcDbEntity
  8
02___PRT_ALL_AXES
100
AcDbLine
 62
7
  6
CONTINUOUS
 10
298.0119527997
 20
458.1895928304
 11
298.0119527997
 21
504.1895928304
  0
LINE
  5
311
100
AcDbEntity
  8
0
100
AcDbLine
 62
7
  6
CONTINUOUS
 10
298.0119527997
 20
458.1895928304
 11
298.0119527997
 21
504.1895928304
  0
LINE
  5
312
100
AcDbEntity
  8
0
100
AcDbLine
 62
9
  6
CONTINUOUS
 10
301.0119527997
 20
443.1895928304
 11
301.0119527997
 21
428.1895928304
  0
LINE
  5
313
100
AcDbEntity
  8
02___PRT_ALL_AXES
100
AcDbLine
 62
7
  6
CONTINUOUS
 10
301.0119527997
 20
188.1895928304
 11
301.0119527997
 21
258.1895928304
  0
LINE
  5
314
100
AcDbEntity
  8
0
100
AcDbLine
 62
7
  6
CONTINUOUS
 10
115.7660631165
 20
59.9437031472
 11
94.0119527997
 21
38.1895928304
  0
LINE
  5
315
100
AcDbEntity
  8
0
100
AcDbLine
 62
7
  6
CONTINUOUS
 10
303.5119527997
 20
414.9265780151
 11
303.5119527997
 21
428.1895928304
  0
LINE
  5
316
100
AcDbEntity
  8
0
100
AcDbLine
 62
9
  6
CONTINUOUS
 10
305.0119527997
 20
188.1895928304
 11
305.0119527997
 21
258.1895928304
  0
LINE
  5
317
100
AcDbEntity
  8
0
100
AcDbLine
 62
9
  6
CONTINUOUS
 10
318.5119527997
 20
405.5594076786
 11
318.5119527997
 21
428.1895928304
  0
LINE
  5
318
100
AcDbEntity
  8
02___PRT_ALL_AXES
100
AcDbLine
 62
7
  6
CONTINUOUS
 10
97.0119527997
 20
27.0474572067
 11
124.9072863349
 21
54.9427907419
  0
LINE
  5
319
100
AcDbEntity
  8
0
100
AcDbLine
 62
9
  6
CONTINUOUS
 10
355.0119527997
 20
23.1895928304
 11
355.0119527997
 21
41.1895928304
  0
LINE
  5
31A
100
AcDbEntity
  8
0
100
AcDbLine
 62
7
  6
CONTINUOUS
 10
367.0119527997
 20
23.1895928304
 11
367.0119527997
 21
41.1895928304
  0
LINE
  5
31B
100
AcDbEntity
  8
0
100
AcDbLine
 62
9
  6
CONTINUOUS
 10
370.0119527997
 20
223.1895928304
 11
370.0119527997
 21
250.1092548964
  0
LINE
  5
31C
100
AcDbEntity
  8
0
100
AcDbLine
 62
9
  6
CONTINUOUS
 10
373.5119527997
 20
346.6222073951
 11
373.5119527997
 21
428.1895928304
  0
LINE
  5
31D
100
AcDbEntity
  8
0
100
AcDbLine
 62
7
  6
CONTINUOUS
 10
388.5119527997
 20
315.0303608636
 11
388.5119527997
 21
428.1895928304
  0
LINE
  5
31E
100
AcDbEntity
  8
0
100
AcDbLine
 62
7
  6
CONTINUOUS
 10
406.0119527997
 20
428.1895928304
 11
294.5241787127
 21
428.1895928304
  0
LINE
  5
31F
100
AcDbEntity
  8
0
100
AcDbLine
 62
9
  6
CONTINUOUS
 10
391.0119527997
 20
443.1895928304
 11
391.0119527997
 21
428.1895928304
  0
LINE
  5
320
100
AcDbEntity
  8
0
100
AcDbLine
 62
9
  6
CONTINUOUS
 10
394.0119527997
 20
456.1895928304
 11
394.0119527997
 21
443.1895928304
  0
LINE
  5
321
100
AcDbEntity
  8
02___PRT_ALL_AXES
100
AcDbLine
 62
7
  6
CONTINUOUS
 10
394.0119527997
 20
458.1895928304
 11
394.0119527997
 21
504.1895928304
  0
LINE
  5
322
100
AcDbEntity
  8
0
100
AcDbLine
 62
7
  6
CONTINUOUS
 10
394.0119527997
 20
458.1895928304
 11
394.0119527997
 21
504.1895928304
  0
LINE
  5
323
100
AcDbEntity
  8
0
100
AcDbLine
 62
7
  6
CONTINUOUS
 10
400.0119527997
 20
223.1895928304
 11
400.0119527997
 21
250.1092548964
  0
LINE
  5
324
100
AcDbEntity
  8
0
100
AcDbLine
 62
7
  6
CONTINUOUS
 10
406.0119527997
 20
453.1895928304
 11
406.0119527997
 21
428.1895928304
  0
LINE
  5
325
100
AcDbEntity
  8
0
100
AcDbLine
 62
7
  6
CONTINUOUS
 10
406.0119527997
 20
443.1895928304
 11
286.0119527997
 21
443.1895928304
  0
LINE
  5
326
100
AcDbEntity
  8
02___PRT_ALL_AXES
100
AcDbLine
 62
7
  6
CONTINUOUS
 10
86.0119527997
 20
443.1895928304
 11
139.8767607082
 21
443.1895928304
  0
LINE
  5
327
100
AcDbEntity
  8
02___PRT_ALL_AXES
100
AcDbLine
 62
7
  6
CONTINUOUS
 10
172.3596444574
 20
443.1895928304
 11
188.4734089345
 21
443.1895928304
  0
LINE
  5
328
100
AcDbEntity
  8
0
100
AcDbLine
 62
9
  6
CONTINUOUS
 10
278.9124152295
 20
79.4171086599
 11
275.1451387418
 21
78.0709834499
  0
LINE
  5
329
100
AcDbEntity
  8
0
100
AcDbLine
 62
9
  6
CONTINUOUS
 10
286.0119527997
 20
453.1895928304
 11
406.0119527997
 21
453.1895928304
  0
LINE
  5
32A
100
AcDbEntity
  8
0
100
AcDbLine
 62
7
  6
CONTINUOUS
 10
289.0119527997
 20
456.1895928304
 11
403.0119527997
 21
456.1895928304
  0
LINE
  5
32B
100
AcDbEntity
  8
0
100
AcDbLine
 62
9
  6
CONTINUOUS
 10
298.0119527997
 20
458.1895928304
 11
394.0119527997
 21
458.1895928304
  0
LINE
  5
32C
100
AcDbEntity
  8
0
100
AcDbLine
 62
7
  6
CONTINUOUS
 10
446.0119527997
 20
526.1895928304
 11
446.0119527997
 21
509.1895928304
  0
LINE
  5
32D
100
AcDbEntity
  8
02___PRT_ALL_AXES
100
AcDbLine
 62
7
  6
CONTINUOUS
 10
446.0119527997
 20
509.1895928304
 11
446.0119527997
 21
526.1895928304
  0
LINE
  5
32E
100
AcDbEntity
  8
0
100
AcDbLine
 62
9
  6
CONTINUOUS
 10
394.0119527997
 20
504.1895928304
 11
298.0119527997
 21
504.1895928304
  0
LINE
  5
32F
100
AcDbEntity
  8
0
100
AcDbLine
 62
7
  6
CONTINUOUS
 10
443.0119527997
 20
506.1895928304
 11
249.0119527997
 21
506.1895928304
  0
LINE
  5
330
100
AcDbEntity
  8
0
100
AcDbLine
 62
9
  6
CONTINUOUS
 10
446.0119527997
 20
509.1895928304
 11
246.0119527997
 21
509.1895928304
  0
LINE
  5
331
100
AcDbEntity
  8
02___PRT_ALL_AXES
100
AcDbLine
 62
7
  6
CONTINUOUS
 10
246.0119527997
 20
526.1895928304
 11
446.0119527997
 21
526.1895928304
  0
LINE
  5
332
100
AcDbEntity
  8
02___PRT_ALL_AXES
100
AcDbLine
 62
7
  6
CONTINUOUS
 10
-1086.5718314074
 20
273.1900219376
 11
-1086.5718314074
 21
473.1891637233
  0
LINE
  5
333
100
AcDbEntity
  8
0
100
AcDbLine
 62
9
  6
CONTINUOUS
 10
-1069.5718314074
 20
473.1895928304
 11
-1069.5718314074
 21
273.1895928304
  0
LINE
  5
334
100
AcDbEntity
  8
0
100
AcDbLine
 62
7
  6
CONTINUOUS
 10
-1066.5718314074
 20
276.1895928304
 11
-1066.5718314074
 21
470.1895928304
  0
LINE
  5
335
100
AcDbEntity
  8
0
100
AcDbLine
 62
9
  6
CONTINUOUS
 10
-1064.5718314074
 20
421.1895928302
 11
-1064.5718314074
 21
325.1895928306
  0
LINE
  5
336
100
AcDbEntity
  8
0
100
AcDbLine
 62
9
  6
CONTINUOUS
 10
-1018.5718314074
 20
325.1895928306
 11
-1018.5718314074
 21
421.1895928302
  0
LINE
  5
337
100
AcDbEntity
  8
0
100
AcDbLine
 62
7
  6
CONTINUOUS
 10
-1016.5718314074
 20
316.1895928304
 11
-1016.5718314074
 21
430.1895928304
  0
LINE
  5
338
100
AcDbEntity
  8
0
100
AcDbLine
 62
9
  6
CONTINUOUS
 10
-1013.5718314074
 20
313.1895928304
 11
-1013.5718314074
 21
433.1895928304
  0
LINE
  5
339
100
AcDbEntity
  8
02___PRT_ALL_AXES
100
AcDbLine
 62
7
  6
CONTINUOUS
 10
-1003.5718314074
 20
43.1897679362
 11
-1003.5718314074
 21
103.1894177246
  0
LINE
  5
33A
100
AcDbEntity
  8
02___PRT_ALL_AXES
100
AcDbLine
 62
7
  6
CONTINUOUS
 10
-1003.5718314074
 20
163.1895928304
 11
-1003.5718314074
 21
283.1895928304
  0
LINE
  5
33B
100
AcDbEntity
  8
0
100
AcDbLine
 62
7
  6
CONTINUOUS
 10
-1003.5718314074
 20
313.1895928304
 11
-1003.5718314074
 21
433.1895928304
  0
LINE
  5
33C
100
AcDbEntity
  8
0
100
AcDbLine
 62
9
  6
CONTINUOUS
 10
-997.5718314074
 20
78.0711695799
 11
-997.5718314074
 21
103.1895928279
  0
LINE
  5
33D
100
AcDbEntity
  8
0
100
AcDbLine
 62
9
  6
CONTINUOUS
 10
-997.5718314074
 20
163.1895928304
 11
-997.5718314074
 21
283.1895928304
  0
LINE
  5
33E
100
AcDbEntity
  8
0
100
AcDbLine
 62
7
  6
CONTINUOUS
 10
-993.5718314074
 20
79.4171087304
 11
-993.5718314074
 21
397.3539491981
  0
LINE
  5
33F
100
AcDbEntity
  8
0
100
AcDbLine
 62
9
  6
CONTINUOUS
 10
-963.5718314074
 20
34.1895928304
 11
-963.5718314074
 21
432.6792771351
  0
LWPOLYLINE
  5
340
100
AcDbEntity
  8
0
100
AcDbPolyline
 62
7
  6
CONTINUOUS
 90
6
 70
0
 10
-993.5718302495
 20
107.1895845015
 10
-993.8283980725
 20
105.7800889753
 10
-994.5651799565
 20
104.5514064669
 10
-995.6876615864
 20
103.6611549861
 10
-997.0518496259
 20
103.2235389914
 10
-997.5718314074
 20
103.1895973702
  0
LINE
  5
341
100
AcDbEntity
  8
02___PRT_ALL_AXES
100
AcDbLine
 62
7
  6
CONTINUOUS
 10
-927.5718314074
 20
509.1895928304
 11
-927.5718314074
 21
526.1895928304
  0
LINE
  5
342
100
AcDbEntity
  8
0
100
AcDbLine
 62
7
  6
CONTINUOUS
 10
-368.0718314074
 20
23.1895928304
 11
-588.0718314074
 21
23.1895928304
  0
LINE
  5
343
100
AcDbEntity
  8
0
100
AcDbLine
 62
7
  6
CONTINUOUS
 10
-827.5718314074
 20
23.1895928304
 11
-887.5718314074
 21
23.1895928304
  0
LINE
  5
344
100
AcDbEntity
  8
0
100
AcDbLine
 62
3
  6
CONTINUOUS
 10
-368.0718314074
 20
27.1895928304
 11
-588.0718314074
 21
27.1895928304
  0
LINE
  5
345
100
AcDbEntity
  8
0
100
AcDbLine
 62
9
  6
CONTINUOUS
 10
-368.0718314074
 20
31.1895928304
 11
-588.0718314074
 21
31.1895928304
  0
LINE
  5
346
100
AcDbEntity
  8
0
100
AcDbLine
 62
7
  6
CONTINUOUS
 10
-963.5718314074
 20
34.1895928304
 11
-887.5718314074
 21
34.1895928304
  0
LINE
  5
347
100
AcDbEntity
  8
0
100
AcDbLine
 62
7
  6
CONTINUOUS
 10
-827.5718314074
 20
34.1895928304
 11
-783.5718314074
 21
34.1895928304
  0
LINE
  5
348
100
AcDbEntity
  8
0
100
AcDbLine
 62
9
  6
CONTINUOUS
 10
-887.5718314074
 20
38.1895928304
 11
-837.5718314074
 21
38.1895928304
  0
LINE
  5
349
100
AcDbEntity
  8
0
100
AcDbLine
 62
7
  6
CONTINUOUS
 10
-827.5718314074
 20
41.1895928304
 11
-884.5718314074
 21
41.1895928304
  0
LINE
  5
34A
100
AcDbEntity
  8
02___PRT_ALL_AXES
100
AcDbLine
 62
7
  6
CONTINUOUS
 10
-1003.5718314074
 20
43.1895928304
 11
-986.6152493933
 21
43.1895928304
  0
LWPOLYLINE
  5
34B
100
AcDbEntity
  8
0
100
AcDbPolyline
 62
7
  6
CONTINUOUS
 90
4
 70
0
 10
-986.6152493825
 20
43.1895756753
 10
-986.276254962
 20
43.1751851637
 10
-985.0596185915
 20
42.8746831898
 10
-983.9042551299
 20
42.1307530667
  0
LINE
  5
34C
100
AcDbEntity
  8
0
100
AcDbLine
 62
7
  6
CONTINUOUS
 10
-887.5718314074
 20
453.1895928304
 11
-887.5718314074
 21
428.1895928304
  0
LINE
  5
34D
100
AcDbEntity
  8
0
100
AcDbLine
 62
7
  6
CONTINUOUS
 10
-887.5718314074
 20
23.1895928304
 11
-887.5718314074
 21
50.4638937945
  0
LINE
  5
34E
100
AcDbEntity
  8
0
100
AcDbLine
 62
9
  6
CONTINUOUS
 10
-875.5718314074
 20
456.1895928304
 11
-875.5718314074
 21
443.1895928304
  0
LINE
  5
34F
100
AcDbEntity
  8
0
100
AcDbLine
 62
9
  6
CONTINUOUS
 10
-875.5718314074
 20
23.1895928304
 11
-875.5718314074
 21
41.1895928304
  0
LINE
  5
350
100
AcDbEntity
  8
02___PRT_ALL_AXES
100
AcDbLine
 62
7
  6
CONTINUOUS
 10
-875.5718314074
 20
458.1895928304
 11
-875.5718314074
 21
504.1895928304
  0
LINE
  5
351
100
AcDbEntity
  8
0
100
AcDbLine
 62
9
  6
CONTINUOUS
 10
-872.5718314074
 20
443.1895928304
 11
-872.5718314074
 21
428.1895928304
  0
LINE
  5
352
100
AcDbEntity
  8
0
100
AcDbLine
 62
7
  6
CONTINUOUS
 10
-870.0718314074
 20
346.6222073951
 11
-870.0718314074
 21
428.1895928304
  0
LINE
  5
353
100
AcDbEntity
  8
0
100
AcDbLine
 62
7
  6
CONTINUOUS
 10
-887.5718314074
 20
50.4638937945
 11
-837.5718314074
 21
50.4638937945
  0
LINE
  5
354
100
AcDbEntity
  8
0
100
AcDbLine
 62
9
  6
CONTINUOUS
 10
-855.0718314074
 20
315.0303608636
 11
-855.0718314074
 21
428.1895928304
  0
LINE
  5
355
100
AcDbEntity
  8
0
100
AcDbLine
 62
7
  6
CONTINUOUS
 10
-837.5718314074
 20
38.1895928304
 11
-837.5718314074
 21
86.0788224168
  0
LINE
  5
356
100
AcDbEntity
  8
0
100
AcDbLine
 62
7
  6
CONTINUOUS
 10
-827.5718314074
 20
23.1895928304
 11
-827.5718314074
 21
86.0788224168
  0
LINE
  5
357
100
AcDbEntity
  8
0
100
AcDbLine
 62
9
  6
CONTINUOUS
 10
-368.0718314074
 20
83.1895928304
 11
-588.0718314074
 21
83.1895928304
  0
LINE
  5
358
100
AcDbEntity
  8
0
100
AcDbLine
 62
7
  6
CONTINUOUS
 10
-837.5718314074
 20
86.0788224168
 11
-827.5718314074
 21
86.0788224168
  0
LINE
  5
359
100
AcDbEntity
  8
0
100
AcDbLine
 62
7
  6
CONTINUOUS
 10
-753.0718314074
 20
88.1895928304
 11
-744.0718314074
 21
88.1895928304
  0
LINE
  5
35A
100
AcDbEntity
  8
0
100
AcDbLine
 62
7
  6
CONTINUOUS
 10
-587.0718314074
 20
91.1895928304
 11
-369.0718314074
 21
91.1895928304
  0
LINE
  5
35B
100
AcDbEntity
  8
0
100
AcDbLine
 62
3
  6
CONTINUOUS
 10
-368.0718314074
 20
91.1895928304
 11
-369.0718314074
 21
91.1895928304
  0
LINE
  5
35C
100
AcDbEntity
  8
0
100
AcDbLine
 62
3
  6
CONTINUOUS
 10
-587.0718314074
 20
91.1895928304
 11
-588.0718314074
 21
91.1895928304
  0
LINE
  5
35D
100
AcDbEntity
  8
02___PRT_ALL_AXES
100
AcDbLine
 62
7
  6
CONTINUOUS
 10
-266.3560780439
 20
93.1895928304
 11
-308.0718314074
 21
93.1895928304
  0
LINE
  5
35E
100
AcDbEntity
  8
02___PRT_ALL_AXES
100
AcDbLine
 62
7
  6
CONTINUOUS
 10
-318.0718314074
 20
93.1895928304
 11
-369.0718314074
 21
93.1895928304
  0
LINE
  5
35F
100
AcDbEntity
  8
02___PRT_ALL_AXES
100
AcDbLine
 62
7
  6
CONTINUOUS
 10
-587.0718314074
 20
93.1895928304
 11
-636.0718313444
 21
93.1895928304
  0
LINE
  5
360
100
AcDbEntity
  8
3_ALL_AXES
100
AcDbLine
 62
7
  6
CONTINUOUS
 10
-753.5718314074
 20
100.6895928304
 11
-753.0718314074
 21
100.6895928304
  0
LINE
  5
361
100
AcDbEntity
  8
02___PRT_ALL_AXES
100
AcDbLine
 62
7
  6
CONTINUOUS
 10
-997.5718314074
 20
103.1895928304
 11
-1003.5718314074
 21
103.1895928304
  0
LINE
  5
362
100
AcDbEntity
  8
0
100
AcDbLine
 62
7
  6
CONTINUOUS
 10
-587.0718314074
 20
106.1895928304
 11
-369.0718314074
 21
106.1895928304
  0
LINE
  5
363
100
AcDbEntity
  8
0
100
AcDbLine
 62
9
  6
CONTINUOUS
 10
-800.0718314074
 20
315.0303608636
 11
-800.0718314074
 21
428.1895928304
  0
LINE
  5
364
100
AcDbEntity
  8
0
100
AcDbLine
 62
7
  6
CONTINUOUS
 10
-738.0718314074
 20
123.1895928304
 11
-657.0718314074
 21
123.1895928304
  0
LINE
  5
365
100
AcDbEntity
  8
0
100
AcDbLine
 62
9
  6
CONTINUOUS
 10
-671.0718314074
 20
125.1895928304
 11
-742.0718314074
 21
125.1895928302
  0
LINE
  5
366
100
AcDbEntity
  8
0
100
AcDbLine
 62
7
  6
CONTINUOUS
 10
-736.0718314074
 20
133.1895928304
 11
-674.0718314074
 21
133.1895928304
  0
LINE
  5
367
100
AcDbEntity
  8
0
100
AcDbLine
 62
9
  6
CONTINUOUS
 10
-740.0696528443
 20
134.3166094842
 11
-742.0718314074
 21
134.3166094839
  0
LINE
  5
368
100
AcDbEntity
  8
0
100
AcDbLine
 62
9
  6
CONTINUOUS
 10
-671.0718314074
 20
136.1895928304
 11
-739.0718314074
 21
136.1895928304
  0
LINE
  5
369
100
AcDbEntity
  8
0
100
AcDbLine
 62
9
  6
CONTINUOUS
 10
-736.0764523107
 20
146.9916341837
 11
-739.0718314074
 21
147.1580795712
  0
LINE
  5
36A
100
AcDbEntity
  8
0
100
AcDbLine
 62
9
  6
CONTINUOUS
 10
-734.4950504275
 20
150.8624437444
 11
-736.4178084382
 21
153.13105972
  0
LINE
  5
36B
100
AcDbEntity
  8
0
100
AcDbLine
 62
9
  6
CONTINUOUS
 10
-734.2923755593
 20
151.0412428852
 11
-736.2141322849
 21
153.3085646773
  0
LINE
  5
36C
100
AcDbEntity
  8
0
100
AcDbLine
 62
7
  6
CONTINUOUS
 10
-785.0718314074
 20
346.6222073951
 11
-785.0718314074
 21
428.1895928304
  0
LINE
  5
36D
100
AcDbEntity
  8
0
100
AcDbLine
 62
9
  6
CONTINUOUS
 10
-783.5718314074
 20
428.1895928304
 11
-783.5718314074
 21
34.1895928304
  0
LINE
  5
36E
100
AcDbEntity
  8
0
100
AcDbLine
 62
9
  6
CONTINUOUS
 10
-782.5718314074
 20
443.1895928304
 11
-782.5718314074
 21
428.1895928304
  0
LINE
  5
36F
100
AcDbEntity
  8
0
100
AcDbLine
 62
9
  6
CONTINUOUS
 10
-779.5718314074
 20
456.1895928304
 11
-779.5718314074
 21
443.1895928304
  0
LINE
  5
370
100
AcDbEntity
  8
02___PRT_ALL_AXES
100
AcDbLine
 62
7
  6
CONTINUOUS
 10
-779.5718314074
 20
458.1895928304
 11
-779.5718314074
 21
504.1895928304
  0
LINE
  5
371
100
AcDbEntity
  8
0
100
AcDbLine
 62
7
  6
CONTINUOUS
 10
-767.5718314074
 20
453.1895928304
 11
-767.5718314074
 21
428.1895928304
  0
LINE
  5
372
100
AcDbEntity
  8
0
100
AcDbLine
 62
9
  6
CONTINUOUS
 10
-739.0718314074
 20
153.1896018231
 11
-742.0718314074
 21
153.1895928304
  0
LINE
  5
373
100
AcDbEntity
  8
0
100
AcDbLine
 62
7
  6
CONTINUOUS
 10
-1003.5718314074
 20
163.1895928304
 11
-997.5718314074
 21
163.1895928304
  0
LINE
  5
374
100
AcDbEntity
  8
0
100
AcDbLine
 62
9
  6
CONTINUOUS
 10
-656.0718314074
 20
163.1895928304
 11
-671.0718314074
 21
163.1895928304
  0
LINE
  5
375
100
AcDbEntity
  8
02___PRT_ALL_AXES
100
AcDbLine
 62
7
  6
CONTINUOUS
 10
-997.5718314074
 20
163.1895928304
 11
-1003.5718314074
 21
163.1895928304
  0
LINE
  5
376
100
AcDbEntity
  8
0
100
AcDbLine
 62
9
  6
CONTINUOUS
 10
-675.0718314074
 20
179.5862672692
 11
-699.3296074683
 21
179.5862672692
  0
LINE
  5
377
100
AcDbEntity
  8
0
100
AcDbLine
 62
7
  6
CONTINUOUS
 10
-656.0718421602
 20
113.1895821284
 11
-636.0718440538
 21
93.1895801211
  0
LINE
  5
378
100
AcDbEntity
  8
0
100
AcDbLine
 62
7
  6
CONTINUOUS
 10
-753.5718314074
 20
403.1895928304
 11
-753.5718314074
 21
64.1895928609
  0
LINE
  5
379
100
AcDbEntity
  8
0
100
AcDbLine
 62
7
  6
CONTINUOUS
 10
-753.0718314074
 20
88.1895928304
 11
-753.0718314074
 21
358.1895928304
  0
LINE
  5
37A
100
AcDbEntity
  8
0
100
AcDbLine
 62
9
  6
CONTINUOUS
 10
-744.0718314074
 20
88.1895928304
 11
-744.0718314074
 21
358.1895928304
  0
LINE
  5
37B
100
AcDbEntity
  8
0
100
AcDbLine
 62
7
  6
CONTINUOUS
 10
-742.0718314074
 20
90.1895928304
 11
-742.0718314074
 21
356.1895928304
  0
LINE
  5
37C
100
AcDbEntity
  8
0
100
AcDbLine
 62
9
  6
CONTINUOUS
 10
-740.571831406
 20
293.1895928304
 11
-740.5718314074
 21
231.1895928304
  0
LINE
  5
37D
100
AcDbEntity
  8
0
100
AcDbLine
 62
9
  6
CONTINUOUS
 10
-740.5718314074
 20
215.1895928304
 11
-740.571831406
 21
153.1895928296
  0
LINE
  5
37E
100
AcDbEntity
  8
0
100
AcDbLine
 62
7
  6
CONTINUOUS
 10
-739.0718314074
 20
310.1895928304
 11
-739.0718314074
 21
231.1895928304
  0
LINE
  5
37F
100
AcDbEntity
  8
0
100
AcDbLine
 62
7
  6
CONTINUOUS
 10
-739.0718314074
 20
215.1895928304
 11
-739.0718314074
 21
136.1895928304
  0
LINE
  5
380
100
AcDbEntity
  8
0
100
AcDbLine
 62
9
  6
CONTINUOUS
 10
-739.0718314074
 20
218.1895928304
 11
-739.0718314074
 21
228.1895928304
  0
LINE
  5
381
100
AcDbEntity
  8
0
100
AcDbLine
 62
9
  6
CONTINUOUS
 10
-738.0718314074
 20
123.1895928304
 11
-738.0718314074
 21
131.4959753507
  0
LINE
  5
382
100
AcDbEntity
  8
0
100
AcDbLine
 62
9
  6
CONTINUOUS
 10
-738.0718314074
 20
314.8832100705
 11
-738.0718314074
 21
323.1895928304
  0
LINE
  5
383
100
AcDbEntity
  8
0
100
AcDbLine
 62
9
  6
CONTINUOUS
 10
-736.2141322849
 20
293.0706209836
 11
-736.2141322849
 21
230.9387893333
  0
LINE
  5
384
100
AcDbEntity
  8
0
100
AcDbLine
 62
9
  6
CONTINUOUS
 10
-736.2141322849
 20
215.4403963275
 11
-736.2141322849
 21
153.3085646773
  0
LINE
  5
385
100
AcDbEntity
  8
0
100
AcDbLine
 62
9
  6
CONTINUOUS
 10
-736.0718314074
 20
146.705666359
 11
-736.0718314074
 21
131.1895683301
  0
LINE
  5
386
100
AcDbEntity
  8
0
100
AcDbLine
 62
9
  6
CONTINUOUS
 10
-736.0718314074
 20
299.6735193018
 11
-736.0718314074
 21
315.1896173268
  0
LINE
  5
387
100
AcDbEntity
  8
02___PRT_ALL_AXES
100
AcDbLine
 62
7
  6
CONTINUOUS
 10
-727.5718314074
 20
509.1895928304
 11
-727.5718314074
 21
526.1895928304
  0
LINE
  5
388
100
AcDbEntity
  8
0
100
AcDbLine
 62
9
  6
CONTINUOUS
 10
-736.4178084382
 20
293.2481259408
 11
-734.4950504275
 21
295.5167419164
  0
LINE
  5
389
100
AcDbEntity
  8
0
100
AcDbLine
 62
9
  6
CONTINUOUS
 10
-736.2141322849
 20
293.0706209836
 11
-734.2923755851
 21
295.3379427976
  0
LINE
  5
38A
100
AcDbEntity
  8
0
100
AcDbLine
 62
9
  6
CONTINUOUS
 10
-674.0229707749
 20
178.0045274584
 11
-671.0718314074
 21
178.5437643579
  0
LINE
  5
38B
100
AcDbEntity
  8
0
100
AcDbLine
 62
9
  6
CONTINUOUS
 10
-675.0718314074
 20
182.4612118117
 11
-699.3296074683
 21
182.4612118117
  0
LINE
  5
38C
100
AcDbEntity
  8
0
100
AcDbLine
 62
9
  6
CONTINUOUS
 10
-993.5718314074
 20
188.1895928304
 11
-1003.5718314074
 21
188.1895928304
  0
LINE
  5
38D
100
AcDbEntity
  8
0
100
AcDbLine
 62
9
  6
CONTINUOUS
 10
-702.6657323225
 20
178.2658957086
 11
-704.4719083458
 21
180.573891734
  0
LINE
  5
38E
100
AcDbEntity
  8
0
100
AcDbLine
 62
9
  6
CONTINUOUS
 10
-704.4719083458
 20
265.805293915
 11
-704.4719083458
 21
230.7956533795
  0
LINE
  5
38F
100
AcDbEntity
  8
0
100
AcDbLine
 62
9
  6
CONTINUOUS
 10
-704.4719083458
 20
215.5835322813
 11
-704.4719083458
 21
180.573891734
  0
LINE
  5
390
100
AcDbEntity
  8
0
100
AcDbLine
 62
9
  6
CONTINUOUS
 10
-699.3296074683
 20
179.5862672692
 11
-699.3296074683
 21
218.1895928304
  0
LINE
  5
391
100
AcDbEntity
  8
0
100
AcDbLine
 62
9
  6
CONTINUOUS
 10
-699.3296074683
 20
228.1895928304
 11
-699.3296074683
 21
266.7929183917
  0
LINE
  5
392
100
AcDbEntity
  8
0
100
AcDbLine
 62
7
  6
CONTINUOUS
 10
-656.0718421602
 20
333.1896035325
 11
-636.0718440538
 21
353.1896055398
  0
LINE
  5
393
100
AcDbEntity
  8
0
100
AcDbLine
 62
9
  6
CONTINUOUS
 10
-742.0718314074
 20
215.1895928304
 11
-739.0718314074
 21
215.1895928304
  0
LINE
  5
394
100
AcDbEntity
  8
0
100
AcDbLine
 62
9
  6
CONTINUOUS
 10
-671.0718314074
 20
215.1895928304
 11
-669.0718314075
 21
215.1895928302
  0
LINE
  5
395
100
AcDbEntity
  8
0
100
AcDbLine
 62
9
  6
CONTINUOUS
 10
-699.3296074683
 20
215.7170653579
 11
-675.0718314074
 21
215.7170653579
  0
LINE
  5
396
100
AcDbEntity
  8
0
100
AcDbLine
 62
7
  6
CONTINUOUS
 10
-674.0718314074
 20
218.1895928304
 11
-739.0718314074
 21
218.1895928304
  0
LINE
  5
397
100
AcDbEntity
  8
0
100
AcDbLine
 62
9
  6
CONTINUOUS
 10
-674.0718314074
 20
220.1895928304
 11
-742.0718314074
 21
220.1895928306
  0
LINE
  5
398
100
AcDbEntity
  8
0
100
AcDbLine
 62
9
  6
CONTINUOUS
 10
-753.5718314074
 20
223.1895928304
 11
-993.5718314074
 21
223.1895928304
  0
LINE
  5
399
100
AcDbEntity
  8
0
100
AcDbLine
 62
9
  6
CONTINUOUS
 10
-674.0718314074
 20
226.1895928304
 11
-742.0718314074
 21
226.1895928302
  0
LINE
  5
39A
100
AcDbEntity
  8
0
100
AcDbLine
 62
7
  6
CONTINUOUS
 10
-739.0718314074
 20
228.1895928304
 11
-674.0718314074
 21
228.1895928304
  0
LINE
  5
39B
100
AcDbEntity
  8
0
100
AcDbLine
 62
9
  6
CONTINUOUS
 10
-675.0718314074
 20
230.6621203029
 11
-699.3296074683
 21
230.6621203029
  0
LINE
  5
39C
100
AcDbEntity
  8
0
100
AcDbLine
 62
9
  6
CONTINUOUS
 10
-671.0718314074
 20
231.1895928304
 11
-669.0718314074
 21
231.1895928304
  0
LINE
  5
39D
100
AcDbEntity
  8
0
100
AcDbLine
 62
9
  6
CONTINUOUS
 10
-739.0718314074
 20
231.1895928304
 11
-742.0718314074
 21
231.1895928304
  0
LINE
  5
39E
100
AcDbEntity
  8
0
100
AcDbLine
 62
9
  6
CONTINUOUS
 10
-675.0718314074
 20
179.5862672692
 11
-675.0718314074
 21
218.1895928304
  0
LINE
  5
39F
100
AcDbEntity
  8
0
100
AcDbLine
 62
9
  6
CONTINUOUS
 10
-675.0718314074
 20
228.1895928304
 11
-675.0718314074
 21
266.7929183917
  0
LINE
  5
3A0
100
AcDbEntity
  8
0
100
AcDbLine
 62
9
  6
CONTINUOUS
 10
-674.0718314074
 20
228.1895928304
 11
-674.0718314077
 21
226.1895928305
  0
LINE
  5
3A1
100
AcDbEntity
  8
0
100
AcDbLine
 62
9
  6
CONTINUOUS
 10
-674.0718314077
 20
123.1895928304
 11
-674.0718314074
 21
177.7775900118
  0
LINE
  5
3A2
100
AcDbEntity
  8
0
100
AcDbLine
 62
9
  6
CONTINUOUS
 10
-674.0718314074
 20
218.1895928304
 11
-674.0718314074
 21
220.1895928304
  0
LINE
  5
3A3
100
AcDbEntity
  8
0
100
AcDbLine
 62
9
  6
CONTINUOUS
 10
-674.0718314074
 20
268.6015956491
 11
-674.0718314074
 21
323.1895928304
  0
LINE
  5
3A4
100
AcDbEntity
  8
0
100
AcDbLine
 62
7
  6
CONTINUOUS
 10
-671.0718314074
 20
125.1895928304
 11
-671.0718314074
 21
215.1895928304
  0
LINE
  5
3A5
100
AcDbEntity
  8
0
100
AcDbLine
 62
7
  6
CONTINUOUS
 10
-671.0718314074
 20
231.1895928304
 11
-671.0718314074
 21
321.1895928304
  0
LINE
  5
3A6
100
AcDbEntity
  8
0
100
AcDbLine
 62
9
  6
CONTINUOUS
 10
-669.0718314074
 20
123.1895928304
 11
-669.0718314074
 21
215.1895928304
  0
LINE
  5
3A7
100
AcDbEntity
  8
0
100
AcDbLine
 62
9
  6
CONTINUOUS
 10
-669.0718314074
 20
231.1895928304
 11
-669.0718314074
 21
323.1895928304
  0
LINE
  5
3A8
100
AcDbEntity
  8
0
100
AcDbLine
 62
9
  6
CONTINUOUS
 10
-704.4719083458
 20
265.805293915
 11
-702.6657293271
 21
268.1132876076
  0
LINE
  5
3A9
100
AcDbEntity
  8
0
100
AcDbLine
 62
9
  6
CONTINUOUS
 10
-753.5718314074
 20
250.1092548964
 11
-993.5718314074
 21
250.1092548964
  0
LINE
  5
3AA
100
AcDbEntity
  8
0
100
AcDbLine
 62
9
  6
CONTINUOUS
 10
-993.5718314074
 20
258.1895928304
 11
-1003.5718314074
 21
258.1895928304
  0
LINE
  5
3AB
100
AcDbEntity
  8
0
100
AcDbLine
 62
9
  6
CONTINUOUS
 10
-699.3296074683
 20
263.9179738492
 11
-675.0718314074
 21
263.9179738492
  0
LINE
  5
3AC
100
AcDbEntity
  8
0
100
AcDbLine
 62
9
  6
CONTINUOUS
 10
-699.3296074683
 20
266.7929183917
 11
-675.0718314074
 21
266.7929183917
  0
LINE
  5
3AD
100
AcDbEntity
  8
02___PRT_ALL_AXES
100
AcDbLine
 62
7
  6
CONTINUOUS
 10
-1069.5718314074
 20
273.1895928304
 11
-1086.5718314074
 21
273.1895928304
  0
LINE
  5
3AE
100
AcDbEntity
  8
0
100
AcDbLine
 62
9
  6
CONTINUOUS
 10
-671.0718314074
 20
267.835421303
 11
-674.0229707749
 21
268.3746582025
  0
LINE
  5
3AF
100
AcDbEntity
  8
0
100
AcDbLine
 62
9
  6
CONTINUOUS
 10
-657.0718314074
 20
323.1895928304
 11
-657.0718314074
 21
123.1895928304
  0
LINE
  5
3B0
100
AcDbEntity
  8
0
100
AcDbLine
 62
7
  6
CONTINUOUS
 10
-656.0718314074
 20
113.1908710179
 11
-656.0718314074
 21
333.1883146429
  0
LINE
  5
3B1
100
AcDbEntity
  8
0
100
AcDbLine
 62
7
  6
CONTINUOUS
 10
-636.0718314683
 20
93.1895928304
 11
-636.0718314683
 21
353.1895928304
  0
LINE
  5
3B2
100
AcDbEntity
  8
0
100
AcDbLine
 62
9
  6
CONTINUOUS
 10
-739.0718314074
 20
299.2211060896
 11
-736.0764523107
 21
299.3875514771
  0
LINE
  5
3B3
100
AcDbEntity
  8
0
100
AcDbLine
 62
7
  6
CONTINUOUS
 10
-1003.5718314074
 20
283.1895928304
 11
-997.5718314074
 21
283.1895928304
  0
LINE
  5
3B4
100
AcDbEntity
  8
0
100
AcDbLine
 62
9
  6
CONTINUOUS
 10
-656.0718314074
 20
283.1895928304
 11
-671.0718314074
 21
283.1895928304
  0
LINE
  5
3B5
100
AcDbEntity
  8
02___PRT_ALL_AXES
100
AcDbLine
 62
7
  6
CONTINUOUS
 10
-997.5718314074
 20
283.1895928304
 11
-1003.5718314074
 21
283.1895928304
  0
LINE
  5
3B6
100
AcDbEntity
  8
0
100
AcDbLine
 62
9
  6
CONTINUOUS
 10
-742.0718314074
 20
293.1895928304
 11
-739.0718314074
 21
293.189583801
  0
LINE
  5
3B7
100
AcDbEntity
  8
0
100
AcDbLine
 62
9
  6
CONTINUOUS
 10
-671.0718314074
 20
310.1895928304
 11
-739.0718314074
 21
310.1895928304
  0
LINE
  5
3B8
100
AcDbEntity
  8
0
100
AcDbLine
 62
7
  6
CONTINUOUS
 10
-606.0718314074
 20
332.7341043315
 11
-606.0718314074
 21
403.1895928304
  0
LINE
  5
3B9
100
AcDbEntity
  8
0
100
AcDbLine
 62
9
  6
CONTINUOUS
 10
-742.0718314074
 20
312.0625761769
 11
-740.0696526972
 21
312.0625761766
  0
LINE
  5
3BA
100
AcDbEntity
  8
0
100
AcDbLine
 62
7
  6
CONTINUOUS
 10
-1013.5718314074
 20
313.1895928304
 11
-993.5718314074
 21
313.1895928304
  0
LINE
  5
3BB
100
AcDbEntity
  8
0
100
AcDbLine
 62
7
  6
CONTINUOUS
 10
-674.0718314074
 20
313.1895928304
 11
-736.0718314074
 21
313.1895928304
  0
LINE
  5
3BC
100
AcDbEntity
  8
0
100
AcDbLine
 62
7
  6
CONTINUOUS
 10
-855.0718314074
 20
315.0303608636
 11
-800.0718314074
 21
315.0303608636
  0
LINE
  5
3BD
100
AcDbEntity
  8
0
100
AcDbLine
 62
9
  6
CONTINUOUS
 10
-671.0718314074
 20
321.1895928304
 11
-742.0718314074
 21
321.1895928306
  0
LINE
  5
3BE
100
AcDbEntity
  8
3_ALL_AXES
100
AcDbLine
 62
7
  6
CONTINUOUS
 10
-669.0718314074
 20
323.1895928304
 11
-657.0718314074
 21
323.1895928304
  0
LINE
  5
3BF
100
AcDbEntity
  8
0
100
AcDbLine
 62
7
  6
CONTINUOUS
 10
-657.0718314074
 20
323.1895928304
 11
-738.0718314074
 21
323.1895928304
  0
LINE
  5
3C0
100
AcDbEntity
  8
0
100
AcDbLine
 62
9
  6
CONTINUOUS
 10
-1016.5718314074
 20
325.1895928304
 11
-1003.5718314074
 21
325.1895928304
  0
LINE
  5
3C1
100
AcDbEntity
  8
02___PRT_ALL_AXES
100
AcDbLine
 62
7
  6
CONTINUOUS
 10
-1018.5718314074
 20
325.1895928304
 11
-1064.5718314074
 21
325.1895928304
  0
LINE
  5
3C2
100
AcDbEntity
  8
0
100
AcDbLine
 62
9
  6
CONTINUOUS
 10
-1003.5718314074
 20
328.1895928304
 11
-993.5718314074
 21
328.1895928304
  0
LINE
  5
3C3
100
AcDbEntity
  8
0
100
AcDbLine
 62
7
  6
CONTINUOUS
 10
-466.0718314074
 20
332.7341043315
 11
-606.0718314074
 21
332.7341043315
  0
LINE
  5
3C4
100
AcDbEntity
  8
0
100
AcDbLine
 62
7
  6
CONTINUOUS
 10
-588.0718314074
 20
23.1895928304
 11
-588.0718314074
 21
27.1895928304
  0
LINE
  5
3C5
100
AcDbEntity
  8
0
100
AcDbLine
 62
3
  6
CONTINUOUS
 10
-588.0718314074
 20
27.1895928304
 11
-588.0718314074
 21
91.1895928304
  0
LINE
  5
3C6
100
AcDbEntity
  8
0
100
AcDbLine
 62
7
  6
CONTINUOUS
 10
-587.0718314074
 20
91.1895928304
 11
-587.0718314074
 21
106.1895928304
  0
LINE
  5
3C7
100
AcDbEntity
  8
0
100
AcDbLine
 62
9
  6
CONTINUOUS
 10
-573.0718314074
 20
23.1895928304
 11
-573.0718314074
 21
27.1895928304
  0
LINE
  5
3C8
100
AcDbEntity
  8
3_ALL_AXES
100
AcDbLine
 62
7
  6
CONTINUOUS
 10
-753.5718314074
 20
345.6895928304
 11
-753.0718314074
 21
345.6895928304
  0
LINE
  5
3C9
100
AcDbEntity
  8
02___PRT_ALL_AXES
100
AcDbLine
 62
7
  6
CONTINUOUS
 10
-266.3560780439
 20
353.1895928304
 11
-308.0718314074
 21
353.1895928304
  0
LINE
  5
3CA
100
AcDbEntity
  8
02___PRT_ALL_AXES
100
AcDbLine
 62
7
  6
CONTINUOUS
 10
-318.0718314074
 20
353.1895928304
 11
-466.0718314074
 21
353.1895928304
  0
LINE
  5
3CB
100
AcDbEntity
  8
02___PRT_ALL_AXES
100
AcDbLine
 62
7
  6
CONTINUOUS
 10
-606.0718314074
 20
353.1895928304
 11
-636.0718313444
 21
353.1895928304
  0
LINE
  5
3CC
100
AcDbEntity
  8
0
100
AcDbLine
 62
7
  6
CONTINUOUS
 10
-753.0718314074
 20
358.1895928304
 11
-744.0718314074
 21
358.1895928304
  0
LINE
  5
3CD
100
AcDbEntity
  8
0
100
AcDbLine
 62
7
  6
CONTINUOUS
 10
-606.0718314074
 20
403.1895928304
 11
-466.0718314074
 21
403.1895928304
  0
LINE
  5
3CE
100
AcDbEntity
  8
0
100
AcDbLine
 62
9
  6
CONTINUOUS
 10
-986.3967762459
 20
418.1895928304
 11
-1003.5718314074
 21
418.1895928304
  0
LINE
  5
3CF
100
AcDbEntity
  8
0
100
AcDbLine
 62
9
  6
CONTINUOUS
 10
-1016.5718314074
 20
421.1895928304
 11
-1003.5718314074
 21
421.1895928304
  0
LINE
  5
3D0
100
AcDbEntity
  8
02___PRT_ALL_AXES
100
AcDbLine
 62
7
  6
CONTINUOUS
 10
-1018.5718314074
 20
421.1895928304
 11
-1064.5718314074
 21
421.1895928304
  0
LINE
  5
3D1
100
AcDbEntity
  8
0
100
AcDbLine
 62
7
  6
CONTINUOUS
 10
-767.5718314074
 20
428.1895928304
 11
-887.5718314074
 21
428.1895928304
  0
LINE
  5
3D2
100
AcDbEntity
  8
0
100
AcDbLine
 62
9
  6
CONTINUOUS
 10
-887.5718314074
 20
432.6792790536
 11
-963.5718314074
 21
432.6792771351
  0
LINE
  5
3D3
100
AcDbEntity
  8
0
100
AcDbLine
 62
7
  6
CONTINUOUS
 10
-1013.5718314074
 20
433.1895928304
 11
-887.5718314074
 21
433.1895928304
  0
LINE
  5
3D4
100
AcDbEntity
  8
0
100
AcDbLine
 62
7
  6
CONTINUOUS
 10
-767.5718314074
 20
443.1895928304
 11
-887.5718314074
 21
443.1895928304
  0
LINE
  5
3D5
100
AcDbEntity
  8
0
100
AcDbLine
 62
7
  6
CONTINUOUS
 10
-466.0718314074
 20
332.7341043315
 11
-466.0718314074
 21
403.1895928304
  0
LINE
  5
3D6
100
AcDbEntity
  8
0
100
AcDbLine
 62
9
  6
CONTINUOUS
 10
-887.5718314074
 20
453.1895928304
 11
-767.5718314074
 21
453.1895928304
  0
LINE
  5
3D7
100
AcDbEntity
  8
0
100
AcDbLine
 62
7
  6
CONTINUOUS
 10
-884.5718314074
 20
456.1895928304
 11
-770.5718314074
 21
456.1895928304
  0
LINE
  5
3D8
100
AcDbEntity
  8
0
100
AcDbLine
 62
9
  6
CONTINUOUS
 10
-875.5718314072
 20
458.1895928304
 11
-779.5718314076
 21
458.1895928304
  0
LINE
  5
3D9
100
AcDbEntity
  8
02___PRT_ALL_AXES
100
AcDbLine
 62
7
  6
CONTINUOUS
 10
-1069.5718314074
 20
473.1895928304
 11
-1086.5718314074
 21
473.1895928304
  0
LINE
  5
3DA
100
AcDbEntity
  8
0
100
AcDbLine
 62
9
  6
CONTINUOUS
 10
-779.5718314076
 20
504.1895928304
 11
-875.5718314072
 21
504.1895928304
  0
LINE
  5
3DB
100
AcDbEntity
  8
0
100
AcDbLine
 62
7
  6
CONTINUOUS
 10
-924.5718314074
 20
506.1895928304
 11
-730.5718314074
 21
506.1895928304
  0
LINE
  5
3DC
100
AcDbEntity
  8
0
100
AcDbLine
 62
9
  6
CONTINUOUS
 10
-727.5718314074
 20
509.1895928304
 11
-927.5718314074
 21
509.1895928304
  0
LINE
  5
3DD
100
AcDbEntity
  8
02___PRT_ALL_AXES
100
AcDbLine
 62
7
  6
CONTINUOUS
 10
-927.5714023003
 20
526.1895928304
 11
-727.5722605145
 21
526.1895928304
  0
LINE
  5
3DE
100
AcDbEntity
  8
0
100
AcDbLine
 62
9
  6
CONTINUOUS
 10
-383.0718314074
 20
23.1895928304
 11
-383.0718314074
 21
27.1895928304
  0
LINE
  5
3DF
100
AcDbEntity
  8
0
100
AcDbLine
 62
7
  6
CONTINUOUS
 10
-369.0718314074
 20
91.1895928304
 11
-369.0718314074
 21
106.1895928304
  0
LINE
  5
3E0
100
AcDbEntity
  8
0
100
AcDbLine
 62
7
  6
CONTINUOUS
 10
-368.0718314074
 20
23.1895928304
 11
-368.0718314074
 21
27.1895928304
  0
LINE
  5
3E1
100
AcDbEntity
  8
0
100
AcDbLine
 62
3
  6
CONTINUOUS
 10
-368.0718314074
 20
27.1895928304
 11
-368.0718314074
 21
91.1895928304
  0
LINE
  5
3E2
100
AcDbEntity
  8
0
100
AcDbLine
 62
7
  6
CONTINUOUS
 10
-308.0718314074
 20
343.1895928304
 11
-318.0718314074
 21
353.1895928304
  0
LINE
  5
3E3
100
AcDbEntity
  8
0
100
AcDbLine
 62
7
  6
CONTINUOUS
 10
-318.0718314074
 20
93.1895928304
 11
-318.0718314074
 21
353.1895928304
  0
LINE
  5
3E4
100
AcDbEntity
  8
0
100
AcDbLine
 62
7
  6
CONTINUOUS
 10
-308.0718314074
 20
93.1911164676
 11
-308.0718314074
 21
353.1880691933
  0
LINE
  5
3E5
100
AcDbEntity
  8
0
100
AcDbLine
 62
7
  6
CONTINUOUS
 10
-243.929694336
 20
339.0474787314
 11
-252.2139410251
 21
347.3317270631
  0
LINE
  5
3E6
100
AcDbEntity
  8
0
100
AcDbLine
 62
9
  6
CONTINUOUS
 10
-266.3560780527
 20
93.1895928433
 11
-266.3560780527
 21
353.1895928176
  0
LINE
  5
3E7
100
AcDbEntity
  8
0
100
AcDbLine
 62
7
  6
CONTINUOUS
 10
-308.0718314074
 20
103.1895928304
 11
-318.0718314074
 21
93.1895928304
  0
LINE
  5
3E8
100
AcDbEntity
  8
0
100
AcDbLine
 62
9
  6
CONTINUOUS
 10
-252.2139410494
 20
99.0474585858
 11
-252.2139410494
 21
347.3317270751
  0
LINE
  5
3E9
100
AcDbEntity
  8
0
100
AcDbLine
 62
9
  6
CONTINUOUS
 10
-243.929694336
 20
339.0474787314
 11
-243.929694336
 21
107.3317069294
  0
LINE
  5
3EA
100
AcDbEntity
  8
0
100
AcDbLine
 62
7
  6
CONTINUOUS
 10
-238.0718314074
 20
324.9053445312
 11
-238.0718314074
 21
121.4738411296
  0
LINE
  5
3EB
100
AcDbEntity
  8
0
100
AcDbLine
 62
7
  6
CONTINUOUS
 10
-243.929694336
 20
107.3317069294
 11
-252.2139410251
 21
99.0474585977
  0
LINE
  5
3EC
100
AcDbEntity
  8
0
100
AcDbLine
 62
7
  6
CONTINUOUS
 10
1885.7999733787
 20
23.1895928304
 11
1955.7999733787
 21
23.1895928304
  0
LINE
  5
3ED
100
AcDbEntity
  8
0
100
AcDbLine
 62
7
  6
CONTINUOUS
 10
2155.7999733787
 20
23.1895928304
 11
2225.7999733787
 21
23.1895928304
  0
LINE
  5
3EE
100
AcDbEntity
  8
0
100
AcDbLine
 62
3
  6
CONTINUOUS
 10
1885.7999733787
 20
27.1895928304
 11
1921.7999733787
 21
27.1895928304
  0
LINE
  5
3EF
100
AcDbEntity
  8
0
100
AcDbLine
 62
3
  6
CONTINUOUS
 10
2189.7999733787
 20
27.1895928304
 11
2225.7999733787
 21
27.1895928304
  0
LINE
  5
3F0
100
AcDbEntity
  8
0
100
AcDbLine
 62
9
  6
CONTINUOUS
 10
2185.7999733787
 20
31.1895928304
 11
2181.7999733787
 21
31.1895928304
  0
LINE
  5
3F1
100
AcDbEntity
  8
0
100
AcDbLine
 62
9
  6
CONTINUOUS
 10
1925.7999733787
 20
31.1895928304
 11
1929.7999733787
 21
31.1895928304
  0
LINE
  5
3F2
100
AcDbEntity
  8
0
100
AcDbLine
 62
7
  6
CONTINUOUS
 10
1962.9421090024
 20
34.1895928304
 11
2148.6578377549
 21
34.1895928304
  0
LINE
  5
3F3
100
AcDbEntity
  8
0
100
AcDbLine
 62
7
  6
CONTINUOUS
 10
1806.7999733787
 20
526.1895928304
 11
1806.7999733787
 21
509.1895928304
  0
LINE
  5
3F4
100
AcDbEntity
  8
02___PRT_ALL_AXES
100
AcDbLine
 62
7
  6
CONTINUOUS
 10
1806.7999733787
 20
509.1895928304
 11
1806.7999733787
 21
526.1895928304
  0
LINE
  5
3F5
100
AcDbEntity
  8
0
100
AcDbLine
 62
9
  6
CONTINUOUS
 10
2185.7999733787
 20
83.1895928304
 11
2181.7999733787
 21
83.1895928304
  0
LINE
  5
3F6
100
AcDbEntity
  8
0
100
AcDbLine
 62
9
  6
CONTINUOUS
 10
1925.7999733787
 20
83.1895928304
 11
1929.7999733787
 21
83.1895928304
  0
LINE
  5
3F7
100
AcDbEntity
  8
0
100
AcDbLine
 62
7
  6
CONTINUOUS
 10
1933.7999733787
 20
87.1895928304
 11
2177.7999733787
 21
87.1895928304
  0
LINE
  5
3F8
100
AcDbEntity
  8
0
100
AcDbLine
 62
7
  6
CONTINUOUS
 10
1925.7999733787
 20
91.1895928304
 11
1933.7999733787
 21
91.1895928304
  0
LINE
  5
3F9
100
AcDbEntity
  8
0
100
AcDbLine
 62
3
  6
CONTINUOUS
 10
1933.7999733787
 20
91.1895928304
 11
2177.7999733787
 21
91.1895928304
  0
LINE
  5
3FA
100
AcDbEntity
  8
0
100
AcDbLine
 62
7
  6
CONTINUOUS
 10
2177.7999733787
 20
91.1895928304
 11
2185.7999733787
 21
91.1895928304
  0
LINE
  5
3FB
100
AcDbEntity
  8
0
100
AcDbLine
 62
7
  6
CONTINUOUS
 10
1846.7999733787
 20
453.1895928304
 11
1846.7999733787
 21
428.1895928304
  0
LINE
  5
3FC
100
AcDbEntity
  8
0
100
AcDbLine
 62
7
  6
CONTINUOUS
 10
1852.7999733787
 20
250.1092548964
 11
1852.7999733787
 21
223.1895928305
  0
LINE
  5
3FD
100
AcDbEntity
  8
0
100
AcDbLine
 62
9
  6
CONTINUOUS
 10
1858.7999733787
 20
456.1895928304
 11
1858.7999733787
 21
443.1895928304
  0
LINE
  5
3FE
100
AcDbEntity
  8
02___PRT_ALL_AXES
100
AcDbLine
 62
7
  6
CONTINUOUS
 10
1858.7999733787
 20
458.1895928304
 11
1858.7999733787
 21
504.1895928304
  0
LINE
  5
3FF
100
AcDbEntity
  8
0
100
AcDbLine
 62
7
  6
CONTINUOUS
 10
1858.7999733787
 20
458.1895928304
 11
1858.7999733787
 21
504.1895928304
  0
LINE
  5
400
100
AcDbEntity
  8
0
100
AcDbLine
 62
9
  6
CONTINUOUS
 10
1861.7999733787
 20
443.1895928304
 11
1861.7999733787
 21
428.1895928304
  0
LINE
  5
401
100
AcDbEntity
  8
0
100
AcDbLine
 62
7
  6
CONTINUOUS
 10
1864.2999733787
 20
315.0303608636
 11
1864.2999733787
 21
428.1895928304
  0
LINE
  5
402
100
AcDbEntity
  8
0
100
AcDbLine
 62
7
  6
CONTINUOUS
 10
1925.7999733787
 20
106.1895928304
 11
1999.1342871126
 21
106.1895928304
  0
LINE
  5
403
100
AcDbEntity
  8
0
100
AcDbLine
 62
7
  6
CONTINUOUS
 10
2112.4656596447
 20
106.1895928304
 11
2185.7999733787
 21
106.1895928304
  0
LINE
  5
404
100
AcDbEntity
  8
0
100
AcDbLine
 62
9
  6
CONTINUOUS
 10
1879.2999733787
 20
346.6222073951
 11
1879.2999733787
 21
428.1895928304
  0
LINE
  5
405
100
AcDbEntity
  8
0
100
AcDbLine
 62
9
  6
CONTINUOUS
 10
1882.7999733787
 20
250.1092548964
 11
1882.7999733787
 21
223.1895928304
  0
LINE
  5
406
100
AcDbEntity
  8
0
100
AcDbLine
 62
7
  6
CONTINUOUS
 10
1885.7999733787
 20
23.1895928304
 11
1885.7999733787
 21
41.1895928304
  0
LINE
  5
407
100
AcDbEntity
  8
0
100
AcDbLine
 62
9
  6
CONTINUOUS
 10
1900.7999733787
 20
23.1895928304
 11
1900.7999733787
 21
27.1895928304
  0
LINE
  5
408
100
AcDbEntity
  8
0
100
AcDbLine
 62
9
  6
CONTINUOUS
 10
1921.7999733787
 20
27.1895928304
 11
1921.7999733787
 21
23.1895928304
  0
LINE
  5
409
100
AcDbEntity
  8
0
100
AcDbLine
 62
3
  6
CONTINUOUS
 10
1925.7999733787
 20
31.1895928304
 11
1925.7999733787
 21
83.1895928304
  0
LINE
  5
40A
100
AcDbEntity
  8
0
100
AcDbLine
 62
7
  6
CONTINUOUS
 10
1925.7999733787
 20
91.1895928304
 11
1925.7999733787
 21
106.1895928304
  0
LINE
  5
40B
100
AcDbEntity
  8
0
100
AcDbLine
 62
7
  6
CONTINUOUS
 10
1929.7999733787
 20
31.1895928304
 11
1929.7999733787
 21
83.1895928304
  0
LINE
  5
40C
100
AcDbEntity
  8
0
100
AcDbLine
 62
9
  6
CONTINUOUS
 10
1933.7999733787
 20
91.1895928304
 11
1933.7999733787
 21
87.1895928304
  0
LINE
  5
40D
100
AcDbEntity
  8
0
100
AcDbLine
 62
9
  6
CONTINUOUS
 10
1934.2999733787
 20
405.5594076786
 11
1934.2999733787
 21
428.1895928304
  0
LINE
  5
40E
100
AcDbEntity
  8
0
100
AcDbLine
 62
7
  6
CONTINUOUS
 10
1949.2999733787
 20
414.9265780151
 11
1949.2999733787
 21
428.1895928304
  0
LINE
  5
40F
100
AcDbEntity
  8
0
100
AcDbLine
 62
9
  6
CONTINUOUS
 10
1951.7999733787
 20
443.1895928304
 11
1951.7999733787
 21
428.1895928304
  0
LINE
  5
410
100
AcDbEntity
  8
0
100
AcDbLine
 62
9
  6
CONTINUOUS
 10
1954.7999733787
 20
456.1895928304
 11
1954.7999733787
 21
443.1895928304
  0
LINE
  5
411
100
AcDbEntity
  8
02___PRT_ALL_AXES
100
AcDbLine
 62
7
  6
CONTINUOUS
 10
1954.7999733787
 20
458.1895928304
 11
1954.7999733787
 21
504.1895928304
  0
LINE
  5
412
100
AcDbEntity
  8
0
100
AcDbLine
 62
7
  6
CONTINUOUS
 10
1954.7999733787
 20
458.1895928304
 11
1954.7999733787
 21
504.1895928304
  0
LINE
  5
413
100
AcDbEntity
  8
02___PRT_ALL_AXES
100
AcDbLine
 62
7
  6
CONTINUOUS
 10
1955.7999733787
 20
23.1895928304
 11
1955.7999733787
 21
27.0474572067
  0
LINE
  5
414
100
AcDbEntity
  8
0
100
AcDbLine
 62
7
  6
CONTINUOUS
 10
2155.7999733787
 20
27.0474572067
 11
2148.6578377549
 21
34.1895928304
  0
LINE
  5
415
100
AcDbEntity
  8
0
100
AcDbLine
 62
7
  6
CONTINUOUS
 10
1966.7999733787
 20
453.1895928304
 11
1966.7999733787
 21
428.1895928304
  0
LINE
  5
416
100
AcDbEntity
  8
0
100
AcDbLine
 62
9
  6
CONTINUOUS
 10
1882.7999733787
 20
223.1895928304
 11
1852.7999733787
 21
223.1895928305
  0
LINE
  5
417
100
AcDbEntity
  8
0
100
AcDbLine
 62
9
  6
CONTINUOUS
 10
2200.7999733787
 20
223.1895928304
 11
2230.7999733787
 21
223.1895928304
  0
LINE
  5
418
100
AcDbEntity
  8
0
100
AcDbLine
 62
7
  6
CONTINUOUS
 10
1985.7999733787
 20
332.7341043315
 11
1985.7999733787
 21
403.1895928304
  0
LINE
  5
419
100
AcDbEntity
  8
0
100
AcDbLine
 62
9
  6
CONTINUOUS
 10
1882.7999733787
 20
250.1092548964
 11
1852.7999733787
 21
250.1092548964
  0
LINE
  5
41A
100
AcDbEntity
  8
0
100
AcDbLine
 62
9
  6
CONTINUOUS
 10
2200.7999733787
 20
250.1092548964
 11
2230.7999733787
 21
250.1092548964
  0
LINE
  5
41B
100
AcDbEntity
  8
0
100
AcDbLine
 62
7
  6
CONTINUOUS
 10
2006.7999733787
 20
526.1895928304
 11
2006.7999733787
 21
509.1895928304
  0
LINE
  5
41C
100
AcDbEntity
  8
02___PRT_ALL_AXES
100
AcDbLine
 62
7
  6
CONTINUOUS
 10
2006.7999733787
 20
509.1895928304
 11
2006.7999733787
 21
526.1895928304
  0
LINE
  5
41D
100
AcDbEntity
  8
0
100
AcDbLine
 62
7
  6
CONTINUOUS
 10
1911.7167821641
 20
86.0788224168
 11
1885.7999733787
 21
41.1895928304
  0
LINE
  5
41E
100
AcDbEntity
  8
0
100
AcDbLine
 62
7
  6
CONTINUOUS
 10
2036.7999733787
 20
443.1895928304
 11
2036.7999733787
 21
437.1895928304
  0
LINE
  5
41F
100
AcDbEntity
  8
0
100
AcDbLine
 62
7
  6
CONTINUOUS
 10
2225.7999733787
 20
41.1895928304
 11
2189.0959446203
 21
104.7628354823
  0
LINE
  5
420
100
AcDbEntity
  8
0
100
AcDbLine
 62
7
  6
CONTINUOUS
 10
2125.7999733787
 20
332.7341043315
 11
2125.7999733787
 21
403.1895928304
  0
LINE
  5
421
100
AcDbEntity
  8
0
100
AcDbLine
 62
7
  6
CONTINUOUS
 10
1962.9421090024
 20
34.1895928304
 11
1955.7999733787
 21
27.0474572067
  0
LINE
  5
422
100
AcDbEntity
  8
0
100
AcDbLine
 62
7
  6
CONTINUOUS
 10
1985.7999733787
 20
403.1895928304
 11
2125.7999733787
 21
403.1895928304
  0
LINE
  5
423
100
AcDbEntity
  8
02___PRT_ALL_AXES
100
AcDbLine
 62
7
  6
CONTINUOUS
 10
2155.7999733787
 20
23.1895928304
 11
2155.7999733787
 21
27.0474572067
  0
LINE
  5
424
100
AcDbEntity
  8
0
100
AcDbLine
 62
7
  6
CONTINUOUS
 10
2166.7999733787
 20
443.1895928304
 11
2166.7999733787
 21
393.6641224559
  0
LINE
  5
425
100
AcDbEntity
  8
0
100
AcDbLine
 62
7
  6
CONTINUOUS
 10
1966.7999733787
 20
428.1895928304
 11
1846.7999733787
 21
428.1895928304
  0
LINE
  5
426
100
AcDbEntity
  8
0
100
AcDbLine
 62
9
  6
CONTINUOUS
 10
2177.7999733787
 20
91.1895928304
 11
2177.7999733787
 21
87.1895928304
  0
LINE
  5
427
100
AcDbEntity
  8
0
100
AcDbLine
 62
7
  6
CONTINUOUS
 10
2181.7999733787
 20
83.1895928304
 11
2181.7999733787
 21
31.1895928304
  0
LINE
  5
428
100
AcDbEntity
  8
0
100
AcDbLine
 62
3
  6
CONTINUOUS
 10
2185.7999733787
 20
83.1895928304
 11
2185.7999733787
 21
31.1895928304
  0
LINE
  5
429
100
AcDbEntity
  8
0
100
AcDbLine
 62
7
  6
CONTINUOUS
 10
2185.7999733787
 20
91.1895928304
 11
2185.7999733787
 21
106.1895928304
  0
LINE
  5
42A
100
AcDbEntity
  8
0
100
AcDbLine
 62
9
  6
CONTINUOUS
 10
2189.7999733787
 20
27.1895928304
 11
2189.7999733787
 21
23.1895928304
  0
LINE
  5
42B
100
AcDbEntity
  8
0
100
AcDbLine
 62
7
  6
CONTINUOUS
 10
1993.7999733787
 20
433.1895928304
 11
2086.7999703913
 21
433.1895928304
  0
LINE
  5
42C
100
AcDbEntity
  8
0
100
AcDbLine
 62
9
  6
CONTINUOUS
 10
2036.7999733787
 20
437.1895928304
 11
2087.2224553042
 21
437.1895928304
  0
LINE
  5
42D
100
AcDbEntity
  8
0
100
AcDbLine
 62
7
  6
CONTINUOUS
 10
1966.7999733787
 20
443.1895928304
 11
1846.7999733787
 21
443.1895928304
  0
LINE
  5
42E
100
AcDbEntity
  8
02___PRT_ALL_AXES
100
AcDbLine
 62
7
  6
CONTINUOUS
 10
2036.7999733787
 20
443.1895928304
 11
2166.7999733787
 21
443.1895928304
  0
LINE
  5
42F
100
AcDbEntity
  8
0
100
AcDbLine
 62
9
  6
CONTINUOUS
 10
2200.7999733787
 20
223.1895928304
 11
2200.7999733787
 21
250.1092548964
  0
LINE
  5
430
100
AcDbEntity
  8
0
100
AcDbLine
 62
9
  6
CONTINUOUS
 10
2210.7999733787
 20
23.1895928304
 11
2210.7999733787
 21
27.1895928304
  0
LINE
  5
431
100
AcDbEntity
  8
0
100
AcDbLine
 62
9
  6
CONTINUOUS
 10
1846.7999733787
 20
453.1895928304
 11
1966.7999733787
 21
453.1895928304
  0
LINE
  5
432
100
AcDbEntity
  8
0
100
AcDbLine
 62
7
  6
CONTINUOUS
 10
1849.7999733787
 20
456.1895928304
 11
1963.7999733787
 21
456.1895928304
  0
LINE
  5
433
100
AcDbEntity
  8
0
100
AcDbLine
 62
9
  6
CONTINUOUS
 10
1858.7999733787
 20
458.1895928304
 11
1954.7999733787
 21
458.1895928304
  0
LWPOLYLINE
  5
434
100
AcDbEntity
  8
0
100
AcDbPolyline
 62
7
  6
CONTINUOUS
 90
3
 70
0
 10
2168.0973101279
 20
390.7159456222
 10
2168.0869084441
 20
390.7254432014
 10
2168.0532911582
 20
390.756738126
  0
LWPOLYLINE
  5
435
100
AcDbEntity
  8
0
100
AcDbPolyline
 62
7
  6
CONTINUOUS
 90
5
 70
0
 10
2168.0532911582
 20
390.756738126
 10
2167.9681499838
 20
390.839504085
 10
2167.8227967002
 20
390.9930574277
 10
2167.670113765
 20
391.1736286847
 10
2167.5247456527
 20
391.368071913
  0
LWPOLYLINE
  5
436
100
AcDbEntity
  8
0
100
AcDbPolyline
 62
7
  6
CONTINUOUS
 90
5
 70
0
 10
2167.5247456527
 20
391.368071913
 10
2167.3881384301
 20
391.5763677202
 10
2167.2618317594
 20
391.7983103267
 10
2167.1474809785
 20
392.0333702952
 10
2167.1198343916
 20
392.0967297085
  0
LWPOLYLINE
  5
437
100
AcDbEntity
  8
0
100
AcDbPolyline
 62
7
  6
CONTINUOUS
 90
4
 70
0
 10
2167.4710651908
 20
391.4464851142
 10
2167.3423560691
 20
391.6529962621
 10
2167.2238729805
 20
391.8720714319
 10
2167.1352724533
 20
392.0609808014
  0
LINE
  5
438
100
AcDbEntity
  8
0
100
AcDbLine
 62
7
  6
CONTINUOUS
 10
2225.7999733787
 20
23.1895928304
 11
2225.7999733787
 21
41.1895928304
  0
LINE
  5
439
100
AcDbEntity
  8
0
100
AcDbLine
 62
7
  6
CONTINUOUS
 10
2230.7999733787
 20
223.1895928304
 11
2230.7999733787
 21
250.1092548964
  0
LINE
  5
43A
100
AcDbEntity
  8
0
100
AcDbLine
 62
9
  6
CONTINUOUS
 10
1954.7999733787
 20
504.1895928304
 11
1858.7999733787
 21
504.1895928304
  0
LINE
  5
43B
100
AcDbEntity
  8
0
100
AcDbLine
 62
7
  6
CONTINUOUS
 10
2003.7999733787
 20
506.1895928304
 11
1809.7999733787
 21
506.1895928304
  0
LINE
  5
43C
100
AcDbEntity
  8
0
100
AcDbLine
 62
9
  6
CONTINUOUS
 10
2006.7999733787
 20
509.1895928304
 11
1806.7999733787
 21
509.1895928304
  0
LINE
  5
43D
100
AcDbEntity
  8
02___PRT_ALL_AXES
100
AcDbLine
 62
7
  6
CONTINUOUS
 10
1806.7999733787
 20
526.1895928304
 11
2006.7999733787
 21
526.1895928304
  0
LINE
  5
43E
100
AcDbEntity
  8
0
100
AcDbLine
 62
7
  6
CONTINUOUS
 10
701.5192213173
 20
-501.1889116958
 11
701.5192213173
 21
-297.7574082467
  0
LINE
  5
43F
100
AcDbEntity
  8
0
100
AcDbLine
 62
9
  6
CONTINUOUS
 10
707.3770842915
 20
-515.3310459182
 11
707.3770842915
 21
-283.615274025
  0
LINE
  5
440
100
AcDbEntity
  8
0
100
AcDbLine
 62
9
  6
CONTINUOUS
 10
715.6613309239
 20
-275.3310257499
 11
715.6613309239
 21
-523.6152941933
  0
LINE
  5
441
100
AcDbEntity
  8
0
100
AcDbLine
 62
9
  6
CONTINUOUS
 10
729.8034679497
 20
-269.4731599716
 11
729.8034679497
 21
-529.4731599716
  0
LINE
  5
442
100
AcDbEntity
  8
0
100
AcDbLine
 62
7
  6
CONTINUOUS
 10
707.3770842915
 20
-515.3310459182
 11
715.6613309239
 21
-523.6152941933
  0
LINE
  5
443
100
AcDbEntity
  8
0
100
AcDbLine
 62
7
  6
CONTINUOUS
 10
771.5192213173
 20
-269.4731599716
 11
771.5192213173
 21
-529.4731599716
  0
LINE
  5
444
100
AcDbEntity
  8
0
100
AcDbLine
 62
7
  6
CONTINUOUS
 10
781.5192213173
 20
-269.4731599716
 11
781.5192213173
 21
-529.4731599716
  0
LINE
  5
445
100
AcDbEntity
  8
0
100
AcDbLine
 62
7
  6
CONTINUOUS
 10
707.3770842915
 20
-283.615274025
 11
715.6613309239
 21
-275.3310257499
  0
LINE
  5
446
100
AcDbEntity
  8
0
100
AcDbLine
 62
7
  6
CONTINUOUS
 10
771.5192213173
 20
-519.4731599716
 11
781.5192213173
 21
-529.4731599716
  0
LINE
  5
447
100
AcDbEntity
  8
0
100
AcDbLine
 62
3
  6
CONTINUOUS
 10
831.5192213173
 20
-244.4731599716
 11
831.5192213173
 21
-269.4731599716
  0
LINE
  5
448
100
AcDbEntity
  8
0
100
AcDbLine
 62
3
  6
CONTINUOUS
 10
831.5192213173
 20
-529.4731599716
 11
831.5192213173
 21
-554.4731599716
  0
LINE
  5
449
100
AcDbEntity
  8
0
100
AcDbLine
 62
7
  6
CONTINUOUS
 10
771.5192213173
 20
-279.4731599716
 11
781.5192213173
 21
-269.4731599716
  0
LINE
  5
44A
100
AcDbEntity
  8
02___PRT_ALL_AXES
100
AcDbLine
 62
3
  6
CONTINUOUS
 10
846.5192213173
 20
-551.9731599716
 11
846.5192213173
 21
-546.9731599716
  0
LINE
  5
44B
100
AcDbEntity
  8
02___PRT_ALL_AXES
100
AcDbLine
 62
3
  6
CONTINUOUS
 10
846.5192213173
 20
-251.9731599716
 11
846.5192213173
 21
-246.9731599716
  0
LINE
  5
44C
100
AcDbEntity
  8
02___PRT_ALL_AXES
100
AcDbLine
 62
3
  6
CONTINUOUS
 10
858.5192213173
 20
-246.9731599716
 11
858.5192213173
 21
-251.9731599716
  0
LINE
  5
44D
100
AcDbEntity
  8
02___PRT_ALL_AXES
100
AcDbLine
 62
3
  6
CONTINUOUS
 10
858.5192213173
 20
-546.9731599716
 11
858.5192213173
 21
-551.9731599716
  0
LINE
  5
44E
100
AcDbEntity
  8
0
100
AcDbLine
 62
7
  6
CONTINUOUS
 10
929.5192213173
 20
-329.4731599716
 11
929.5192213173
 21
-469.4731599716
  0
LINE
  5
44F
100
AcDbEntity
  8
0
100
AcDbLine
 62
7
  6
CONTINUOUS
 10
1427.0192213173
 20
-574.4731599716
 11
1247.0192213173
 21
-574.4731599716
  0
LINE
  5
450
100
AcDbEntity
  8
0
100
AcDbLine
 62
3
  6
CONTINUOUS
 10
846.5192213173
 20
-569.4731599716
 11
1036.5192213173
 21
-569.4731599716
  0
LINE
  5
451
100
AcDbEntity
  8
0
100
AcDbLine
 62
7
  6
CONTINUOUS
 10
1216.5192213173
 20
-534.4731599716
 11
1207.5192213173
 21
-534.4731599716
  0
LINE
  5
452
100
AcDbEntity
  8
0
100
AcDbLine
 62
9
  6
CONTINUOUS
 10
831.5192213173
 20
-533.4731599716
 11
1051.5192213173
 21
-533.4731599716
  0
LINE
  5
453
100
AcDbEntity
  8
0
100
AcDbLine
 62
7
  6
CONTINUOUS
 10
729.8034679497
 20
-529.4731599716
 11
771.5192213173
 21
-529.4731599716
  0
LINE
  5
454
100
AcDbEntity
  8
02___PRT_ALL_AXES
100
AcDbLine
 62
7
  6
CONTINUOUS
 10
729.8034679497
 20
-529.4731599716
 11
771.5192213173
 21
-529.4731599716
  0
LINE
  5
455
100
AcDbEntity
  8
02___PRT_ALL_AXES
100
AcDbLine
 62
7
  6
CONTINUOUS
 10
781.5192213173
 20
-529.4731599716
 11
1099.5192213173
 21
-529.4731599716
  0
LINE
  5
456
100
AcDbEntity
  8
0
100
AcDbLine
 62
7
  6
CONTINUOUS
 10
781.5192213173
 20
-529.4731599716
 11
1099.5192213173
 21
-529.4731599716
  0
LINE
  5
457
100
AcDbEntity
  8
3_ALL_AXES
100
AcDbLine
 62
7
  6
CONTINUOUS
 10
1216.5192213173
 20
-521.9731599716
 11
1217.0192213173
 21
-521.9731599716
  0
LINE
  5
458
100
AcDbEntity
  8
3_ALL_AXES
100
AcDbLine
 62
7
  6
CONTINUOUS
 10
1132.5192213173
 20
-499.4731599716
 11
1120.5192213173
 21
-499.4731599716
  0
LINE
  5
459
100
AcDbEntity
  8
0
100
AcDbLine
 62
7
  6
CONTINUOUS
 10
1120.5192213173
 20
-499.4731599716
 11
1202.5192213173
 21
-499.4731599716
  0
LINE
  5
45A
100
AcDbEntity
  8
0
100
AcDbLine
 62
9
  6
CONTINUOUS
 10
1134.5192213173
 20
-497.4731599716
 11
1205.5192213173
 21
-497.4731599716
  0
LINE
  5
45B
100
AcDbEntity
  8
0
100
AcDbLine
 62
9
  6
CONTINUOUS
 10
1205.5192213173
 20
-488.3461433178
 11
1202.5192213173
 21
-488.3461433178
  0
LINE
  5
45C
100
AcDbEntity
  8
0
100
AcDbLine
 62
7
  6
CONTINUOUS
 10
1550.0192213173
 20
-485.4731599716
 11
1533.0192213173
 21
-485.4731599716
  0
LINE
  5
45D
100
AcDbEntity
  8
02___PRT_ALL_AXES
100
AcDbLine
 62
7
  6
CONTINUOUS
 10
1533.0192213173
 20
-485.4731599716
 11
1550.0192213173
 21
-485.4731599716
  0
LINE
  5
45E
100
AcDbEntity
  8
02___PRT_ALL_AXES
100
AcDbLine
 62
3
  6
CONTINUOUS
 10
1024.5192213173
 20
-551.9731599716
 11
1024.5192213173
 21
-546.9731599716
  0
LINE
  5
45F
100
AcDbEntity
  8
02___PRT_ALL_AXES
100
AcDbLine
 62
3
  6
CONTINUOUS
 10
1024.5192213173
 20
-251.9731599716
 11
1024.5192213173
 21
-246.9731599716
  0
LINE
  5
460
100
AcDbEntity
  8
0
100
AcDbLine
 62
9
  6
CONTINUOUS
 10
1202.5192213173
 20
-482.1011453194
 11
1199.5192213173
 21
-482.1011453194
  0
LINE
  5
461
100
AcDbEntity
  8
0
100
AcDbLine
 62
9
  6
CONTINUOUS
 10
1202.5192213173
 20
-476.192069039
 11
1199.5192213173
 21
-476.192069039
  0
LINE
  5
462
100
AcDbEntity
  8
0
100
AcDbLine
 62
7
  6
CONTINUOUS
 10
1467.0192213173
 20
-475.4731599716
 11
1461.0192213173
 21
-475.4731599716
  0
LINE
  5
463
100
AcDbEntity
  8
0
100
AcDbLine
 62
7
  6
CONTINUOUS
 10
929.5192213173
 20
-469.4731599716
 11
1069.5192213173
 21
-469.4731599716
  0
LINE
  5
464
100
AcDbEntity
  8
0
100
AcDbLine
 62
9
  6
CONTINUOUS
 10
1202.5192213173
 20
-469.4731509421
 11
1205.5192213173
 21
-469.4731599716
  0
LINE
  5
465
100
AcDbEntity
  8
0
100
AcDbLine
 62
9
  6
CONTINUOUS
 10
1119.5192213173
 20
-459.4731599716
 11
1134.5192213173
 21
-459.4731599716
  0
LINE
  5
466
100
AcDbEntity
  8
02___PRT_ALL_AXES
100
AcDbLine
 62
3
  6
CONTINUOUS
 10
1036.5192213173
 20
-246.9731599716
 11
1036.5192213173
 21
-251.9731599716
  0
LINE
  5
467
100
AcDbEntity
  8
02___PRT_ALL_AXES
100
AcDbLine
 62
3
  6
CONTINUOUS
 10
1036.5192213173
 20
-546.9731599716
 11
1036.5192213173
 21
-551.9731599716
  0
LINE
  5
468
100
AcDbEntity
  8
0
100
AcDbLine
 62
3
  6
CONTINUOUS
 10
1051.5192213173
 20
-244.4731599716
 11
1051.5192213173
 21
-269.4731599716
  0
LINE
  5
469
100
AcDbEntity
  8
0
100
AcDbLine
 62
3
  6
CONTINUOUS
 10
1051.5192213173
 20
-529.4731599716
 11
1051.5192213173
 21
-554.4731599716
  0
LINE
  5
46A
100
AcDbEntity
  8
0
100
AcDbLine
 62
9
  6
CONTINUOUS
 10
1324.232662199
 20
-430.4731599716
 11
1320.2550382773
 21
-430.8956416707
  0
LINE
  5
46B
100
AcDbEntity
  8
0
100
AcDbLine
 62
9
  6
CONTINUOUS
 10
1457.0192213173
 20
-450.4731599716
 11
1467.0192213173
 21
-450.4731599716
  0
LINE
  5
46C
100
AcDbEntity
  8
0
100
AcDbLine
 62
7
  6
CONTINUOUS
 10
1477.0192213173
 20
-445.4731599716
 11
1449.8441661557
 21
-445.4731599716
  0
LINE
  5
46D
100
AcDbEntity
  8
0
100
AcDbLine
 62
9
  6
CONTINUOUS
 10
1134.5192213173
 20
-445.2798188762
 11
1137.5192213173
 21
-445.2798188762
  0
LINE
  5
46E
100
AcDbEntity
  8
0
100
AcDbLine
 62
9
  6
CONTINUOUS
 10
1162.7769973782
 20
-444.2643421395
 11
1138.5192213173
 21
-444.2643421395
  0
LINE
  5
46F
100
AcDbEntity
  8
0
100
AcDbLine
 62
9
  6
CONTINUOUS
 10
1202.5192213173
 20
-443.4731599716
 11
1205.5192213173
 21
-443.4731599716
  0
LINE
  5
470
100
AcDbEntity
  8
0
100
AcDbLine
 62
9
  6
CONTINUOUS
 10
1134.5192213173
 20
-442.4731599716
 11
1132.5192213173
 21
-442.4731599716
  0
LINE
  5
471
100
AcDbEntity
  8
0
100
AcDbLine
 62
9
  6
CONTINUOUS
 10
1162.7769973782
 20
-441.3110773812
 11
1138.5192213173
 21
-441.3110773812
  0
LINE
  5
472
100
AcDbEntity
  8
0
100
AcDbLine
 62
7
  6
CONTINUOUS
 10
1201.5192213173
 20
-439.4731599716
 11
1137.5192213173
 21
-439.4731599716
  0
LINE
  5
473
100
AcDbEntity
  8
0
100
AcDbLine
 62
9
  6
CONTINUOUS
 10
1137.5192213173
 20
-437.4731599716
 11
1205.5192213173
 21
-437.4731599716
  0
LINE
  5
474
100
AcDbEntity
  8
0
100
AcDbLine
 62
9
  6
CONTINUOUS
 10
1324.6660419338
 20
-434.3524703164
 11
1427.0192213173
 21
-434.3524703164
  0
LINE
  5
475
100
AcDbEntity
  8
0
100
AcDbLine
 62
9
  6
CONTINUOUS
 10
1247.0192213308
 20
-434.3524533439
 11
1257.3724007007
 21
-434.3524703164
  0
LINE
  5
476
100
AcDbEntity
  8
0
100
AcDbLine
 62
9
  6
CONTINUOUS
 10
1480.0192213173
 20
-433.4731599716
 11
1467.0192213173
 21
-433.4731599716
  0
LINE
  5
477
100
AcDbEntity
  8
02___PRT_ALL_AXES
100
AcDbLine
 62
7
  6
CONTINUOUS
 10
1482.0192213173
 20
-433.4731599716
 11
1528.0192213173
 21
-433.4731599716
  0
LINE
  5
478
100
AcDbEntity
  8
0
100
AcDbLine
 62
7
  6
CONTINUOUS
 10
1482.0192213173
 20
-433.4731599716
 11
1528.0192213173
 21
-433.4731599716
  0
LINE
  5
479
100
AcDbEntity
  8
0
100
AcDbLine
 62
9
  6
CONTINUOUS
 10
1467.0192213173
 20
-430.4731599716
 11
1324.232662199
 21
-430.4731599716
  0
LINE
  5
47A
100
AcDbEntity
  8
0
100
AcDbLine
 62
9
  6
CONTINUOUS
 10
1257.8057804355
 20
-430.4731599716
 11
1247.0192213173
 21
-430.4731569842
  0
LINE
  5
47B
100
AcDbEntity
  8
0
100
AcDbLine
 62
7
  6
CONTINUOUS
 10
1069.5192213173
 20
-469.4731599716
 11
1069.5192213173
 21
-329.4731599716
  0
LINE
  5
47C
100
AcDbEntity
  8
0
100
AcDbLine
 62
9
  6
CONTINUOUS
 10
1257.8057804363
 20
-430.4731599245
 11
1261.7833807354
 21
-430.895639161
  0
LINE
  5
47D
100
AcDbEntity
  8
0
100
AcDbLine
 62
7
  6
CONTINUOUS
 10
1099.5192213173
 20
-269.4731599716
 11
1099.5192213173
 21
-529.4731599716
  0
LINE
  5
47E
100
AcDbEntity
  8
0
100
AcDbLine
 62
7
  6
CONTINUOUS
 10
1119.5192213173
 20
-289.4731599717
 11
1119.5192213173
 21
-509.4731599715
  0
LINE
  5
47F
100
AcDbEntity
  8
0
100
AcDbLine
 62
9
  6
CONTINUOUS
 10
1120.5192213173
 20
-499.4731599716
 11
1120.5192213173
 21
-299.4731599716
  0
LINE
  5
480
100
AcDbEntity
  8
0
100
AcDbLine
 62
9
  6
CONTINUOUS
 10
1137.5192213173
 20
-361.4731599716
 11
1205.5192213173
 21
-361.4731599716
  0
LINE
  5
481
100
AcDbEntity
  8
0
100
AcDbLine
 62
7
  6
CONTINUOUS
 10
1137.5192213173
 20
-359.4731599716
 11
1201.5192213173
 21
-359.4731599716
  0
LINE
  5
482
100
AcDbEntity
  8
0
100
AcDbLine
 62
9
  6
CONTINUOUS
 10
1132.5192213173
 20
-299.4731599716
 11
1132.5192213173
 21
-356.4731599716
  0
LINE
  5
483
100
AcDbEntity
  8
0
100
AcDbLine
 62
9
  6
CONTINUOUS
 10
1132.5192213173
 20
-442.4731599716
 11
1132.5192213173
 21
-499.4731599716
  0
LINE
  5
484
100
AcDbEntity
  8
0
100
AcDbLine
 62
7
  6
CONTINUOUS
 10
1134.5192213173
 20
-301.4731599716
 11
1134.5192213173
 21
-356.4731599716
  0
LINE
  5
485
100
AcDbEntity
  8
0
100
AcDbLine
 62
7
  6
CONTINUOUS
 10
1134.5192213173
 20
-442.4731599716
 11
1134.5192213173
 21
-497.4731599716
  0
LINE
  5
486
100
AcDbEntity
  8
0
100
AcDbLine
 62
9
  6
CONTINUOUS
 10
1137.5192213173
 20
-439.4731599716
 11
1137.5192213175
 21
-437.4731599717
  0
LINE
  5
487
100
AcDbEntity
  8
0
100
AcDbLine
 62
9
  6
CONTINUOUS
 10
1137.5192213175
 20
-299.4731599716
 11
1137.5192213173
 21
-353.666501067
  0
LINE
  5
488
100
AcDbEntity
  8
0
100
AcDbLine
 62
9
  6
CONTINUOUS
 10
1137.5192213173
 20
-359.4731599716
 11
1137.5192213173
 21
-361.4731599716
  0
LINE
  5
489
100
AcDbEntity
  8
0
100
AcDbLine
 62
9
  6
CONTINUOUS
 10
1137.5192213173
 20
-445.2798188762
 11
1137.5192213173
 21
-499.4731599716
  0
LINE
  5
48A
100
AcDbEntity
  8
0
100
AcDbLine
 62
9
  6
CONTINUOUS
 10
1138.5192213173
 20
-354.6819778037
 11
1138.5192213173
 21
-359.4731599716
  0
LINE
  5
48B
100
AcDbEntity
  8
0
100
AcDbLine
 62
9
  6
CONTINUOUS
 10
1138.5192213173
 20
-439.4731599716
 11
1138.5192213173
 21
-444.2643421395
  0
LINE
  5
48C
100
AcDbEntity
  8
3_ALL_AXES
100
AcDbLine
 62
7
  6
CONTINUOUS
 10
1145.5192213173
 20
-397.8330926259
 11
1145.5192213173
 21
-401.1132273174
  0
LINE
  5
48D
100
AcDbEntity
  8
0
100
AcDbLine
 62
9
  6
CONTINUOUS
 10
1138.5192213173
 20
-357.635242562
 11
1162.7769973782
 21
-357.635242562
  0
LINE
  5
48E
100
AcDbEntity
  8
0
100
AcDbLine
 62
9
  6
CONTINUOUS
 10
1134.5192213173
 20
-356.4731599716
 11
1132.5192213173
 21
-356.4731599714
  0
LINE
  5
48F
100
AcDbEntity
  8
0
100
AcDbLine
 62
9
  6
CONTINUOUS
 10
1202.5192213173
 20
-355.4731599716
 11
1205.5192213173
 21
-355.4731599716
  0
LINE
  5
490
100
AcDbEntity
  8
0
100
AcDbLine
 62
9
  6
CONTINUOUS
 10
1138.5192213173
 20
-354.6819778037
 11
1162.7769973782
 21
-354.6819778037
  0
LINE
  5
491
100
AcDbEntity
  8
0
100
AcDbLine
 62
9
  6
CONTINUOUS
 10
1134.5192213173
 20
-353.666501067
 11
1137.5192213173
 21
-353.666501067
  0
LINE
  5
492
100
AcDbEntity
  8
0
100
AcDbLine
 62
9
  6
CONTINUOUS
 10
1467.0192213173
 20
-340.4731599716
 11
1334.4230152712
 21
-340.4731617723
  0
LINE
  5
493
100
AcDbEntity
  8
0
100
AcDbLine
 62
9
  6
CONTINUOUS
 10
1247.6154300962
 20
-340.4731629512
 11
1247.0192213173
 21
-340.4731629592
  0
LINE
  5
494
100
AcDbEntity
  8
0
100
AcDbLine
 62
9
  6
CONTINUOUS
 10
1119.5192213173
 20
-339.4731599716
 11
1134.5192213173
 21
-339.4731599716
  0
LINE
  5
495
100
AcDbEntity
  8
0
100
AcDbLine
 62
9
  6
CONTINUOUS
 10
1480.0192213173
 20
-337.4731599716
 11
1467.0192213173
 21
-337.4731599716
  0
LINE
  5
496
100
AcDbEntity
  8
02___PRT_ALL_AXES
100
AcDbLine
 62
7
  6
CONTINUOUS
 10
1482.0192213173
 20
-337.4731599716
 11
1528.0192213173
 21
-337.4731599716
  0
LINE
  5
497
100
AcDbEntity
  8
0
100
AcDbLine
 62
7
  6
CONTINUOUS
 10
1482.0192213173
 20
-337.4731599716
 11
1528.0192213173
 21
-337.4731599716
  0
LINE
  5
498
100
AcDbEntity
  8
0
100
AcDbLine
 62
9
  6
CONTINUOUS
 10
1341.6676730306
 20
-336.5938576746
 11
1427.0192213173
 21
-336.5938496268
  0
LINE
  5
499
100
AcDbEntity
  8
0
100
AcDbLine
 62
9
  6
CONTINUOUS
 10
1205.5192213173
 20
-329.4731599716
 11
1202.5192213173
 21
-329.4731689642
  0
LINE
  5
49A
100
AcDbEntity
  8
0
100
AcDbLine
 62
7
  6
CONTINUOUS
 10
1069.5192213173
 20
-329.4731599716
 11
929.5192213173
 21
-329.4731599716
  0
LINE
  5
49B
100
AcDbEntity
  8
0
100
AcDbLine
 62
9
  6
CONTINUOUS
 10
1162.7769973782
 20
-359.4731599716
 11
1162.7769973782
 21
-354.6819778037
  0
LINE
  5
49C
100
AcDbEntity
  8
0
100
AcDbLine
 62
9
  6
CONTINUOUS
 10
1162.7769973782
 20
-439.4731599716
 11
1162.7769973782
 21
-444.2643421395
  0
LINE
  5
49D
100
AcDbEntity
  8
0
100
AcDbLine
 62
9
  6
CONTINUOUS
 10
1167.9192982557
 20
-443.1880392986
 11
1167.9192982557
 21
-439.4731599716
  0
LINE
  5
49E
100
AcDbEntity
  8
0
100
AcDbLine
 62
9
  6
CONTINUOUS
 10
1167.9192982557
 20
-359.4731599716
 11
1167.9192982557
 21
-355.7582806447
  0
LINE
  5
49F
100
AcDbEntity
  8
0
100
AcDbLine
 62
7
  6
CONTINUOUS
 10
1449.8441661557
 20
-325.4731599716
 11
1477.0192213173
 21
-325.4731599716
  0
LINE
  5
4A0
100
AcDbEntity
  8
0
100
AcDbLine
 62
9
  6
CONTINUOUS
 10
1202.5192213173
 20
-322.7542509043
 11
1199.5192213173
 21
-322.7542509043
  0
LINE
  5
4A1
100
AcDbEntity
  8
0
100
AcDbLine
 62
9
  6
CONTINUOUS
 10
1457.0192213173
 20
-320.4731599716
 11
1467.0192213173
 21
-320.4731599716
  0
LINE
  5
4A2
100
AcDbEntity
  8
0
100
AcDbLine
 62
9
  6
CONTINUOUS
 10
1202.5192213173
 20
-316.8451746238
 11
1199.5192213173
 21
-316.8451746238
  0
LINE
  5
4A3
100
AcDbEntity
  8
0
100
AcDbLine
 62
9
  6
CONTINUOUS
 10
1205.5192213173
 20
-310.6001766254
 11
1202.5192213173
 21
-310.6001766254
  0
LINE
  5
4A4
100
AcDbEntity
  8
0
100
AcDbLine
 62
9
  6
CONTINUOUS
 10
1134.5192213173
 20
-301.4731599716
 11
1205.0743912855
 21
-301.4731599716
  0
LINE
  5
4A5
100
AcDbEntity
  8
0
100
AcDbLine
 62
7
  6
CONTINUOUS
 10
1202.5192213173
 20
-299.4731599716
 11
1120.5192213173
 21
-299.4731599716
  0
LINE
  5
4A6
100
AcDbEntity
  8
0
100
AcDbLine
 62
7
  6
CONTINUOUS
 10
1467.0192213173
 20
-295.4731599716
 11
1461.0192213173
 21
-295.4731599716
  0
LINE
  5
4A7
100
AcDbEntity
  8
02___PRT_ALL_AXES
100
AcDbLine
 62
7
  6
CONTINUOUS
 10
1461.0192213173
 20
-295.4731599716
 11
1467.0192213173
 21
-295.4731599716
  0
LINE
  5
4A8
100
AcDbEntity
  8
0
100
AcDbLine
 62
7
  6
CONTINUOUS
 10
1119.5192320451
 20
-289.4731492446
 11
1099.5192339956
 21
-269.4731472942
  0
LINE
  5
4A9
100
AcDbEntity
  8
0
100
AcDbLine
 62
9
  6
CONTINUOUS
 10
1167.9192982506
 20
-355.7582806387
 11
1165.9909354266
 21
-353.4941630443
  0
LINE
  5
4AA
100
AcDbEntity
  8
0
100
AcDbLine
 62
9
  6
CONTINUOUS
 10
1199.5192213173
 20
-482.1011453194
 11
1199.5192213173
 21
-476.192069039
  0
LINE
  5
4AB
100
AcDbEntity
  8
0
100
AcDbLine
 62
9
  6
CONTINUOUS
 10
1199.5192213173
 20
-322.7542509043
 11
1199.5192213173
 21
-316.8451746238
  0
LINE
  5
4AC
100
AcDbEntity
  8
0
100
AcDbLine
 62
9
  6
CONTINUOUS
 10
1199.6615221948
 20
-470.0555774823
 11
1199.6615221948
 21
-439.4731599716
  0
LINE
  5
4AD
100
AcDbEntity
  8
0
100
AcDbLine
 62
9
  6
CONTINUOUS
 10
1199.6615221948
 20
-359.4731599716
 11
1199.6615221948
 21
-328.8907424609
  0
LINE
  5
4AE
100
AcDbEntity
  8
0
100
AcDbLine
 62
9
  6
CONTINUOUS
 10
1201.5192213173
 20
-359.4731599716
 11
1201.5192213173
 21
-439.4731599716
  0
LINE
  5
4AF
100
AcDbEntity
  8
0
100
AcDbLine
 62
7
  6
CONTINUOUS
 10
1202.5192213173
 20
-482.1011453139
 11
1202.5192213173
 21
-439.6005092038
  0
LINE
  5
4B0
100
AcDbEntity
  8
0
100
AcDbLine
 62
7
  6
CONTINUOUS
 10
1202.5192213173
 20
-359.3458018771
 11
1202.5192213173
 21
-316.8451746292
  0
LINE
  5
4B1
100
AcDbEntity
  8
0
100
AcDbLine
 62
9
  6
CONTINUOUS
 10
1202.5192213173
 20
-299.4731599716
 11
1202.5192213173
 21
-310.6001766254
  0
LINE
  5
4B2
100
AcDbEntity
  8
0
100
AcDbLine
 62
9
  6
CONTINUOUS
 10
1202.5192213173
 20
-488.3461433178
 11
1202.5192213173
 21
-499.4731599716
  0
LINE
  5
4B3
100
AcDbEntity
  8
0
100
AcDbLine
 62
9
  6
CONTINUOUS
 10
1204.0192213159
 20
-469.4731599716
 11
1204.019211773
 21
-443.4731599716
  0
LINE
  5
4B4
100
AcDbEntity
  8
0
100
AcDbLine
 62
9
  6
CONTINUOUS
 10
1204.0192117721
 20
-355.4731599716
 11
1204.0192213159
 21
-329.4731599706
  0
LINE
  5
4B5
100
AcDbEntity
  8
0
100
AcDbLine
 62
7
  6
CONTINUOUS
 10
1205.5192213173
 20
-532.4731599716
 11
1205.5192213173
 21
-302.1494911774
  0
LINE
  5
4B6
100
AcDbEntity
  8
0
100
AcDbLine
 62
9
  6
CONTINUOUS
 10
1207.5192213173
 20
-305.1903434464
 11
1207.5192213173
 21
-534.4731599716
  0
LINE
  5
4B7
100
AcDbEntity
  8
0
100
AcDbLine
 62
7
  6
CONTINUOUS
 10
1216.5192213173
 20
-272.1127267037
 11
1216.5192213173
 21
-290.0028780209
  0
LINE
  5
4B8
100
AcDbEntity
  8
0
100
AcDbLine
 62
7
  6
CONTINUOUS
 10
1216.5192213173
 20
-316.9966961605
 11
1216.5192213173
 21
-534.4730848408
  0
LINE
  5
4B9
100
AcDbEntity
  8
0
100
AcDbLine
 62
7
  6
CONTINUOUS
 10
1217.0192213173
 20
-544.4731599716
 11
1217.0192213173
 21
-317.6020637265
  0
LINE
  5
4BA
100
AcDbEntity
  8
0
100
AcDbLine
 62
7
  6
CONTINUOUS
 10
1217.0192213173
 20
-290.0331224489
 11
1217.0192213173
 21
-272.1317025452
  0
LINE
  5
4BB
100
AcDbEntity
  8
0
100
AcDbLine
 62
7
  6
CONTINUOUS
 10
1217.0192213173
 20
-228.8584853824
 11
1217.0192213173
 21
-226.4731599716
  0
LINE
  5
4BC
100
AcDbEntity
  8
0
100
AcDbLine
 62
9
  6
CONTINUOUS
 10
1167.9192962246
 20
-443.1880416834
 11
1165.9909354266
 21
-445.452156899
  0
LINE
  5
4BD
100
AcDbEntity
  8
0
100
AcDbLine
 62
7
  6
CONTINUOUS
 10
1550.0192213173
 20
-285.4731599716
 11
1533.0192213173
 21
-285.4731599716
  0
LINE
  5
4BE
100
AcDbEntity
  8
02___PRT_ALL_AXES
100
AcDbLine
 62
7
  6
CONTINUOUS
 10
1533.0192213173
 20
-285.4731599716
 11
1550.0192213173
 21
-285.4731599716
  0
LINE
  5
4BF
100
AcDbEntity
  8
3_ALL_AXES
100
AcDbLine
 62
7
  6
CONTINUOUS
 10
1216.5192213173
 20
-276.9731599716
 11
1217.0192213173
 21
-276.9731599716
  0
LINE
  5
4C0
100
AcDbEntity
  8
0
100
AcDbLine
 62
7
  6
CONTINUOUS
 10
729.8034679497
 20
-269.4731599716
 11
771.5192213173
 21
-269.4731599716
  0
LINE
  5
4C1
100
AcDbEntity
  8
02___PRT_ALL_AXES
100
AcDbLine
 62
7
  6
CONTINUOUS
 10
729.8034679497
 20
-269.4731599716
 11
771.5192213173
 21
-269.4731599716
  0
LINE
  5
4C2
100
AcDbEntity
  8
0
100
AcDbLine
 62
7
  6
CONTINUOUS
 10
781.5192213173
 20
-269.4731599716
 11
1099.5192213173
 21
-269.4731599716
  0
LINE
  5
4C3
100
AcDbEntity
  8
02___PRT_ALL_AXES
100
AcDbLine
 62
7
  6
CONTINUOUS
 10
781.5192213173
 20
-269.4731599716
 11
1099.5192213173
 21
-269.4731599716
  0
LINE
  5
4C4
100
AcDbEntity
  8
0
100
AcDbLine
 62
9
  6
CONTINUOUS
 10
831.5192213173
 20
-265.4731599716
 11
1051.5192213173
 21
-265.4731599716
  0
LINE
  5
4C5
100
AcDbEntity
  8
0
100
AcDbLine
 62
9
  6
CONTINUOUS
 10
1199.6615200391
 20
-328.8907399074
 11
1197.7331593657
 21
-326.6063356658
  0
LINE
  5
4C6
100
AcDbEntity
  8
0
100
AcDbLine
 62
9
  6
CONTINUOUS
 10
1204.0192213169
 20
-313.7226756249
 11
1202.1442213173
 21
-311.3808013752
  0
LINE
  5
4C7
100
AcDbEntity
  8
0
100
AcDbLine
 62
9
  6
CONTINUOUS
 10
1247.0192213302
 20
-340.2159835935
 11
1247.0192213173
 21
-574.4731599716
  0
LINE
  5
4C8
100
AcDbEntity
  8
0
100
AcDbLine
 62
9
  6
CONTINUOUS
 10
1199.6615221937
 20
-470.0555774836
 11
1197.7331593657
 21
-472.3399842774
  0
LINE
  5
4C9
100
AcDbEntity
  8
0
100
AcDbLine
 62
7
  6
CONTINUOUS
 10
1119.5192320455
 20
-509.4731706982
 11
1099.519233996
 21
-529.4731726485
  0
LINE
  5
4CA
100
AcDbEntity
  8
0
100
AcDbLine
 62
9
  6
CONTINUOUS
 10
1204.0192213174
 20
-485.2236443188
 11
1202.1442213175
 21
-487.5655185681
  0
LINE
  5
4CB
100
AcDbEntity
  8
0
100
AcDbLine
 62
3
  6
CONTINUOUS
 10
846.5192213173
 20
-229.4731599716
 11
1036.5192213173
 21
-229.4731599716
  0
LINE
  5
4CC
100
AcDbEntity
  8
0
100
AcDbLine
 62
7
  6
CONTINUOUS
 10
1374.9467906655
 20
-196.4731599716
 11
1427.0192213173
 21
-196.4731599716
  0
LINE
  5
4CD
100
AcDbEntity
  8
0
100
AcDbLine
 62
9
  6
CONTINUOUS
 10
1427.0192213173
 20
-196.4731599716
 11
1427.0192213173
 21
-336.5938496268
  0
LINE
  5
4CE
100
AcDbEntity
  8
0
100
AcDbLine
 62
9
  6
CONTINUOUS
 10
1427.0192213173
 20
-434.3524703164
 11
1427.0192213173
 21
-574.4731599716
  0
LINE
  5
4CF
100
AcDbEntity
  8
0
100
AcDbLine
 62
7
  6
CONTINUOUS
 10
1457.0192213173
 20
-325.4731599716
 11
1457.0192213173
 21
-226.4731599716
  0
LINE
  5
4D0
100
AcDbEntity
  8
0
100
AcDbLine
 62
7
  6
CONTINUOUS
 10
1457.0192213173
 20
-445.4731599716
 11
1457.0192213173
 21
-544.4731599716
  0
LINE
  5
4D1
100
AcDbEntity
  8
0
100
AcDbLine
 62
9
  6
CONTINUOUS
 10
1461.0192213173
 20
-295.4731599716
 11
1461.0192213173
 21
-325.4731599716
  0
LINE
  5
4D2
100
AcDbEntity
  8
0
100
AcDbLine
 62
9
  6
CONTINUOUS
 10
1461.0192213173
 20
-445.4731599716
 11
1461.0192213173
 21
-475.4731599716
  0
LINE
  5
4D3
100
AcDbEntity
  8
02___PRT_ALL_AXES
100
AcDbLine
 62
7
  6
CONTINUOUS
 10
1467.0192213173
 20
-295.4731599716
 11
1467.0192213173
 21
-325.4731599716
  0
LINE
  5
4D4
100
AcDbEntity
  8
0
100
AcDbLine
 62
7
  6
CONTINUOUS
 10
1467.0192213173
 20
-325.4731599716
 11
1467.0192213173
 21
-445.4731599716
  0
LINE
  5
4D5
100
AcDbEntity
  8
02___PRT_ALL_AXES
100
AcDbLine
 62
7
  6
CONTINUOUS
 10
1467.0192213173
 20
-445.4731599716
 11
1467.0192213173
 21
-475.4731599716
  0
LINE
  5
4D6
100
AcDbEntity
  8
0
100
AcDbLine
 62
9
  6
CONTINUOUS
 10
1477.0192213173
 20
-325.4731599716
 11
1477.0192213173
 21
-445.4731599716
  0
LINE
  5
4D7
100
AcDbEntity
  8
0
100
AcDbLine
 62
7
  6
CONTINUOUS
 10
1480.0192213173
 20
-328.4731599716
 11
1480.0192213173
 21
-442.4731599716
  0
LINE
  5
4D8
100
AcDbEntity
  8
0
100
AcDbLine
 62
9
  6
CONTINUOUS
 10
1482.0192213173
 20
-337.4731599716
 11
1482.0192213173
 21
-433.4731599716
  0
LINE
  5
4D9
100
AcDbEntity
  8
0
100
AcDbLine
 62
9
  6
CONTINUOUS
 10
1528.0192213173
 20
-433.4731599716
 11
1528.0192213173
 21
-337.4731599716
  0
LINE
  5
4DA
100
AcDbEntity
  8
0
100
AcDbLine
 62
7
  6
CONTINUOUS
 10
1530.0192213173
 20
-482.4731599716
 11
1530.0192213173
 21
-288.4731599716
  0
LINE
  5
4DB
100
AcDbEntity
  8
0
100
AcDbLine
 62
9
  6
CONTINUOUS
 10
1533.0192213173
 20
-485.4731599716
 11
1533.0192213173
 21
-285.4731599716
  0
LINE
  5
4DC
100
AcDbEntity
  8
02___PRT_ALL_AXES
100
AcDbLine
 62
7
  6
CONTINUOUS
 10
1550.0192213173
 20
-285.4731599716
 11
1550.0192213173
 21
-485.4731599716
  0
ARC
  5
4DD
100
AcDbEntity
  8
0
100
AcDbCircle
 62
7
  6
CONTINUOUS
 10
721.5192213173
 20
121.4738411055
 40
20.0
100
AcDbArc
 50
179.999999797
 51
224.999994135
  0
ARC
  5
4DE
100
AcDbEntity
  8
0
100
AcDbCircle
 62
7
  6
CONTINUOUS
 10
729.8034679497
 20
113.1895928304
 40
20.0
100
AcDbArc
 50
224.9999943643
 51
270.0
  0
ARC
  5
4DF
100
AcDbEntity
  8
0
100
AcDbCircle
 62
9
  6
CONTINUOUS
 10
1219.5298752259
 20
-7694.8151210204
 40
7925.7788133999
100
AcDbArc
 50
90.1436292879
 51
90.3730976105
  0
ARC
  5
4E0
100
AcDbEntity
  8
0
100
AcDbCircle
 62
7
  6
CONTINUOUS
 10
1247.0192213173
 20
64.1895928304
 40
30.0
100
AcDbArc
 50
179.9999999417
 51
270.0
  0
ARC
  5
4E1
100
AcDbEntity
  8
0
100
AcDbCircle
 62
7
  6
CONTINUOUS
 10
1201.5192213173
 20
119.1895928304
 40
4.0
100
AcDbArc
 50
0.0
 51
90.0
  0
ARC
  5
4E2
100
AcDbEntity
  8
0
100
AcDbCircle
 62
7
  6
CONTINUOUS
 10
1120.5192213173
 20
126.1895928304
 40
3.0
100
AcDbArc
 50
250.5287793655
 51
270.0
  0
ARC
  5
4E3
100
AcDbEntity
  8
0
100
AcDbCircle
 62
7
  6
CONTINUOUS
 10
1207.5192213173
 20
90.1895928304
 40
2.0
100
AcDbArc
 50
180.0
 51
270.0
  0
ARC
  5
4E4
100
AcDbEntity
  8
0
100
AcDbCircle
 62
7
  6
CONTINUOUS
 10
1132.5192213173
 20
125.1895928304
 40
2.0
100
AcDbArc
 50
270.0
 51
360.0
  0
ARC
  5
4E5
100
AcDbEntity
  8
0
100
AcDbCircle
 62
7
  6
CONTINUOUS
 10
1137.5199438178
 20
136.1896504676
 40
3.0007225011
100
AcDbArc
 50
180.0011005244
 51
189.001436173
  0
ARC
  5
4E6
100
AcDbEntity
  8
0
100
AcDbCircle
 62
7
  6
CONTINUOUS
 10
1137.5192207257
 20
136.1895922388
 40
2.9999994084
100
AcDbArc
 50
179.9999887013
 51
270.0000112987
  0
ARC
  5
4E7
100
AcDbEntity
  8
0
100
AcDbCircle
 62
9
  6
CONTINUOUS
 10
1137.5192213173
 20
215.1895928304
 40
5.0
100
AcDbArc
 50
90.0
 51
180.0
  0
ARC
  5
4E8
100
AcDbEntity
  8
0
100
AcDbCircle
 62
7
  6
CONTINUOUS
 10
1137.5192213173
 20
215.1895928304
 40
3.0
100
AcDbArc
 50
90.0
 51
180.0
  0
ARC
  5
4E9
100
AcDbEntity
  8
0
100
AcDbCircle
 62
9
  6
CONTINUOUS
 10
1208.3656991631
 20
146.705738941
 40
8.8464778462
100
AcDbArc
 50
178.1480263931
 51
180.0004700902
  0
ARC
  5
4EA
100
AcDbEntity
  8
0
100
AcDbCircle
 62
9
  6
CONTINUOUS
 10
1192.5444461087
 20
144.9479038495
 40
8.0075042218
100
AcDbArc
 50
47.614387124
 51
49.5483357646
  0
ARC
  5
4EB
100
AcDbEntity
  8
0
100
AcDbCircle
 62
9
  6
CONTINUOUS
 10
1194.5344860768
 20
147.2199967662
 40
7.9597210103
100
AcDbArc
 50
47.9552407641
 51
49.9000778349
  0
ARC
  5
4EC
100
AcDbEntity
  8
0
100
AcDbCircle
 62
7
  6
CONTINUOUS
 10
1201.5192213173
 20
134.3166094842
 40
4.0
100
AcDbArc
 50
0.0
 51
51.3179876942
  0
ARC
  5
4ED
100
AcDbEntity
  8
0
100
AcDbCircle
 62
7
  6
CONTINUOUS
 10
1206.5191704099
 20
140.5615830275
 40
3.9999490926
100
AcDbArc
 50
180.0
 51
231.3179876942
  0
ARC
  5
4EE
100
AcDbEntity
  8
0
100
AcDbCircle
 62
7
  6
CONTINUOUS
 10
1199.5192212621
 20
136.1895928822
 40
3.0000000693
100
AcDbArc
 50
270.0000004485
 51
359.9999919412
  0
ARC
  5
4EF
100
AcDbEntity
  8
0
100
AcDbCircle
 62
9
  6
CONTINUOUS
 10
1173.2818052088
 20
186.0173808539
 40
10.5581979605
100
AcDbArc
 50
227.2368936971
 51
228.6664716416
  0
ARC
  5
4F0
100
AcDbEntity
  8
0
100
AcDbCircle
 62
7
  6
CONTINUOUS
 10
1199.5192213173
 20
215.1895928304
 40
3.0
100
AcDbArc
 50
0.0
 51
90.0
  0
ARC
  5
4F1
100
AcDbEntity
  8
0
100
AcDbCircle
 62
7
  6
CONTINUOUS
 10
1202.5192213173
 20
215.1895928304
 40
3.0
100
AcDbArc
 50
0.0
 51
90.0
  0
ARC
  5
4F2
100
AcDbEntity
  8
0
100
AcDbCircle
 62
9
  6
CONTINUOUS
 10
1202.1280046992
 20
216.9321467653
 40
1.2591502098
100
AcDbArc
 50
73.0336775366
 51
74.2489304771
  0
ARC
  5
4F3
100
AcDbEntity
  8
0
100
AcDbCircle
 62
7
  6
CONTINUOUS
 10
1427.0192213173
 20
64.1895928304
 40
30.0
100
AcDbArc
 50
270.0
 51
312.6885807019
  0
ARC
  5
4F4
100
AcDbEntity
  8
0
100
AcDbCircle
 62
7
  6
CONTINUOUS
 10
1348.0192213173
 20
38.1895928304
 40
3.0
100
AcDbArc
 50
0.0
 51
90.0
  0
ARC
  5
4F5
100
AcDbEntity
  8
0
100
AcDbCircle
 62
7
  6
CONTINUOUS
 10
1461.0192213173
 20
159.1895928304
 40
4.0
100
AcDbArc
 50
90.0
 51
180.0
  0
ARC
  5
4F6
100
AcDbEntity
  8
0
100
AcDbCircle
 62
7
  6
CONTINUOUS
 10
721.5192213173
 20
324.9053445553
 40
20.0
100
AcDbArc
 50
135.000005865
 51
180.000000203
  0
ARC
  5
4F7
100
AcDbEntity
  8
0
100
AcDbCircle
 62
7
  6
CONTINUOUS
 10
729.8034679497
 20
333.1895928304
 40
20.0
100
AcDbArc
 50
90.0
 51
135.0000056357
  0
ARC
  5
4F8
100
AcDbEntity
  8
0
100
AcDbCircle
 62
7
  6
CONTINUOUS
 10
1120.5192213173
 20
320.1895928304
 40
3.0
100
AcDbArc
 50
90.0
 51
109.4712206345
  0
ARC
  5
4F9
100
AcDbEntity
  8
0
100
AcDbCircle
 62
9
  6
CONTINUOUS
 10
1137.5192213173
 20
231.1895928304
 40
5.0
100
AcDbArc
 50
180.0
 51
270.0
  0
ARC
  5
4FA
100
AcDbEntity
  8
0
100
AcDbCircle
 62
7
  6
CONTINUOUS
 10
1137.5192213173
 20
231.1895928304
 40
3.0
100
AcDbArc
 50
180.0
 51
270.0
  0
ARC
  5
4FB
100
AcDbEntity
  8
0
100
AcDbCircle
 62
7
  6
CONTINUOUS
 10
1137.5199394219
 20
310.1895370592
 40
3.0007181052
100
AcDbArc
 50
170.9985765912
 51
179.9989351027
  0
ARC
  5
4FC
100
AcDbEntity
  8
0
100
AcDbCircle
 62
7
  6
CONTINUOUS
 10
1137.5192211873
 20
310.1895929604
 40
2.99999987
100
AcDbArc
 50
89.9999975178
 51
180.0000024822
  0
ARC
  5
4FD
100
AcDbEntity
  8
0
100
AcDbCircle
 62
7
  6
CONTINUOUS
 10
1137.5190824318
 20
310.1909243015
 40
2.9986621882
100
AcDbArc
 50
93.9123904454
 51
99.5825752563
  0
ARC
  5
4FE
100
AcDbEntity
  8
0
100
AcDbCircle
 62
7
  6
CONTINUOUS
 10
1132.5192213173
 20
321.1895928304
 40
2.0
100
AcDbArc
 50
0.0
 51
90.0
  0
ARC
  5
4FF
100
AcDbEntity
  8
0
100
AcDbCircle
 62
9
  6
CONTINUOUS
 10
1173.2764374168
 20
260.3677749286
 40
10.5501700183
100
AcDbArc
 50
131.333052395
 51
132.7636975953
  0
ARC
  5
500
100
AcDbEntity
  8
0
100
AcDbCircle
 62
7
  6
CONTINUOUS
 10
1202.5192213173
 20
231.1895928304
 40
3.0
100
AcDbArc
 50
270.0
 51
360.0
  0
ARC
  5
501
100
AcDbEntity
  8
0
100
AcDbCircle
 62
7
  6
CONTINUOUS
 10
1199.5192213173
 20
231.1895928304
 40
3.0
100
AcDbArc
 50
270.0
 51
360.0
  0
ARC
  5
502
100
AcDbEntity
  8
0
100
AcDbCircle
 62
9
  6
CONTINUOUS
 10
1202.1280046988
 20
229.4470388966
 40
1.2591502108
100
AcDbArc
 50
285.7510699029
 51
286.9663224517
  0
ARC
  5
503
100
AcDbEntity
  8
0
100
AcDbCircle
 62
9
  6
CONTINUOUS
 10
1208.35133786
 20
299.6732146581
 40
8.832116548
100
AcDbArc
 50
179.9980237126
 51
181.8534798042
  0
ARC
  5
504
100
AcDbEntity
  8
0
100
AcDbCircle
 62
9
  6
CONTINUOUS
 10
1192.5444348829
 20
301.4312945406
 40
8.0075211914
100
AcDbArc
 50
310.4516660215
 51
312.3856108056
  0
ARC
  5
505
100
AcDbEntity
  8
0
100
AcDbCircle
 62
9
  6
CONTINUOUS
 10
1194.5344871539
 20
299.1591876587
 40
7.9597193712
100
AcDbArc
 50
310.0999219651
 51
312.0447594365
  0
ARC
  5
506
100
AcDbEntity
  8
0
100
AcDbCircle
 62
7
  6
CONTINUOUS
 10
1201.5192213173
 20
312.0625761766
 40
4.0
100
AcDbArc
 50
308.6821874282
 51
360.0
  0
ARC
  5
507
100
AcDbEntity
  8
0
100
AcDbCircle
 62
7
  6
CONTINUOUS
 10
1201.5192213173
 20
327.1895928304
 40
4.0
100
AcDbArc
 50
270.0
 51
360.0
  0
ARC
  5
508
100
AcDbEntity
  8
0
100
AcDbCircle
 62
7
  6
CONTINUOUS
 10
1206.5191704099
 20
305.8176026334
 40
3.9999490926
100
AcDbArc
 50
128.6820123237
 51
180.0
  0
ARC
  5
509
100
AcDbEntity
  8
0
100
AcDbCircle
 62
7
  6
CONTINUOUS
 10
1199.5192248147
 20
310.1895934288
 40
2.9999965026
100
AcDbArc
 50
359.9999885715
 51
89.9999993565
  0
ARC
  5
50A
100
AcDbEntity
  8
0
100
AcDbCircle
 62
7
  6
CONTINUOUS
 10
1207.5192213173
 20
356.1895928304
 40
2.0
100
AcDbArc
 50
90.0
 51
180.0
  0
ARC
  5
50B
100
AcDbEntity
  8
0
100
AcDbCircle
 62
7
  6
CONTINUOUS
 10
1247.0192213173
 20
403.1895928304
 40
30.0
100
AcDbArc
 50
89.9921956921
 51
180.0
  0
ARC
  5
50C
100
AcDbEntity
  8
0
100
AcDbCircle
 62
9
  6
CONTINUOUS
 10
1324.459096457
 20
436.5124077222
 40
3.7956107287
100
AcDbArc
 50
222.3561292734
 51
225.919311556
  0
ARC
  5
50D
100
AcDbEntity
  8
0
100
AcDbCircle
 62
7
  6
CONTINUOUS
 10
1234.0192213173
 20
453.1895928304
 40
3.0
100
AcDbArc
 50
90.0
 51
180.0
  0
ARC
  5
50E
100
AcDbEntity
  8
0
100
AcDbCircle
 62
7
  6
CONTINUOUS
 10
1194.0192213173
 20
509.1895928304
 40
3.0
100
AcDbArc
 50
180.0
 51
270.0
  0
ARC
  5
50F
100
AcDbEntity
  8
0
100
AcDbCircle
 62
7
  6
CONTINUOUS
 10
1241.0192213173
 20
458.1895928304
 40
2.0
100
AcDbArc
 50
270.0000038815
 51
360.0
  0
ARC
  5
510
100
AcDbEntity
  8
0
100
AcDbCircle
 62
7
  6
CONTINUOUS
 10
1241.0192213173
 20
504.1895928304
 40
2.0
100
AcDbArc
 50
0.0
 51
89.9999960806
  0
ARC
  5
511
100
AcDbEntity
  8
0
100
AcDbCircle
 62
7
  6
CONTINUOUS
 10
1461.0192213173
 20
287.1895928304
 40
4.0
100
AcDbArc
 50
180.0
 51
270.0
  0
ARC
  5
512
100
AcDbEntity
  8
0
100
AcDbCircle
 62
7
  6
CONTINUOUS
 10
1477.0192213173
 20
316.1895928304
 40
3.0
100
AcDbArc
 50
270.0
 51
360.0
  0
ARC
  5
513
100
AcDbEntity
  8
0
100
AcDbCircle
 62
7
  6
CONTINUOUS
 10
1533.0192213173
 20
276.1895928304
 40
3.0
100
AcDbArc
 50
180.0
 51
270.0
  0
ARC
  5
514
100
AcDbEntity
  8
0
100
AcDbCircle
 62
7
  6
CONTINUOUS
 10
1482.0192213173
 20
323.1895928304
 40
2.0
100
AcDbArc
 50
90.0
 51
179.9999961185
  0
ARC
  5
515
100
AcDbEntity
  8
0
100
AcDbCircle
 62
7
  6
CONTINUOUS
 10
1528.0192213173
 20
323.1895928304
 40
2.0
100
AcDbArc
 50
0.0000039194
 51
90.0
  0
ARC
  5
516
100
AcDbEntity
  8
0
100
AcDbCircle
 62
7
  6
CONTINUOUS
 10
1348.0192213173
 20
453.1895928304
 40
3.0
100
AcDbArc
 50
0.0
 51
90.0
  0
ARC
  5
517
100
AcDbEntity
  8
0
100
AcDbCircle
 62
7
  6
CONTINUOUS
 10
1388.0192213173
 20
509.1895928304
 40
3.0
100
AcDbArc
 50
270.0
 51
360.0
  0
ARC
  5
518
100
AcDbEntity
  8
0
100
AcDbCircle
 62
7
  6
CONTINUOUS
 10
1477.0192213173
 20
430.1895928304
 40
3.0
100
AcDbArc
 50
0.0
 51
90.0
  0
ARC
  5
519
100
AcDbEntity
  8
0
100
AcDbCircle
 62
7
  6
CONTINUOUS
 10
1533.0192213173
 20
470.1895928304
 40
3.0
100
AcDbArc
 50
90.0
 51
180.0
  0
ARC
  5
51A
100
AcDbEntity
  8
0
100
AcDbCircle
 62
7
  6
CONTINUOUS
 10
1341.0192213173
 20
458.1895928304
 40
2.0
100
AcDbArc
 50
180.0
 51
269.9999961185
  0
ARC
  5
51B
100
AcDbEntity
  8
0
100
AcDbCircle
 62
7
  6
CONTINUOUS
 10
1341.0192213173
 20
504.1895928304
 40
2.0
100
AcDbArc
 50
90.0000039194
 51
180.0
  0
ARC
  5
51C
100
AcDbEntity
  8
0
100
AcDbCircle
 62
7
  6
CONTINUOUS
 10
1482.0192213173
 20
423.1895928304
 40
2.0
100
AcDbArc
 50
180.0000038815
 51
270.0
  0
ARC
  5
51D
100
AcDbEntity
  8
0
100
AcDbCircle
 62
7
  6
CONTINUOUS
 10
1528.0192213173
 20
423.1895928304
 40
2.0
100
AcDbArc
 50
270.0
 51
359.9999960806
  0
ARC
  5
51E
100
AcDbEntity
  8
0
100
AcDbCircle
 62
9
  6
CONTINUOUS
 10
1219.5298752188
 20
8141.1943051269
 40
7925.7788118455
100
AcDbArc
 50
269.6269023894
 51
269.8563707121
  0
ARC
  5
51F
100
AcDbEntity
  8
0
100
AcDbCircle
 62
9
  6
CONTINUOUS
 10
3892.8289545518
 20
-2874.477929329
 40
4157.7054534077
100
AcDbArc
 50
130.3724238013
 51
130.9435448796
  0
ARC
  5
520
100
AcDbEntity
  8
0
100
AcDbCircle
 62
9
  6
CONTINUOUS
 10
3892.8289492364
 20
3320.8571088008
 40
4157.7054452495
100
AcDbArc
 50
229.0564551198
 51
229.6275761992
  0
ARC
  5
521
100
AcDbEntity
  8
0
100
AcDbCircle
 62
7
  6
CONTINUOUS
 10
211.0119527997
 20
250.1092548964
 40
189.0
100
AcDbArc
 50
0.0
 51
61.4881506161
  0
ARC
  5
522
100
AcDbEntity
  8
0
100
AcDbCircle
 62
7
  6
CONTINUOUS
 10
211.0119527997
 20
223.1895928304
 40
189.0
100
AcDbArc
 50
180.0
 51
360.0
  0
ARC
  5
523
100
AcDbEntity
  8
0
100
AcDbCircle
 62
7
  6
CONTINUOUS
 10
211.0119527997
 20
250.1092548964
 40
189.0
100
AcDbArc
 50
118.5124851967
 51
180.0
  0
ARC
  5
524
100
AcDbEntity
  8
0
100
AcDbCircle
 62
9
  6
CONTINUOUS
 10
211.0119527997
 20
250.1092548964
 40
159.0
100
AcDbArc
 50
0.0
 51
51.0260559143
  0
ARC
  5
525
100
AcDbEntity
  8
0
100
AcDbCircle
 62
9
  6
CONTINUOUS
 10
211.0119527997
 20
223.1895928304
 40
159.0
100
AcDbArc
 50
295.2802965483
 51
360.0
  0
ARC
  5
526
100
AcDbEntity
  8
0
100
AcDbCircle
 62
9
  6
CONTINUOUS
 10
211.0119527997
 20
223.1895928304
 40
159.0
100
AcDbArc
 50
180.0
 51
244.7197033271
  0
ARC
  5
527
100
AcDbEntity
  8
0
100
AcDbCircle
 62
9
  6
CONTINUOUS
 10
211.0119527997
 20
250.1092548964
 40
159.0
100
AcDbArc
 50
128.9741116997
 51
180.0
  0
ARC
  5
528
100
AcDbEntity
  8
0
100
AcDbCircle
 62
9
  6
CONTINUOUS
 10
146.0119527997
 20
258.1895928304
 40
29.0
100
AcDbArc
 50
90.0
 51
180.0
  0
ARC
  5
529
100
AcDbEntity
  8
0
100
AcDbCircle
 62
9
  6
CONTINUOUS
 10
146.0119527997
 20
188.1895928304
 40
29.0
100
AcDbArc
 50
180.0
 51
270.0
  0
ARC
  5
52A
100
AcDbEntity
  8
02___PRT_ALL_AXES
100
AcDbCircle
 62
7
  6
CONTINUOUS
 10
146.0119527997
 20
188.1895928304
 40
25.0
100
AcDbArc
 50
180.0
 51
270.0
  0
ARC
  5
52B
100
AcDbEntity
  8
02___PRT_ALL_AXES
100
AcDbCircle
 62
7
  6
CONTINUOUS
 10
146.0119527997
 20
258.1895928304
 40
25.0
100
AcDbArc
 50
90.0
 51
180.0
  0
ARC
  5
52C
100
AcDbEntity
  8
0
100
AcDbCircle
 62
7
  6
CONTINUOUS
 10
30.0119527997
 20
38.1895928304
 40
3.0
100
AcDbArc
 50
90.0
 51
180.0
  0
CIRCLE
  5
52D
100
AcDbEntity
  8
02___PRT_ALL_AXES
100
AcDbCircle
 62
7
  6
CONTINUOUS
 10
211.0119527997
 20
373.1895928304
 40
100.0
  0
CIRCLE
  5
52E
100
AcDbEntity
  8
0
100
AcDbCircle
 62
7
  6
CONTINUOUS
 10
211.0119527997
 20
373.1895928304
 40
40.0
  0
CIRCLE
  5
52F
100
AcDbEntity
  8
02___PRT_ALL_AXES
100
AcDbCircle
 62
7
  6
CONTINUOUS
 10
180.3972782104
 20
447.0999554313
 40
9.0
  0
CIRCLE
  5
530
100
AcDbEntity
  8
02___PRT_ALL_AXES
100
AcDbCircle
 62
7
  6
CONTINUOUS
 10
137.1015901987
 20
403.8042674196
 40
9.0
  0
CIRCLE
  5
531
100
AcDbEntity
  8
02___PRT_ALL_AXES
100
AcDbCircle
 62
7
  6
CONTINUOUS
 10
137.1015901987
 20
342.5749182412
 40
9.0
  0
CIRCLE
  5
532
100
AcDbEntity
  8
02___PRT_ALL_AXES
100
AcDbCircle
 62
7
  6
CONTINUOUS
 10
180.3972782104
 20
299.2792302295
 40
9.0
  0
ARC
  5
533
100
AcDbEntity
  8
0
100
AcDbCircle
 62
7
  6
CONTINUOUS
 10
82.0121470638
 20
393.6643098172
 40
3.9999338483
100
AcDbArc
 50
336.9216342387
 51
359.9973161166
  0
ARC
  5
534
100
AcDbEntity
  8
0
100
AcDbCircle
 62
7
  6
CONTINUOUS
 10
82.0121470638
 20
393.6643098172
 40
3.9999338483
100
AcDbArc
 50
311.9393534304
 51
336.3707069555
  0
ARC
  5
535
100
AcDbEntity
  8
0
100
AcDbCircle
 62
9
  6
CONTINUOUS
 10
276.0119527997
 20
188.1895928304
 40
29.0
100
AcDbArc
 50
270.0
 51
360.0
  0
ARC
  5
536
100
AcDbEntity
  8
0
100
AcDbCircle
 62
9
  6
CONTINUOUS
 10
276.0119527997
 20
258.1895928304
 40
29.0
100
AcDbArc
 50
0.0
 51
90.0
  0
ARC
  5
537
100
AcDbEntity
  8
02___PRT_ALL_AXES
100
AcDbCircle
 62
7
  6
CONTINUOUS
 10
276.0119527997
 20
188.1895928304
 40
25.0
100
AcDbArc
 50
270.0
 51
360.0
  0
ARC
  5
538
100
AcDbEntity
  8
02___PRT_ALL_AXES
100
AcDbCircle
 62
7
  6
CONTINUOUS
 10
276.0119527997
 20
258.1895928304
 40
25.0
100
AcDbArc
 50
0.0
 51
90.0
  0
ARC
  5
539
100
AcDbEntity
  8
0
100
AcDbCircle
 62
7
  6
CONTINUOUS
 10
364.0119527997
 20
38.1895928304
 40
3.0
100
AcDbArc
 50
0.0
 51
90.0
  0
CIRCLE
  5
53A
100
AcDbEntity
  8
02___PRT_ALL_AXES
100
AcDbCircle
 62
7
  6
CONTINUOUS
 10
284.9223154006
 20
342.5749182412
 40
9.0
  0
CIRCLE
  5
53B
100
AcDbEntity
  8
02___PRT_ALL_AXES
100
AcDbCircle
 62
7
  6
CONTINUOUS
 10
284.9223154006
 20
403.8042674196
 40
9.0
  0
CIRCLE
  5
53C
100
AcDbEntity
  8
02___PRT_ALL_AXES
100
AcDbCircle
 62
7
  6
CONTINUOUS
 10
241.6266273889
 20
447.0999554313
 40
9.0
  0
CIRCLE
  5
53D
100
AcDbEntity
  8
02___PRT_ALL_AXES
100
AcDbCircle
 62
7
  6
CONTINUOUS
 10
241.6266273889
 20
299.2792302295
 40
9.0
  0
ARC
  5
53E
100
AcDbEntity
  8
0
100
AcDbCircle
 62
7
  6
CONTINUOUS
 10
403.0119527997
 20
453.1895928304
 40
3.0
100
AcDbArc
 50
0.0
 51
90.0
  0
ARC
  5
53F
100
AcDbEntity
  8
0
100
AcDbCircle
 62
7
  6
CONTINUOUS
 10
289.0119527997
 20
453.1895928304
 40
3.0
100
AcDbArc
 50
90.0
 51
180.0
  0
ARC
  5
540
100
AcDbEntity
  8
0
100
AcDbCircle
 62
7
  6
CONTINUOUS
 10
443.0119527997
 20
509.1895928304
 40
3.0
100
AcDbArc
 50
270.0
 51
360.0
  0
ARC
  5
541
100
AcDbEntity
  8
0
100
AcDbCircle
 62
7
  6
CONTINUOUS
 10
249.0119527997
 20
509.1895928304
 40
3.0
100
AcDbArc
 50
180.0
 51
270.0
  0
ARC
  5
542
100
AcDbEntity
  8
0
100
AcDbCircle
 62
7
  6
CONTINUOUS
 10
296.0119527997
 20
504.1895928304
 40
2.0
100
AcDbArc
 50
0.0
 51
90.0
  0
ARC
  5
543
100
AcDbEntity
  8
0
100
AcDbCircle
 62
7
  6
CONTINUOUS
 10
396.0119527997
 20
504.1895928304
 40
2.0
100
AcDbArc
 50
90.0
 51
180.0
  0
ARC
  5
544
100
AcDbEntity
  8
0
100
AcDbCircle
 62
7
  6
CONTINUOUS
 10
296.0119527997
 20
458.1895928304
 40
2.0
100
AcDbArc
 50
270.0
 51
360.0
  0
ARC
  5
545
100
AcDbEntity
  8
0
100
AcDbCircle
 62
7
  6
CONTINUOUS
 10
396.0119527997
 20
458.1895928304
 40
2.0
100
AcDbArc
 50
180.0
 51
270.0
  0
ARC
  5
546
100
AcDbEntity
  8
0
100
AcDbCircle
 62
9
  6
CONTINUOUS
 10
-3429.3815593277
 20
-2874.4779231413
 40
4157.7054452512
100
AcDbArc
 50
49.0564551198
 51
49.6275761992
  0
ARC
  5
547
100
AcDbEntity
  8
0
100
AcDbCircle
 62
9
  6
CONTINUOUS
 10
-3429.3815646447
 20
3320.8571149931
 40
4157.7054534119
100
AcDbArc
 50
310.3724238013
 51
310.9435448796
  0
ARC
  5
548
100
AcDbEntity
  8
0
100
AcDbCircle
 62
9
  6
CONTINUOUS
 10
-756.0824853091
 20
-7694.8151194754
 40
7925.7788118549
100
AcDbArc
 50
89.6269023894
 51
89.8563707121
  0
ARC
  5
549
100
AcDbEntity
  8
0
100
AcDbCircle
 62
7
  6
CONTINUOUS
 10
-963.5718314074
 20
64.1895928304
 40
30.0
100
AcDbArc
 50
227.3114192981
 51
270.0
  0
ARC
  5
54A
100
AcDbEntity
  8
0
100
AcDbCircle
 62
7
  6
CONTINUOUS
 10
-884.5718314074
 20
38.1895928304
 40
3.0
100
AcDbArc
 50
90.0
 51
180.0
  0
ARC
  5
54B
100
AcDbEntity
  8
0
100
AcDbCircle
 62
7
  6
CONTINUOUS
 10
-997.5718314074
 20
159.1895928304
 40
4.0
100
AcDbArc
 50
0.0
 51
90.0
  0
ARC
  5
54C
100
AcDbEntity
  8
0
100
AcDbCircle
 62
7
  6
CONTINUOUS
 10
-783.5718314074
 20
64.1895928304
 40
30.0
100
AcDbArc
 50
270.0
 51
0.0000000583
  0
ARC
  5
54D
100
AcDbEntity
  8
0
100
AcDbCircle
 62
7
  6
CONTINUOUS
 10
-738.0718314074
 20
119.1895928304
 40
4.0
100
AcDbArc
 50
90.0
 51
180.0
  0
ARC
  5
54E
100
AcDbEntity
  8
0
100
AcDbCircle
 62
7
  6
CONTINUOUS
 10
-657.0718314074
 20
126.1895928304
 40
3.0
100
AcDbArc
 50
270.0
 51
289.4712206345
  0
ARC
  5
54F
100
AcDbEntity
  8
0
100
AcDbCircle
 62
7
  6
CONTINUOUS
 10
-744.0718314074
 20
90.1895928304
 40
2.0
100
AcDbArc
 50
270.0
 51
360.0
  0
ARC
  5
550
100
AcDbEntity
  8
0
100
AcDbCircle
 62
7
  6
CONTINUOUS
 10
-669.0718314074
 20
125.1895928304
 40
2.0
100
AcDbArc
 50
180.0
 51
270.0
  0
ARC
  5
551
100
AcDbEntity
  8
0
100
AcDbCircle
 62
9
  6
CONTINUOUS
 10
-744.9039479508
 20
146.7059710027
 40
8.8321165486
100
AcDbArc
 50
359.9980237126
 51
1.8534798041
  0
ARC
  5
552
100
AcDbEntity
  8
0
100
AcDbCircle
 62
9
  6
CONTINUOUS
 10
-729.097044973
 20
144.9478911202
 40
8.0075211915
100
AcDbArc
 50
130.4516660215
 51
132.3856108056
  0
ARC
  5
553
100
AcDbEntity
  8
0
100
AcDbCircle
 62
9
  6
CONTINUOUS
 10
-731.0870972447
 20
147.2199980029
 40
7.9597193702
100
AcDbArc
 50
130.099921965
 51
132.0447594366
  0
ARC
  5
554
100
AcDbEntity
  8
0
100
AcDbCircle
 62
7
  6
CONTINUOUS
 10
-738.0718314074
 20
134.3166094842
 40
4.0
100
AcDbArc
 50
128.6821874282
 51
180.0
  0
ARC
  5
555
100
AcDbEntity
  8
0
100
AcDbCircle
 62
7
  6
CONTINUOUS
 10
-743.0717805053
 20
140.56158303
 40
3.9999490979
100
AcDbArc
 50
308.6820123237
 51
360.0
  0
ARC
  5
556
100
AcDbEntity
  8
0
100
AcDbCircle
 62
7
  6
CONTINUOUS
 10
-736.0718349048
 20
136.189592232
 40
2.9999965026
100
AcDbArc
 50
179.9999885715
 51
269.9999993565
  0
ARC
  5
557
100
AcDbEntity
  8
0
100
AcDbCircle
 62
9
  6
CONTINUOUS
 10
-709.8290475073
 20
186.0114107326
 40
10.5501700187
100
AcDbArc
 50
311.3330523951
 51
312.7636975953
  0
ARC
  5
558
100
AcDbEntity
  8
0
100
AcDbCircle
 62
7
  6
CONTINUOUS
 10
-736.0718314074
 20
215.1895928304
 40
3.0
100
AcDbArc
 50
90.0
 51
180.0
  0
ARC
  5
559
100
AcDbEntity
  8
0
100
AcDbCircle
 62
7
  6
CONTINUOUS
 10
-739.0718314074
 20
215.1895928304
 40
3.0
100
AcDbArc
 50
90.0
 51
180.0
  0
ARC
  5
55A
100
AcDbEntity
  8
0
100
AcDbCircle
 62
9
  6
CONTINUOUS
 10
-738.6806147888
 20
216.9321467639
 40
1.2591502113
100
AcDbArc
 50
105.751069903
 51
106.9663224514
  0
ARC
  5
55B
100
AcDbEntity
  8
0
100
AcDbCircle
 62
7
  6
CONTINUOUS
 10
-674.0725495121
 20
136.1896486017
 40
3.0007181052
100
AcDbArc
 50
350.9985765911
 51
359.9989351026
  0
ARC
  5
55C
100
AcDbEntity
  8
0
100
AcDbCircle
 62
7
  6
CONTINUOUS
 10
-674.0718312774
 20
136.1895927005
 40
2.99999987
100
AcDbArc
 50
269.9999975178
 51
0.0000024822
  0
ARC
  5
55D
100
AcDbEntity
  8
0
100
AcDbCircle
 62
7
  6
CONTINUOUS
 10
-674.071692522
 20
136.1882613593
 40
2.9986621881
100
AcDbArc
 50
273.9123904454
 51
279.5825752564
  0
ARC
  5
55E
100
AcDbEntity
  8
0
100
AcDbCircle
 62
9
  6
CONTINUOUS
 10
-674.0718314074
 20
215.1895928304
 40
5.0
100
AcDbArc
 50
0.0
 51
90.0
  0
ARC
  5
55F
100
AcDbEntity
  8
0
100
AcDbCircle
 62
7
  6
CONTINUOUS
 10
-674.0718314074
 20
215.1895928304
 40
3.0
100
AcDbArc
 50
0.0
 51
90.0
  0
ARC
  5
560
100
AcDbEntity
  8
0
100
AcDbCircle
 62
7
  6
CONTINUOUS
 10
-258.0718314074
 20
121.4738411055
 40
20.0
100
AcDbArc
 50
315.000005865
 51
0.000000203
  0
ARC
  5
561
100
AcDbEntity
  8
0
100
AcDbCircle
 62
7
  6
CONTINUOUS
 10
-266.3560780399
 20
113.1895928304
 40
20.0
100
AcDbArc
 50
270.0
 51
315.0000056357
  0
ARC
  5
562
100
AcDbEntity
  8
0
100
AcDbCircle
 62
7
  6
CONTINUOUS
 10
-997.5718314074
 20
287.1895928304
 40
4.0
100
AcDbArc
 50
270.0
 51
360.0
  0
ARC
  5
563
100
AcDbEntity
  8
0
100
AcDbCircle
 62
7
  6
CONTINUOUS
 10
-1013.5718314074
 20
316.1895928304
 40
3.0
100
AcDbArc
 50
180.0
 51
270.0
  0
ARC
  5
564
100
AcDbEntity
  8
0
100
AcDbCircle
 62
7
  6
CONTINUOUS
 10
-1069.5718314074
 20
276.1895928304
 40
3.0
100
AcDbArc
 50
270.0
 51
360.0
  0
ARC
  5
565
100
AcDbEntity
  8
0
100
AcDbCircle
 62
7
  6
CONTINUOUS
 10
-1018.5718314074
 20
323.1895928304
 40
2.0
100
AcDbArc
 50
0.0000038815
 51
90.0
  0
ARC
  5
566
100
AcDbEntity
  8
0
100
AcDbCircle
 62
7
  6
CONTINUOUS
 10
-1064.5718314074
 20
323.1895928304
 40
2.0
100
AcDbArc
 50
90.0
 51
179.9999960806
  0
ARC
  5
567
100
AcDbEntity
  8
0
100
AcDbCircle
 62
7
  6
CONTINUOUS
 10
-1013.5718314074
 20
430.1895928304
 40
3.0
100
AcDbArc
 50
90.0
 51
180.0
  0
ARC
  5
568
100
AcDbEntity
  8
0
100
AcDbCircle
 62
7
  6
CONTINUOUS
 10
-1069.5718314074
 20
470.1895928304
 40
3.0
100
AcDbArc
 50
0.0
 51
90.0
  0
ARC
  5
569
100
AcDbEntity
  8
0
100
AcDbCircle
 62
7
  6
CONTINUOUS
 10
-884.5718314074
 20
453.1895928304
 40
3.0
100
AcDbArc
 50
90.0
 51
180.0
  0
ARC
  5
56A
100
AcDbEntity
  8
0
100
AcDbCircle
 62
7
  6
CONTINUOUS
 10
-924.5718314074
 20
509.1895928304
 40
3.0
100
AcDbArc
 50
180.0
 51
270.0
  0
ARC
  5
56B
100
AcDbEntity
  8
0
100
AcDbCircle
 62
7
  6
CONTINUOUS
 10
-1018.5718314074
 20
423.1895928304
 40
2.0
100
AcDbArc
 50
270.0
 51
359.9999961185
  0
ARC
  5
56C
100
AcDbEntity
  8
0
100
AcDbCircle
 62
7
  6
CONTINUOUS
 10
-1064.5718314074
 20
423.1895928304
 40
2.0
100
AcDbArc
 50
180.0000039194
 51
270.0
  0
ARC
  5
56D
100
AcDbEntity
  8
0
100
AcDbCircle
 62
7
  6
CONTINUOUS
 10
-877.5718314074
 20
458.1895928304
 40
2.0
100
AcDbArc
 50
270.0000038815
 51
360.0
  0
ARC
  5
56E
100
AcDbEntity
  8
0
100
AcDbCircle
 62
7
  6
CONTINUOUS
 10
-877.5718314074
 20
504.1895928304
 40
2.0
100
AcDbArc
 50
0.0
 51
89.9999960806
  0
ARC
  5
56F
100
AcDbEntity
  8
0
100
AcDbCircle
 62
9
  6
CONTINUOUS
 10
-709.8343902869
 20
260.3618325385
 40
10.5581606185
100
AcDbArc
 50
47.2368911689
 51
48.6664741698
  0
ARC
  5
570
100
AcDbEntity
  8
0
100
AcDbCircle
 62
7
  6
CONTINUOUS
 10
-739.0718314074
 20
231.1895928304
 40
3.0
100
AcDbArc
 50
180.0
 51
270.0
  0
ARC
  5
571
100
AcDbEntity
  8
0
100
AcDbCircle
 62
7
  6
CONTINUOUS
 10
-736.0718314074
 20
231.1895928304
 40
3.0
100
AcDbArc
 50
180.0
 51
270.0
  0
ARC
  5
572
100
AcDbEntity
  8
0
100
AcDbCircle
 62
9
  6
CONTINUOUS
 10
-738.6806147894
 20
229.4470388954
 40
1.2591502096
100
AcDbArc
 50
253.0336775364
 51
254.2489304771
  0
ARC
  5
573
100
AcDbEntity
  8
0
100
AcDbCircle
 62
9
  6
CONTINUOUS
 10
-744.9183092533
 20
299.6734467198
 40
8.8464778462
100
AcDbArc
 50
358.1480263931
 51
0.0004700902
  0
ARC
  5
574
100
AcDbEntity
  8
0
100
AcDbCircle
 62
7
  6
CONTINUOUS
 10
-738.0718314074
 20
312.0625761766
 40
4.0
100
AcDbArc
 50
180.0
 51
231.3179876942
  0
ARC
  5
575
100
AcDbEntity
  8
0
100
AcDbCircle
 62
7
  6
CONTINUOUS
 10
-738.0718314074
 20
327.1895928304
 40
4.0
100
AcDbArc
 50
180.0
 51
270.0
  0
ARC
  5
576
100
AcDbEntity
  8
0
100
AcDbCircle
 62
7
  6
CONTINUOUS
 10
-743.0717805001
 20
305.8176026334
 40
3.9999490926
100
AcDbArc
 50
0.0
 51
51.3179876942
  0
ARC
  5
577
100
AcDbEntity
  8
0
100
AcDbCircle
 62
7
  6
CONTINUOUS
 10
-744.0718314074
 20
356.1895928304
 40
2.0
100
AcDbArc
 50
0.0
 51
90.0
  0
ARC
  5
578
100
AcDbEntity
  8
0
100
AcDbCircle
 62
9
  6
CONTINUOUS
 10
-729.0970523359
 20
301.4312861901
 40
8.0075100601
100
AcDbArc
 50
227.614387829
 51
229.5483350595
  0
ARC
  5
579
100
AcDbEntity
  8
0
100
AcDbCircle
 62
9
  6
CONTINUOUS
 10
-731.0870916426
 20
299.1591940861
 40
7.9597278956
100
AcDbArc
 50
227.9552416054
 51
229.9000769937
  0
ARC
  5
57A
100
AcDbEntity
  8
0
100
AcDbCircle
 62
7
  6
CONTINUOUS
 10
-736.0718313522
 20
310.1895927786
 40
3.0000000693
100
AcDbArc
 50
90.0000004485
 51
179.9999919413
  0
ARC
  5
57B
100
AcDbEntity
  8
0
100
AcDbCircle
 62
9
  6
CONTINUOUS
 10
-674.0718314074
 20
231.1895928304
 40
5.0
100
AcDbArc
 50
270.0
 51
360.0
  0
ARC
  5
57C
100
AcDbEntity
  8
0
100
AcDbCircle
 62
7
  6
CONTINUOUS
 10
-674.0718314074
 20
231.1895928304
 40
3.0
100
AcDbArc
 50
270.0
 51
360.0
  0
ARC
  5
57D
100
AcDbEntity
  8
0
100
AcDbCircle
 62
7
  6
CONTINUOUS
 10
-674.0803069242
 20
310.188429137
 40
3.0085530896
100
AcDbArc
 50
8.9991394984
 51
9.5433290824
  0
ARC
  5
57E
100
AcDbEntity
  8
0
100
AcDbCircle
 62
7
  6
CONTINUOUS
 10
-674.0725539081
 20
310.1895351932
 40
3.0007225012
100
AcDbArc
 50
0.0011005246
 51
9.0014361727
  0
ARC
  5
57F
100
AcDbEntity
  8
0
100
AcDbCircle
 62
7
  6
CONTINUOUS
 10
-674.0719068061
 20
310.1890954248
 40
3.0005013524
100
AcDbArc
 50
80.4122201983
 51
86.0859102689
  0
ARC
  5
580
100
AcDbEntity
  8
0
100
AcDbCircle
 62
7
  6
CONTINUOUS
 10
-674.0718308158
 20
310.189593422
 40
2.9999994084
100
AcDbArc
 50
359.9999887013
 51
90.0000112987
  0
ARC
  5
581
100
AcDbEntity
  8
0
100
AcDbCircle
 62
7
  6
CONTINUOUS
 10
-669.0718314074
 20
321.1895928304
 40
2.0
100
AcDbArc
 50
90.0
 51
180.0
  0
ARC
  5
582
100
AcDbEntity
  8
0
100
AcDbCircle
 62
7
  6
CONTINUOUS
 10
-783.5718314074
 20
403.1895928304
 40
30.0
100
AcDbArc
 50
0.0
 51
57.6970645465
  0
ARC
  5
583
100
AcDbEntity
  8
0
100
AcDbCircle
 62
7
  6
CONTINUOUS
 10
-770.5718314074
 20
453.1895928304
 40
3.0
100
AcDbArc
 50
0.0
 51
90.0
  0
ARC
  5
584
100
AcDbEntity
  8
0
100
AcDbCircle
 62
7
  6
CONTINUOUS
 10
-730.5718314074
 20
509.1895928304
 40
3.0
100
AcDbArc
 50
270.0
 51
360.0
  0
ARC
  5
585
100
AcDbEntity
  8
0
100
AcDbCircle
 62
7
  6
CONTINUOUS
 10
-777.5718314074
 20
458.1895928304
 40
2.0
100
AcDbArc
 50
180.0
 51
269.9999961185
  0
ARC
  5
586
100
AcDbEntity
  8
0
100
AcDbCircle
 62
7
  6
CONTINUOUS
 10
-777.5718314074
 20
504.1895928304
 40
2.0
100
AcDbArc
 50
90.0000039194
 51
180.0
  0
ARC
  5
587
100
AcDbEntity
  8
0
100
AcDbCircle
 62
9
  6
CONTINUOUS
 10
-756.0824853159
 20
8141.1943066611
 40
7925.7788133798
100
AcDbArc
 50
270.1436292879
 51
270.3730976105
  0
ARC
  5
588
100
AcDbEntity
  8
0
100
AcDbCircle
 62
7
  6
CONTINUOUS
 10
-258.0718314074
 20
324.9053445553
 40
20.0
100
AcDbArc
 50
359.999999797
 51
44.999994135
  0
ARC
  5
589
100
AcDbEntity
  8
0
100
AcDbCircle
 62
7
  6
CONTINUOUS
 10
-266.3560780399
 20
333.1895928304
 40
20.0
100
AcDbArc
 50
44.9999943643
 51
90.0
  0
ARC
  5
58A
100
AcDbEntity
  8
0
100
AcDbCircle
 62
7
  6
CONTINUOUS
 10
-657.0718314074
 20
320.1895928304
 40
3.0
100
AcDbArc
 50
70.5287793655
 51
90.0
  0
ARC
  5
58B
100
AcDbEntity
  8
0
100
AcDbCircle
 62
7
  6
CONTINUOUS
 10
1921.7999733787
 20
31.1895928304
 40
8.0
100
AcDbArc
 50
270.0
 51
360.0
  0
ARC
  5
58C
100
AcDbEntity
  8
0
100
AcDbCircle
 62
3
  6
CONTINUOUS
 10
1933.7999733787
 20
83.1895928304
 40
8.0
100
AcDbArc
 50
90.0
 51
180.0
  0
ARC
  5
58D
100
AcDbEntity
  8
3_ALL_AXES
100
AcDbCircle
 62
7
  6
CONTINUOUS
 10
1940.3150318147
 20
175.3541637848
 40
5.5
100
AcDbArc
 50
172.2140392775
 51
230.4968713939
  0
ARC
  5
58E
100
AcDbEntity
  8
0
100
AcDbCircle
 62
7
  6
CONTINUOUS
 10
1933.7999733787
 20
83.1895928304
 40
4.0
100
AcDbArc
 50
90.0
 51
180.0
  0
ARC
  5
58F
100
AcDbEntity
  8
0
100
AcDbCircle
 62
3
  6
CONTINUOUS
 10
1921.7999733787
 20
31.1895928304
 40
4.0
100
AcDbArc
 50
270.0
 51
360.0
  0
ARC
  5
590
100
AcDbEntity
  8
0
100
AcDbCircle
 62
7
  6
CONTINUOUS
 10
1996.7999733787
 20
418.1895928304
 40
15.0
100
AcDbArc
 50
89.9999885881
 51
104.9881673697
  0
ARC
  5
591
100
AcDbEntity
  8
0
100
AcDbCircle
 62
7
  6
CONTINUOUS
 10
1993.7999733787
 20
421.1895928304
 40
12.0
100
AcDbArc
 50
90.0
 51
127.5922568462
  0
ARC
  5
592
100
AcDbEntity
  8
3_ALL_AXES
100
AcDbCircle
 62
7
  6
CONTINUOUS
 10
1940.3150318147
 20
271.0250218761
 40
5.5
100
AcDbArc
 50
129.3846007652
 51
188.403464439
  0
ARC
  5
593
100
AcDbEntity
  8
0
100
AcDbCircle
 62
7
  6
CONTINUOUS
 10
1849.7999733787
 20
453.1895928304
 40
3.0
100
AcDbArc
 50
90.0
 51
180.0
  0
ARC
  5
594
100
AcDbEntity
  8
0
100
AcDbCircle
 62
7
  6
CONTINUOUS
 10
1963.7999733787
 20
453.1895928304
 40
3.0
100
AcDbArc
 50
0.0
 51
90.0
  0
ARC
  5
595
100
AcDbEntity
  8
0
100
AcDbCircle
 62
7
  6
CONTINUOUS
 10
1809.7999733787
 20
509.1895928304
 40
3.0
100
AcDbArc
 50
180.0
 51
270.0
  0
ARC
  5
596
100
AcDbEntity
  8
0
100
AcDbCircle
 62
7
  6
CONTINUOUS
 10
1856.7999733787
 20
504.1895928304
 40
2.0
100
AcDbArc
 50
0.0
 51
90.0
  0
ARC
  5
597
100
AcDbEntity
  8
0
100
AcDbCircle
 62
7
  6
CONTINUOUS
 10
1956.7999733787
 20
504.1895928304
 40
2.0
100
AcDbArc
 50
90.0
 51
180.0
  0
ARC
  5
598
100
AcDbEntity
  8
0
100
AcDbCircle
 62
7
  6
CONTINUOUS
 10
1856.7999733787
 20
458.1895928304
 40
2.0
100
AcDbArc
 50
270.0
 51
360.0
  0
ARC
  5
599
100
AcDbEntity
  8
0
100
AcDbCircle
 62
7
  6
CONTINUOUS
 10
1956.7999733787
 20
458.1895928304
 40
2.0
100
AcDbArc
 50
180.0
 51
270.0
  0
ARC
  5
59A
100
AcDbEntity
  8
0
100
AcDbCircle
 62
7
  6
CONTINUOUS
 10
2041.7999733787
 20
223.1895928304
 40
189.0
100
AcDbArc
 50
233.5513099275
 51
313.9636401824
  0
ARC
  5
59B
100
AcDbEntity
  8
0
100
AcDbCircle
 62
7
  6
CONTINUOUS
 10
2041.7999733787
 20
223.1895928304
 40
189.0
100
AcDbArc
 50
319.6627031329
 51
360.0
  0
ARC
  5
59C
100
AcDbEntity
  8
0
100
AcDbCircle
 62
7
  6
CONTINUOUS
 10
2041.7999733787
 20
223.1895928304
 40
189.0
100
AcDbArc
 50
180.0
 51
232.1052081002
  0
ARC
  5
59D
100
AcDbEntity
  8
0
100
AcDbCircle
 62
9
  6
CONTINUOUS
 10
2041.7999733787
 20
223.1895928304
 40
158.9999998922
100
AcDbArc
 50
180.0
 51
227.4243976258
  0
ARC
  5
59E
100
AcDbEntity
  8
0
100
AcDbCircle
 62
9
  6
CONTINUOUS
 10
2041.7999733787
 20
223.1895928304
 40
158.9999998922
100
AcDbArc
 50
238.8055588663
 51
301.1957605989
  0
ARC
  5
59F
100
AcDbEntity
  8
0
100
AcDbCircle
 62
9
  6
CONTINUOUS
 10
2041.7999733787
 20
223.1895928304
 40
158.9999998922
100
AcDbArc
 50
312.5754508464
 51
360.0
  0
ARC
  5
5A0
100
AcDbEntity
  8
0
100
AcDbCircle
 62
7
  6
CONTINUOUS
 10
2041.7999733787
 20
250.1092548964
 40
189.0
100
AcDbArc
 50
104.9882344823
 51
180.0
  0
ARC
  5
5A1
100
AcDbEntity
  8
0
100
AcDbCircle
 62
7
  6
CONTINUOUS
 10
2041.7999733787
 20
250.1092548964
 40
189.0
100
AcDbArc
 50
0.0
 51
75.0117708442
  0
ARC
  5
5A2
100
AcDbEntity
  8
0
100
AcDbCircle
 62
9
  6
CONTINUOUS
 10
2041.7999733787
 20
250.1092548964
 40
159.0
100
AcDbArc
 50
110.6262766595
 51
180.0
  0
ARC
  5
5A3
100
AcDbEntity
  8
0
100
AcDbCircle
 62
9
  6
CONTINUOUS
 10
2041.7999733787
 20
250.1092548964
 40
159.0
100
AcDbArc
 50
0.0
 51
58.0799061932
  0
ARC
  5
5A4
100
AcDbEntity
  8
0
100
AcDbCircle
 62
7
  6
CONTINUOUS
 10
2055.7999733787
 20
223.1895928304
 40
135.0
100
AcDbArc
 50
121.2455795379
 51
240.133964357
  0
ARC
  5
5A5
100
AcDbEntity
  8
0
100
AcDbCircle
 62
7
  6
CONTINUOUS
 10
2055.7999733787
 20
223.1895928304
 40
135.0
100
AcDbArc
 50
299.866035643
 51
58.7544204621
  0
ARC
  5
5A6
100
AcDbEntity
  8
0
100
AcDbCircle
 62
9
  6
CONTINUOUS
 10
2055.7999733787
 20
223.1895928304
 40
133.0
100
AcDbArc
 50
121.7616627414
 51
241.6280456692
  0
ARC
  5
5A7
100
AcDbEntity
  8
0
100
AcDbCircle
 62
9
  6
CONTINUOUS
 10
2055.7999733787
 20
223.1895928304
 40
133.0
100
AcDbArc
 50
298.3719542882
 51
58.2383372421
  0
CIRCLE
  5
5A8
100
AcDbEntity
  8
0
100
AcDbCircle
 62
7
  6
CONTINUOUS
 10
2055.7999733787
 20
223.1895928304
 40
130.0
  0
CIRCLE
  5
5A9
100
AcDbEntity
  8
0
100
AcDbCircle
 62
9
  6
CONTINUOUS
 10
2055.7999733787
 20
223.1895928304
 40
124.142132737
  0
CIRCLE
  5
5AA
100
AcDbEntity
  8
0
100
AcDbCircle
 62
9
  6
CONTINUOUS
 10
2055.7999733787
 20
223.1895928304
 40
115.8578858013
  0
CIRCLE
  5
5AB
100
AcDbEntity
  8
0
100
AcDbCircle
 62
9
  6
CONTINUOUS
 10
2055.7999733787
 20
223.1895928304
 40
101.7157515143
  0
ARC
  5
5AC
100
AcDbEntity
  8
0
100
AcDbCircle
 62
7
  6
CONTINUOUS
 10
2189.7999733787
 20
31.1895928304
 40
8.0
100
AcDbArc
 50
180.0
 51
270.0
  0
ARC
  5
5AD
100
AcDbEntity
  8
0
100
AcDbCircle
 62
3
  6
CONTINUOUS
 10
2177.7999733787
 20
83.1895928304
 40
8.0
100
AcDbArc
 50
0.0
 51
90.0
  0
ARC
  5
5AE
100
AcDbEntity
  8
0
100
AcDbCircle
 62
7
  6
CONTINUOUS
 10
2177.7999733787
 20
83.1895928304
 40
4.0
100
AcDbArc
 50
0.0
 51
90.0
  0
ARC
  5
5AF
100
AcDbEntity
  8
0
100
AcDbCircle
 62
3
  6
CONTINUOUS
 10
2189.7999733787
 20
31.1895928304
 40
4.0
100
AcDbArc
 50
180.0
 51
270.0
  0
ARC
  5
5B0
100
AcDbEntity
  8
3_ALL_AXES
100
AcDbCircle
 62
7
  6
CONTINUOUS
 10
2171.2849149426
 20
175.3541637848
 40
5.5
100
AcDbArc
 50
309.3846007652
 51
8.4034644597
  0
ARC
  5
5B1
100
AcDbEntity
  8
0
100
AcDbCircle
 62
7
  6
CONTINUOUS
 10
2041.7999733787
 20
373.1895928304
 40
100.0
100
AcDbArc
 50
25.326046629
 51
25.5806345536
  0
ARC
  5
5B2
100
AcDbEntity
  8
0
100
AcDbCircle
 62
7
  6
CONTINUOUS
 10
2041.7999733787
 20
373.1895928304
 40
100.0
100
AcDbArc
 50
44.5371762055
 51
138.7095950566
  0
ARC
  5
5B3
100
AcDbEntity
  8
0
100
AcDbCircle
 62
7
  6
CONTINUOUS
 10
2041.7999733787
 20
373.1895928304
 40
100.0
100
AcDbArc
 50
146.5608530439
 51
154.4878064347
  0
ARC
  5
5B4
100
AcDbEntity
  8
0
100
AcDbCircle
 62
9
  6
CONTINUOUS
 10
2041.7999733787
 20
373.1895928304
 40
97.0
100
AcDbArc
 50
27.8990662382
 51
28.0013550085
  0
ARC
  5
5B5
100
AcDbEntity
  8
0
100
AcDbCircle
 62
9
  6
CONTINUOUS
 10
2041.7999733787
 20
373.1895928304
 40
97.0
100
AcDbArc
 50
46.2373457236
 51
140.6589751117
  0
ARC
  5
5B6
100
AcDbEntity
  8
0
100
AcDbCircle
 62
9
  6
CONTINUOUS
 10
2041.7999733787
 20
373.1895928304
 40
97.0
100
AcDbArc
 50
145.3678280268
 51
152.1009230228
  0
ARC
  5
5B7
100
AcDbEntity
  8
0
100
AcDbCircle
 62
9
  6
CONTINUOUS
 10
2087.2162616835
 20
419.2037631012
 40
17.9858307957
100
AcDbArc
 50
74.5924807546
 51
89.9802695615
  0
ARC
  5
5B8
100
AcDbEntity
  8
0
100
AcDbCircle
 62
7
  6
CONTINUOUS
 10
2086.7999733787
 20
418.1895928304
 40
15.0
100
AcDbArc
 50
75.0117655177
 51
90.0000114111
  0
ARC
  5
5B9
100
AcDbEntity
  8
02___PRT_ALL_AXES
100
AcDbCircle
 62
7
  6
CONTINUOUS
 10
2072.4146479679
 20
447.0999554313
 40
9.0
100
AcDbArc
 50
334.0567684263
 51
205.8356915478
  0
CIRCLE
  5
5BA
100
AcDbEntity
  8
02___PRT_ALL_AXES
100
AcDbCircle
 62
7
  6
CONTINUOUS
 10
2011.1852987895
 20
447.0999554313
 40
9.0
  0
ARC
  5
5BB
100
AcDbEntity
  8
3_ALL_AXES
100
AcDbCircle
 62
7
  6
CONTINUOUS
 10
2171.2849149426
 20
271.0250218761
 40
5.5
100
AcDbArc
 50
352.2140394306
 51
50.4968713939
  0
ARC
  5
5BC
100
AcDbEntity
  8
0
100
AcDbCircle
 62
7
  6
CONTINUOUS
 10
2170.7997791145
 20
393.6643098172
 40
3.9999338483
100
AcDbArc
 50
180.0026838834
 51
203.073001208
  0
ARC
  5
5BD
100
AcDbEntity
  8
0
100
AcDbCircle
 62
7
  6
CONTINUOUS
 10
2170.7997791145
 20
393.6643098172
 40
3.9999338483
100
AcDbArc
 50
203.6307865349
 51
228.0606465696
  0
ARC
  5
5BE
100
AcDbEntity
  8
0
100
AcDbCircle
 62
7
  6
CONTINUOUS
 10
2032.8001532692
 20
437.1895928304
 40
3.9999260768
100
AcDbArc
 50
269.9974232575
 51
360.0
  0
ARC
  5
5BF
100
AcDbEntity
  8
0
100
AcDbCircle
 62
7
  6
CONTINUOUS
 10
2003.7999733787
 20
509.1895928304
 40
3.0
100
AcDbArc
 50
270.0
 51
360.0
  0
ARC
  5
5C0
100
AcDbEntity
  8
0
100
AcDbCircle
 62
7
  6
CONTINUOUS
 10
729.8034679497
 20
-509.4731599716
 40
20.0
100
AcDbArc
 50
224.9999943197
 51
270.0
  0
ARC
  5
5C1
100
AcDbEntity
  8
0
100
AcDbCircle
 62
7
  6
CONTINUOUS
 10
721.5192213173
 20
-501.1889116965
 40
20.0
100
AcDbArc
 50
180.0
 51
224.9999943197
  0
ARC
  5
5C2
100
AcDbEntity
  8
0
100
AcDbCircle
 62
3
  6
CONTINUOUS
 10
1036.5192213173
 20
-554.4731599716
 40
15.0
100
AcDbArc
 50
270.0
 51
360.0
  0
ARC
  5
5C3
100
AcDbEntity
  8
0
100
AcDbCircle
 62
3
  6
CONTINUOUS
 10
846.5192213173
 20
-554.4731599716
 40
15.0
100
AcDbArc
 50
180.0
 51
270.0
  0
ARC
  5
5C4
100
AcDbEntity
  8
02___PRT_ALL_AXES
100
AcDbCircle
 62
3
  6
CONTINUOUS
 10
1030.5192213173
 20
-551.9731599716
 40
6.0
100
AcDbArc
 50
180.0
 51
360.0
  0
ARC
  5
5C5
100
AcDbEntity
  8
02___PRT_ALL_AXES
100
AcDbCircle
 62
3
  6
CONTINUOUS
 10
1030.5192213173
 20
-546.9731599716
 40
6.0
100
AcDbArc
 50
0.0
 51
180.0
  0
ARC
  5
5C6
100
AcDbEntity
  8
02___PRT_ALL_AXES
100
AcDbCircle
 62
3
  6
CONTINUOUS
 10
852.5192213173
 20
-551.9731599716
 40
6.0
100
AcDbArc
 50
180.0
 51
360.0
  0
ARC
  5
5C7
100
AcDbEntity
  8
02___PRT_ALL_AXES
100
AcDbCircle
 62
3
  6
CONTINUOUS
 10
852.5192213173
 20
-546.9731599716
 40
6.0
100
AcDbArc
 50
0.0
 51
180.0
  0
ARC
  5
5C8
100
AcDbEntity
  8
0
100
AcDbCircle
 62
7
  6
CONTINUOUS
 10
1120.5192213173
 20
-496.4731599716
 40
3.0
100
AcDbArc
 50
250.5287793655
 51
270.0
  0
ARC
  5
5C9
100
AcDbEntity
  8
0
100
AcDbCircle
 62
7
  6
CONTINUOUS
 10
1427.0192213173
 20
-544.4731599716
 40
30.0
100
AcDbArc
 50
270.0
 51
360.0
  0
ARC
  5
5CA
100
AcDbEntity
  8
0
100
AcDbCircle
 62
7
  6
CONTINUOUS
 10
1247.0192213173
 20
-544.4731599716
 40
30.0
100
AcDbArc
 50
180.0
 51
270.0
  0
ARC
  5
5CB
100
AcDbEntity
  8
0
100
AcDbCircle
 62
7
  6
CONTINUOUS
 10
1202.5192213173
 20
-502.4731599716
 40
3.0
100
AcDbArc
 50
0.0
 51
90.0
  0
ARC
  5
5CC
100
AcDbEntity
  8
0
100
AcDbCircle
 62
7
  6
CONTINUOUS
 10
1207.5192213173
 20
-532.4731599716
 40
2.0
100
AcDbArc
 50
180.0
 51
270.0
  0
ARC
  5
5CD
100
AcDbEntity
  8
0
100
AcDbCircle
 62
7
  6
CONTINUOUS
 10
1132.5192213173
 20
-497.4731599716
 40
2.0
100
AcDbArc
 50
270.0
 51
360.0
  0
ARC
  5
5CE
100
AcDbEntity
  8
0
100
AcDbCircle
 62
9
  6
CONTINUOUS
 10
1206.5192213173
 20
-482.1011453194
 40
7.0
100
AcDbArc
 50
180.0
 51
231.3178125465
  0
ARC
  5
5CF
100
AcDbEntity
  8
0
100
AcDbCircle
 62
7
  6
CONTINUOUS
 10
1201.5192213173
 20
-488.3461433178
 40
4.0
100
AcDbArc
 50
0.0
 51
51.3178125719
  0
ARC
  5
5D0
100
AcDbEntity
  8
0
100
AcDbCircle
 62
7
  6
CONTINUOUS
 10
1206.5192213173
 20
-482.10114531
 40
4.0
100
AcDbArc
 50
180.0000000571
 51
231.3178126055
  0
ARC
  5
5D1
100
AcDbEntity
  8
0
100
AcDbCircle
 62
9
  6
CONTINUOUS
 10
1201.5192213173
 20
-488.3461433178
 40
1.0
100
AcDbArc
 50
0.0
 51
51.3178125465
  0
ARC
  5
5D2
100
AcDbEntity
  8
0
100
AcDbCircle
 62
9
  6
CONTINUOUS
 10
1237.559969493
 20
-442.1197202965
 40
87.4516896824
100
AcDbArc
 50
5.0955886594
 51
7.6532222137
  0
ARC
  5
5D3
100
AcDbEntity
  8
0
100
AcDbCircle
 62
9
  6
CONTINUOUS
 10
1162.7756902467
 20
-449.2969496269
 40
7.9859094114
100
AcDbArc
 50
49.9031399537
 51
89.9906217986
  0
ARC
  5
5D4
100
AcDbEntity
  8
0
100
AcDbCircle
 62
9
  6
CONTINUOUS
 10
1137.5192213173
 20
-442.4731599716
 40
5.0
100
AcDbArc
 50
90.0
 51
180.0
  0
ARC
  5
5D5
100
AcDbEntity
  8
0
100
AcDbCircle
 62
7
  6
CONTINUOUS
 10
1201.5192213173
 20
-443.4731599716
 40
4.0
100
AcDbArc
 50
0.0
 51
90.0
  0
ARC
  5
5D6
100
AcDbEntity
  8
0
100
AcDbCircle
 62
7
  6
CONTINUOUS
 10
1137.5192213173
 20
-442.4731599716
 40
3.0
100
AcDbArc
 50
90.0
 51
180.0
  0
ARC
  5
5D7
100
AcDbEntity
  8
0
100
AcDbCircle
 62
9
  6
CONTINUOUS
 10
1205.1744138675
 20
-438.0811097209
 40
2.6692627896
100
AcDbArc
 50
229.5005707199
 51
238.4838985372
  0
ARC
  5
5D8
100
AcDbEntity
  8
0
100
AcDbCircle
 62
9
  6
CONTINUOUS
 10
1205.1560741822
 20
-438.1036331473
 40
2.6402252503
100
AcDbArc
 50
228.7788664411
 51
229.4857727435
  0
ARC
  5
5D9
100
AcDbEntity
  8
0
100
AcDbCircle
 62
9
  6
CONTINUOUS
 10
1205.1533252063
 20
-438.1068607733
 40
2.6359860371
100
AcDbArc
 50
221.4000896358
 51
228.777579749
  0
ARC
  5
5DA
100
AcDbEntity
  8
0
100
AcDbCircle
 62
9
  6
CONTINUOUS
 10
1205.1451125846
 20
-438.1144971342
 40
2.6247756589
100
AcDbArc
 50
220.835664332
 51
221.3936065349
  0
ARC
  5
5DB
100
AcDbEntity
  8
0
100
AcDbCircle
 62
9
  6
CONTINUOUS
 10
1203.2499279281
 20
-440.5100476904
 40
0.5674494644
100
AcDbArc
 50
47.764236933
 51
51.2454361037
  0
ARC
  5
5DC
100
AcDbEntity
  8
0
100
AcDbCircle
 62
7
  6
CONTINUOUS
 10
1461.0192213173
 20
-479.4731599716
 40
4.0
100
AcDbArc
 50
90.0
 51
180.0
  0
ARC
  5
5DD
100
AcDbEntity
  8
0
100
AcDbCircle
 62
7
  6
CONTINUOUS
 10
1533.0192213173
 20
-482.4731599716
 40
3.0
100
AcDbArc
 50
180.0
 51
270.0
  0
ARC
  5
5DE
100
AcDbEntity
  8
0
100
AcDbCircle
 62
9
  6
CONTINUOUS
 10
1344.3069268957
 20
-442.1005558936
 40
87.2791193519
100
AcDbArc
 50
172.3442488584
 51
174.9069402684
  0
ARC
  5
5DF
100
AcDbEntity
  8
0
100
AcDbCircle
 62
7
  6
CONTINUOUS
 10
1477.0192213173
 20
-442.4731599716
 40
3.0
100
AcDbArc
 50
270.0
 51
360.0
  0
ARC
  5
5E0
100
AcDbEntity
  8
0
100
AcDbCircle
 62
7
  6
CONTINUOUS
 10
1528.0192213173
 20
-435.4731599716
 40
2.0
100
AcDbArc
 50
0.0
 51
90.0
  0
ARC
  5
5E1
100
AcDbEntity
  8
0
100
AcDbCircle
 62
7
  6
CONTINUOUS
 10
1482.0192213173
 20
-435.4731599716
 40
2.0
100
AcDbArc
 50
90.0
 51
180.0
  0
ARC
  5
5E2
100
AcDbEntity
  8
0
100
AcDbCircle
 62
7
  6
CONTINUOUS
 10
729.8034679497
 20
-289.4731599716
 40
20.0
100
AcDbArc
 50
90.0
 51
135.0000056803
  0
ARC
  5
5E3
100
AcDbEntity
  8
0
100
AcDbCircle
 62
7
  6
CONTINUOUS
 10
721.5192213173
 20
-297.7574082467
 40
20.0
100
AcDbArc
 50
135.0000056803
 51
180.0
  0
ARC
  5
5E4
100
AcDbEntity
  8
0
100
AcDbCircle
 62
7
  6
CONTINUOUS
 10
1120.5192213173
 20
-302.4731599716
 40
3.0
100
AcDbArc
 50
90.0
 51
109.4712206345
  0
ARC
  5
5E5
100
AcDbEntity
  8
0
100
AcDbCircle
 62
3
  6
CONTINUOUS
 10
1036.5192213173
 20
-244.4731599716
 40
15.0
100
AcDbArc
 50
0.0
 51
90.0
  0
ARC
  5
5E6
100
AcDbEntity
  8
0
100
AcDbCircle
 62
3
  6
CONTINUOUS
 10
846.5192213173
 20
-244.4731599716
 40
15.0
100
AcDbArc
 50
90.0
 51
180.0
  0
ARC
  5
5E7
100
AcDbEntity
  8
02___PRT_ALL_AXES
100
AcDbCircle
 62
3
  6
CONTINUOUS
 10
852.5192213173
 20
-246.9731599716
 40
6.0
100
AcDbArc
 50
0.0
 51
180.0
  0
ARC
  5
5E8
100
AcDbEntity
  8
02___PRT_ALL_AXES
100
AcDbCircle
 62
3
  6
CONTINUOUS
 10
852.5192213173
 20
-251.9731599716
 40
6.0
100
AcDbArc
 50
180.0
 51
360.0
  0
ARC
  5
5E9
100
AcDbEntity
  8
02___PRT_ALL_AXES
100
AcDbCircle
 62
3
  6
CONTINUOUS
 10
1030.5192213173
 20
-246.9731599716
 40
6.0
100
AcDbArc
 50
0.0
 51
180.0
  0
ARC
  5
5EA
100
AcDbEntity
  8
02___PRT_ALL_AXES
100
AcDbCircle
 62
3
  6
CONTINUOUS
 10
1030.5192213173
 20
-251.9731599716
 40
6.0
100
AcDbArc
 50
180.0
 51
360.0
  0
ARC
  5
5EB
100
AcDbEntity
  8
0
100
AcDbCircle
 62
9
  6
CONTINUOUS
 10
1162.7756902764
 20
-349.6493703974
 40
7.9859094111
100
AcDbArc
 50
270.0093779881
 51
310.096860258
  0
CIRCLE
  5
5EC
100
AcDbEntity
  8
3_ALL_AXES
100
AcDbCircle
 62
7
  6
CONTINUOUS
 10
1143.0192213173
 20
-399.4731599716
 40
5.875
  0
ARC
  5
5ED
100
AcDbEntity
  8
0
100
AcDbCircle
 62
9
  6
CONTINUOUS
 10
1137.5192213173
 20
-356.4731599716
 40
5.0
100
AcDbArc
 50
180.0
 51
270.0
  0
ARC
  5
5EE
100
AcDbEntity
  8
0
100
AcDbCircle
 62
7
  6
CONTINUOUS
 10
1201.5192213173
 20
-355.4731599716
 40
4.0
100
AcDbArc
 50
270.0
 51
360.0
  0
CIRCLE
  5
5EF
100
AcDbEntity
  8
3_ALL_AXES
100
AcDbCircle
 62
7
  6
CONTINUOUS
 10
1143.0192213173
 20
-399.4731599716
 40
3.0
  0
ARC
  5
5F0
100
AcDbEntity
  8
0
100
AcDbCircle
 62
7
  6
CONTINUOUS
 10
1137.5192213173
 20
-356.4731599716
 40
3.0
100
AcDbArc
 50
180.0
 51
270.0
  0
ARC
  5
5F1
100
AcDbEntity
  8
0
100
AcDbCircle
 62
9
  6
CONTINUOUS
 10
1205.1675428713
 20
-360.8590940436
 40
2.6604583961
100
AcDbArc
 50
121.458811303
 51
130.4699096225
  0
ARC
  5
5F2
100
AcDbEntity
  8
0
100
AcDbCircle
 62
9
  6
CONTINUOUS
 10
1205.1498798373
 20
-360.8373719729
 40
2.6324693128
100
AcDbArc
 50
130.4843089503
 51
131.1883229146
  0
ARC
  5
5F3
100
AcDbEntity
  8
0
100
AcDbCircle
 62
9
  6
CONTINUOUS
 10
1205.147824659
 20
-360.8349009687
 40
2.6292563529
100
AcDbArc
 50
131.1900798185
 51
138.6155755876
  0
ARC
  5
5F4
100
AcDbEntity
  8
0
100
AcDbCircle
 62
9
  6
CONTINUOUS
 10
1205.1403067991
 20
-360.8279013613
 40
2.6189882908
100
AcDbArc
 50
138.621736701
 51
139.1821757999
  0
ARC
  5
5F5
100
AcDbEntity
  8
0
100
AcDbCircle
 62
9
  6
CONTINUOUS
 10
1203.2544872203
 20
-358.4412527087
 40
0.5607645243
100
AcDbArc
 50
309.0171425934
 51
312.2939938131
  0
CIRCLE
  5
5F6
100
AcDbEntity
  8
02___PRT_ALL_AXES
100
AcDbCircle
 62
7
  6
CONTINUOUS
 10
1260.4045467281
 20
-324.3835225725
 40
9.0
  0
CIRCLE
  5
5F7
100
AcDbEntity
  8
02___PRT_ALL_AXES
100
AcDbCircle
 62
7
  6
CONTINUOUS
 10
1321.6338959065
 20
-324.3835225725
 40
9.0
  0
ARC
  5
5F8
100
AcDbEntity
  8
0
100
AcDbCircle
 62
9
  6
CONTINUOUS
 10
1206.5192213173
 20
-316.8451746238
 40
7.0
100
AcDbArc
 50
128.6821874535
 51
180.0
  0
ARC
  5
5F9
100
AcDbEntity
  8
0
100
AcDbCircle
 62
7
  6
CONTINUOUS
 10
1201.5192213173
 20
-310.6001766254
 40
4.0
100
AcDbArc
 50
308.6821874535
 51
360.0
  0
ARC
  5
5FA
100
AcDbEntity
  8
0
100
AcDbCircle
 62
7
  6
CONTINUOUS
 10
1206.5192213173
 20
-316.8451746238
 40
4.0
100
AcDbArc
 50
128.6821874788
 51
180.0000000771
  0
ARC
  5
5FB
100
AcDbEntity
  8
0
100
AcDbCircle
 62
7
  6
CONTINUOUS
 10
1202.5192213173
 20
-296.4731599716
 40
3.0
100
AcDbArc
 50
270.0
 51
294.758132361
  0
ARC
  5
5FC
100
AcDbEntity
  8
0
100
AcDbCircle
 62
7
  6
CONTINUOUS
 10
1132.5192213173
 20
-301.4731599716
 40
2.0
100
AcDbArc
 50
0.0
 51
90.0
  0
ARC
  5
5FD
100
AcDbEntity
  8
0
100
AcDbCircle
 62
9
  6
CONTINUOUS
 10
1201.5192213173
 20
-310.6001766254
 40
1.0
100
AcDbArc
 50
308.6821874535
 51
360.0
  0
ARC
  5
5FE
100
AcDbEntity
  8
0
100
AcDbCircle
 62
7
  6
CONTINUOUS
 10
1461.0192213173
 20
-291.4731599716
 40
4.0
100
AcDbArc
 50
180.0
 51
270.0
  0
ARC
  5
5FF
100
AcDbEntity
  8
0
100
AcDbCircle
 62
7
  6
CONTINUOUS
 10
1477.0192213173
 20
-328.4731599716
 40
3.0
100
AcDbArc
 50
0.0
 51
90.0
  0
ARC
  5
600
100
AcDbEntity
  8
0
100
AcDbCircle
 62
7
  6
CONTINUOUS
 10
1533.0192213173
 20
-288.4731599716
 40
3.0
100
AcDbArc
 50
90.0
 51
180.0
  0
ARC
  5
601
100
AcDbEntity
  8
0
100
AcDbCircle
 62
7
  6
CONTINUOUS
 10
1528.0192213173
 20
-335.4731599716
 40
2.0
100
AcDbArc
 50
270.0
 51
360.0
  0
ARC
  5
602
100
AcDbEntity
  8
0
100
AcDbCircle
 62
7
  6
CONTINUOUS
 10
1482.0192213173
 20
-335.4731599716
 40
2.0
100
AcDbArc
 50
180.0
 51
270.0
  0
CIRCLE
  5
603
100
AcDbEntity
  8
02___PRT_ALL_AXES
100
AcDbCircle
 62
7
  6
CONTINUOUS
 10
1291.0192213173
 20
-250.4731599716
 40
100.0
  0
CIRCLE
  5
604
100
AcDbEntity
  8
0
100
AcDbCircle
 62
7
  6
CONTINUOUS
 10
1291.0192213173
 20
-250.4731599716
 40
40.0
  0
ARC
  5
605
100
AcDbEntity
  8
0
100
AcDbCircle
 62
7
  6
CONTINUOUS
 10
1427.0192213173
 20
-226.4731599716
 40
30.0
100
AcDbArc
 50
0.0
 51
90.0
  0
ARC
  5
606
100
AcDbEntity
  8
0
100
AcDbCircle
 62
7
  6
CONTINUOUS
 10
1247.0192213173
 20
-226.4731599716
 40
30.0
100
AcDbArc
 50
150.524126487
 51
180.0
  0
CIRCLE
  5
607
100
AcDbEntity
  8
02___PRT_ALL_AXES
100
AcDbCircle
 62
7
  6
CONTINUOUS
 10
1321.6338959065
 20
-176.5627973707
 40
9.0
  0
CIRCLE
  5
608
100
AcDbEntity
  8
02___PRT_ALL_AXES
100
AcDbCircle
 62
7
  6
CONTINUOUS
 10
1260.4045467281
 20
-176.5627973707
 40
9.0
  0
CIRCLE
  5
609
100
AcDbEntity
  8
02___PRT_ALL_AXES
100
AcDbCircle
 62
7
  6
CONTINUOUS
 10
1217.1088587164
 20
-219.8584853824
 40
9.0
  0
CIRCLE
  5
60A
100
AcDbEntity
  8
02___PRT_ALL_AXES
100
AcDbCircle
 62
7
  6
CONTINUOUS
 10
1217.1088587164
 20
-281.0878345608
 40
9.0
  0
CIRCLE
  5
60B
100
AcDbEntity
  8
02___PRT_ALL_AXES
100
AcDbCircle
 62
7
  6
CONTINUOUS
 10
1364.9295839182
 20
-281.0878345608
 40
9.0
  0
CIRCLE
  5
60C
100
AcDbEntity
  8
02___PRT_ALL_AXES
100
AcDbCircle
 62
7
  6
CONTINUOUS
 10
1364.9295839182
 20
-219.8584853824
 40
9.0
  0
ARC
  5
60D
100
AcDbEntity
  8
0
100
AcDbCircle
 62
9
  6
CONTINUOUS
 10
8464.3868655666
 20
-8943.8689297514
 40
11269.1651634946
100
AcDbArc
 50
130.1398246213
 51
130.3512626273
  0
ARC
  5
60E
100
AcDbEntity
  8
0
100
AcDbCircle
 62
9
  6
CONTINUOUS
 10
7616.3348088698
 20
-7936.2190453657
 40
9955.1319793683
100
AcDbArc
 50
130.1471621004
 51
130.3865844811
  0
ARC
  5
60F
100
AcDbEntity
  8
0
100
AcDbCircle
 62
9
  6
CONTINUOUS
 10
8464.3868668663
 20
8144.9226113437
 40
11269.1651655063
100
AcDbArc
 50
229.6487373727
 51
229.8601753787
  0
ARC
  5
610
100
AcDbEntity
  8
0
100
AcDbCircle
 62
9
  6
CONTINUOUS
 10
7616.3348101789
 20
7137.2727269679
 40
9955.1319813938
100
AcDbArc
 50
229.6134155189
 51
229.8528378996
  0
SPLINE
  5
611
100
AcDbEntity
  8
0
100
AcDbSpline
 62
9
  6
CONTINUOUS
 70
0
 71
3
 72
11
 73
7
 74
0
 42
0.0000001
 43
0.0000001
 44
0.0000000001
 40
0.0
 40
0.0
 40
0.0
 40
0.0
 40
0.25010499
 40
0.5001155131
 40
0.750066086
 40
1.0
 40
1.0
 40
1.0
 40
1.0
 10
1199.865198348
 20
293.2481259408
 30
0.0
 10
1200.2812387376
 20
293.6231500158
 30
0.0
 10
1201.0365389922
 20
294.4633064168
 30
0.0
 10
1201.8804113714
 20
295.9294870338
 30
0.0
 10
1202.4017770109
 20
297.5383801152
 30
0.0
 10
1202.5192224289
 20
298.6613707838
 30
0.0
 10
1202.5192213173
 20
299.2211060896
 30
0.0
  0
SPLINE
  5
612
100
AcDbEntity
  8
0
100
AcDbSpline
 62
9
  6
CONTINUOUS
 70
0
 71
3
 72
18
 73
14
 74
0
 42
0.0000001
 43
0.0000001
 44
0.0000000001
 40
0.0
 40
0.0
 40
0.0
 40
0.0
 40
0.2211891953
 40
0.4185471354
 40
0.5897315298
 40
0.732782403
 40
0.8460628906
 40
0.9283603823
 40
0.957663703
 40
0.9790629538
 40
0.9868557248
 40
0.9927982091
 40
1.0
 40
1.0
 40
1.0
 40
1.0
 10
1199.6615221948
 20
215.4403963275
 30
0.0
 10
1199.8738843046
 20
215.432721457
 30
0.0
 10
1200.2756785683
 20
215.4167562227
 30
0.0
 10
1200.8415820813
 20
215.3891424871
 30
0.0
 10
1201.332198985
 20
215.3595518281
 30
0.0
 10
1201.7417876943
 20
215.3286691558
 30
0.0
 10
1202.0655677034
 20
215.2967029906
 30
0.0
 10
1202.279832697
 20
215.2683443929
 30
0.0
 10
1202.405274852
 20
215.2432613827
 30
0.0
 10
1202.4594962953
 20
215.2288672337
 30
0.0
 10
1202.4911732374
 20
215.2161271046
 30
0.0
 10
1202.5083396265
 20
215.2070458086
 30
0.0
 10
1202.5192184884
 20
215.19651173
 30
0.0
 10
1202.5192213173
 20
215.1895928304
 30
0.0
  0
SPLINE
  5
613
100
AcDbEntity
  8
0
100
AcDbSpline
 62
9
  6
CONTINUOUS
 70
0
 71
3
 72
11
 73
7
 74
0
 42
0.0000001
 43
0.0000001
 44
0.0000000001
 40
0.0
 40
0.0
 40
0.0
 40
0.0
 40
0.2499339307
 40
0.4998844931
 40
0.7498950141
 40
1.0
 40
1.0
 40
1.0
 40
1.0
 10
1202.5192213173
 20
147.1580795712
 30
0.0
 10
1202.5192216075
 20
147.7178149163
 30
0.0
 10
1202.4017774424
 20
148.8408056097
 30
0.0
 10
1201.8804112675
 20
150.4496986956
 30
0.0
 10
1201.0365390329
 20
151.9158792739
 30
0.0
 10
1200.2812387634
 20
152.7560356846
 30
0.0
 10
1199.865198348
 20
153.13105972
 30
0.0
  0
LINE
  5
614
100
AcDbEntity
  8
0
100
AcDbLine
 62
9
  6
CONTINUOUS
 10
1204.0192213207
 20
293.1895928312
 11
1204.0192213205
 21
308.9400771694
  0
LINE
  5
615
100
AcDbEntity
  8
0
100
AcDbLine
 62
9
  6
CONTINUOUS
 10
1204.0192213207
 20
137.4391084917
 11
1204.0192213206
 21
153.1895928304
  0
LINE
  5
616
100
AcDbEntity
  8
0
100
AcDbLine
 62
9
  6
CONTINUOUS
 10
1167.9192982557
 20
265.8052939268
 11
1168.2218961911
 21
266.06836309
  0
LINE
  5
617
100
AcDbEntity
  8
0
100
AcDbLine
 62
9
  6
CONTINUOUS
 10
1168.2218961911
 20
180.3108225708
 11
1167.9192982557
 21
180.5738917459
  0
SPLINE
  5
618
100
AcDbEntity
  8
0
100
AcDbSpline
 62
9
  6
CONTINUOUS
 70
0
 71
3
 72
11
 73
7
 74
0
 42
0.0000001
 43
0.0000001
 44
0.0000000001
 40
0.0
 40
0.0
 40
0.0
 40
0.0
 40
0.2518297471
 40
0.5014044018
 40
0.7501893398
 40
1.0
 40
1.0
 40
1.0
 40
1.0
 10
1201.5192213173
 20
131.4959755904
 30
0.0
 10
1201.7853361021
 20
131.6304844961
 30
0.0
 10
1202.2736290597
 20
131.9858427188
 30
0.0
 10
1202.8381712361
 20
132.6805613719
 30
0.0
 10
1203.2515819051
 20
133.4692460402
 30
0.0
 10
1203.440606983
 20
134.0308695008
 30
0.0
 10
1203.517042607
 20
134.3166094842
 30
0.0
  0
SPLINE
  5
619
100
AcDbEntity
  8
0
100
AcDbSpline
 62
9
  6
CONTINUOUS
 70
0
 71
3
 72
11
 73
7
 74
0
 42
0.0000001
 43
0.0000001
 44
0.0000000001
 40
0.0
 40
0.0
 40
0.0
 40
0.0
 40
0.2499922568
 40
0.4999916916
 40
0.7499953028
 40
1.0
 40
1.0
 40
1.0
 40
1.0
 10
1197.9424403374
 20
295.5167419164
 30
0.0
 10
1198.2021740859
 20
295.7635414739
 30
0.0
 10
1198.6701316133
 20
296.3146562758
 30
0.0
 10
1199.1816427334
 20
297.2687877504
 30
0.0
 10
1199.4830658228
 20
298.3085193529
 30
0.0
 10
1199.5354438132
 20
299.0294316348
 30
0.0
 10
1199.5238422206
 20
299.3875514771
 30
0.0
  0
SPLINE
  5
61A
100
AcDbEntity
  8
0
100
AcDbSpline
 62
9
  6
CONTINUOUS
 70
0
 71
3
 72
10
 73
6
 74
0
 42
0.0000001
 43
0.0000001
 44
0.0000000001
 40
0.0
 40
0.0
 40
0.0
 40
0.0
 40
0.2499999497
 40
0.5000000093
 40
1.0
 40
1.0
 40
1.0
 40
1.0
 10
1166.3087364906
 20
268.2897211046
 30
0.0
 10
1168.9115744952
 20
270.5626990397
 30
0.0
 10
1174.1300768939
 20
275.0939752261
 30
0.0
 10
1184.6010796841
 20
284.1171525599
 30
0.0
 10
1192.4806310592
 20
290.8539378478
 30
0.0
 10
1197.7397654691
 20
295.3379427757
 30
0.0
  0
SPLINE
  5
61B
100
AcDbEntity
  8
0
100
AcDbSpline
 62
9
  6
CONTINUOUS
 70
0
 71
3
 72
11
 73
7
 74
0
 42
0.0000001
 43
0.0000001
 44
0.0000000001
 40
0.0
 40
0.0
 40
0.0
 40
0.0
 40
0.249986353
 40
0.4999790986
 40
0.7499828792
 40
1.0
 40
1.0
 40
1.0
 40
1.0
 10
1162.7769973782
 20
266.7929183917
 30
0.0
 10
1163.082603065
 20
266.7929182819
 30
0.0
 10
1163.6953978088
 20
266.851434312
 30
0.0
 10
1164.5802582125
 20
267.1108729988
 30
0.0
 10
1165.4013072399
 20
267.5303415347
 30
0.0
 10
1165.888735715
 20
267.9057603934
 30
0.0
 10
1166.1131222324
 20
268.1132899523
 30
0.0
  0
SPLINE
  5
61C
100
AcDbEntity
  8
0
100
AcDbSpline
 62
9
  6
CONTINUOUS
 70
0
 71
3
 72
15
 73
11
 74
0
 42
0.0000001
 43
0.0000001
 44
0.0000000001
 40
0.0
 40
0.0
 40
0.0
 40
0.0
 40
0.125006382
 40
0.2500346131
 40
0.3750465783
 40
0.5000554918
 40
0.6250754523
 40
0.7500595886
 40
0.875032936
 40
1.0
 40
1.0
 40
1.0
 40
1.0
 10
1137.4703606847
 20
268.3746582025
 30
0.0
 10
1137.4371888915
 20
268.288272629
 30
0.0
 10
1137.3909821213
 20
268.1069252909
 30
0.0
 10
1137.3882802245
 20
267.8267294405
 30
0.0
 10
1137.4514942276
 20
267.5538502868
 30
0.0
 10
1137.5745230559
 20
267.3021376982
 30
0.0
 10
1137.7545927142
 20
267.0872705437
 30
0.0
 10
1137.9807386065
 20
266.9215321692
 30
0.0
 10
1138.2408457495
 20
266.8168475003
 30
0.0
 10
1138.4267148336
 20
266.7929188194
 30
0.0
 10
1138.5192213173
 20
266.7929183917
 30
0.0
  0
SPLINE
  5
61D
100
AcDbEntity
  8
0
100
AcDbSpline
 62
9
  6
CONTINUOUS
 70
0
 71
3
 72
11
 73
7
 74
0
 42
0.0000001
 43
0.0000001
 44
0.0000000001
 40
0.0
 40
0.0
 40
0.0
 40
0.0
 40
0.2498447431
 40
0.4986303534
 40
0.7481823148
 40
1.0
 40
1.0
 40
1.0
 40
1.0
 10
1203.5170427541
 20
312.0625761766
 30
0.0
 10
1203.4412024896
 20
312.3486289202
 30
0.0
 10
1203.2531705176
 20
312.9108828445
 30
0.0
 10
1202.8403549847
 20
313.700333561
 30
0.0
 10
1202.2751662047
 20
314.395059865
 30
0.0
 10
1201.7857953858
 20
314.7494015167
 30
0.0
 10
1201.5192213173
 20
314.8832103101
 30
0.0
  0
SPLINE
  5
61E
100
AcDbEntity
  8
0
100
AcDbSpline
 62
9
  6
CONTINUOUS
 70
0
 71
3
 72
9
 73
5
 74
0
 42
0.0000001
 43
0.0000001
 44
0.0000000001
 40
0.0
 40
0.0
 40
0.0
 40
0.0
 40
0.4996362299
 40
1.0
 40
1.0
 40
1.0
 40
1.0
 10
1137.5192213173
 20
268.6015956491
 30
0.0
 10
1137.5192218305
 20
268.5627635067
 30
0.0
 10
1137.5091846971
 20
268.4848482026
 30
0.0
 10
1137.4842859535
 20
268.4109682134
 30
0.0
 10
1137.4703606847
 20
268.3746582025
 30
0.0
  0
SPLINE
  5
61F
100
AcDbEntity
  8
0
100
AcDbSpline
 62
9
  6
CONTINUOUS
 70
0
 71
3
 72
26
 73
22
 74
0
 42
0.0000001
 43
0.0000001
 44
0.0000000001
 40
0.0
 40
0.0
 40
0.0
 40
0.0
 40
0.000262404
 40
0.0010504725
 40
0.0023654235
 40
0.0042082119
 40
0.0094803035
 40
0.0168706783
 40
0.0263800533
 40
0.0380059255
 40
0.0517425554
 40
0.0675809665
 40
0.1055109984
 40
0.1516598511
 40
0.20584038
 40
0.2678153495
 40
0.3372984684
 40
0.4139554088
 40
0.5872180932
 40
0.7840043199
 40
1.0
 40
1.0
 40
1.0
 40
1.0
 10
1204.019211773
 20
308.940069536
 30
0.0
 10
1204.0190358613
 20
308.9401047259
 30
0.0
 10
1204.0192348222
 20
308.9411512153
 30
0.0
 10
1204.0185880588
 20
308.9424059164
 30
0.0
 10
1204.0182530703
 20
308.9452402908
 30
0.0
 10
1204.0170378629
 20
308.9507828657
 30
0.0
 10
1204.0152674922
 20
308.9606098555
 30
0.0
 10
1204.0124593475
 20
308.9754721527
 30
0.0
 10
1204.0090021834
 20
308.9946785676
 30
0.0
 10
1204.0048530848
 20
309.0181507813
 30
0.0
 10
1204.0000771673
 20
309.045912383
 30
0.0
 10
1203.9924349384
 20
309.091425641
 30
0.0
 10
1203.9815482963
 20
309.1588639305
 30
0.0
 10
1203.9671796984
 20
309.2522894972
 30
0.0
 10
1203.95110225
 20
309.362081736
 30
0.0
 10
1203.9335925389
 20
309.487784077
 30
0.0
 10
1203.9149349939
 20
309.6288380584
 30
0.0
 10
1203.8877933812
 20
309.8455113137
 30
0.0
 10
1203.8531105313
 20
310.1489451765
 30
0.0
 10
1203.8134275017
 20
310.5476486981
 30
0.0
 10
1203.7900230222
 20
310.8288990999
 30
0.0
 10
1203.7790883589
 20
310.9761628262
 30
0.0
  0
SPLINE
  5
620
100
AcDbEntity
  8
0
100
AcDbSpline
 62
9
  6
CONTINUOUS
 70
0
 71
3
 72
9
 73
5
 74
0
 42
0.0000001
 43
0.0000001
 44
0.0000000001
 40
0.0
 40
0.0
 40
0.0
 40
0.0
 40
0.2457070417
 40
1.0
 40
1.0
 40
1.0
 40
1.0
 10
1203.7790883589
 20
310.9761628262
 30
0.0
 10
1203.7722934573
 20
311.0676761471
 30
0.0
 10
1203.7310842042
 20
311.4388352936
 30
0.0
 10
1203.6304181469
 20
311.8046887273
 30
0.0
 10
1203.5170427448
 20
312.0625761989
 30
0.0
  0
SPLINE
  5
621
100
AcDbEntity
  8
0
100
AcDbSpline
 62
9
  6
CONTINUOUS
 70
0
 71
3
 72
26
 73
22
 74
0
 42
0.0000001
 43
0.0000001
 44
0.0000000001
 40
0.0
 40
0.0
 40
0.0
 40
0.0
 40
0.2158186368
 40
0.4124940168
 40
0.5857231352
 40
0.6623897961
 40
0.7318971924
 40
0.7939078478
 40
0.8481319189
 40
0.8943283627
 40
0.9323060897
 40
0.9481671377
 40
0.9619249371
 40
0.9735700186
 40
0.9830961566
 40
0.9905003691
 40
0.9957829041
 40
0.9976294971
 40
0.998947234
 40
0.9997370134
 40
1.0
 40
1.0
 40
1.0
 40
1.0
 10
1203.7790882505
 20
135.4030229023
 30
0.0
 10
1203.7904732577
 20
135.5501235958
 30
0.0
 10
1203.8145447333
 20
135.8311032397
 30
0.0
 10
1203.854678736
 20
136.2295182558
 30
0.0
 10
1203.8893816905
 20
136.5328399522
 30
0.0
 10
1203.9163812124
 20
136.7495199123
 30
0.0
 10
1203.9348870802
 20
136.8906344946
 30
0.0
 10
1203.9522098374
 20
137.0164275473
 30
0.0
 10
1203.9680804873
 20
137.1263316716
 30
0.0
 10
1203.9822370046
 20
137.2198806668
 30
0.0
 10
1203.9929443742
 20
137.2874256755
 30
0.0
 10
1204.0004516378
 20
137.3330224236
 30
0.0
 10
1204.0051400843
 20
137.3608411184
 30
0.0
 10
1204.0092105609
 20
137.3843656341
 30
0.0
 10
1204.0125995576
 20
137.4036174116
 30
0.0
 10
1204.0153517884
 20
137.4185187882
 30
0.0
 10
1204.0170833355
 20
137.428369891
 30
0.0
 10
1204.0182753104
 20
137.4339314598
 30
0.0
 10
1204.0185986356
 20
137.4367688976
 30
0.0
 10
1204.0192392169
 20
137.438036816
 30
0.0
 10
1204.0190363343
 20
137.4390768235
 30
0.0
 10
1204.0192117721
 20
137.4391161257
 30
0.0
  0
SPLINE
  5
622
100
AcDbEntity
  8
0
100
AcDbSpline
 62
9
  6
CONTINUOUS
 70
0
 71
3
 72
9
 73
5
 74
0
 42
0.0000001
 43
0.0000001
 44
0.0000000001
 40
0.0
 40
0.0
 40
0.0
 40
0.0
 40
0.2545525327
 40
1.0
 40
1.0
 40
1.0
 40
1.0
 10
1203.5170426004
 20
134.3166094685
 30
0.0
 10
1203.5556060983
 20
134.40354241
 30
0.0
 10
1203.6893591427
 20
134.7529106629
 30
0.0
 10
1203.7575979597
 20
135.1253492855
 30
0.0
 10
1203.7790882505
 20
135.4030229023
 30
0.0
  0
SPLINE
  5
623
100
AcDbEntity
  8
0
100
AcDbSpline
 62
9
  6
CONTINUOUS
 70
0
 71
3
 72
17
 73
13
 74
0
 42
0.0000001
 43
0.0000001
 44
0.0000000001
 40
0.0
 40
0.0
 40
0.0
 40
0.0
 40
0.069366526
 40
0.1375361153
 40
0.2040343917
 40
0.2689775419
 40
0.3951913977
 40
0.5184692822
 40
0.6400027041
 40
0.7604906685
 40
0.88038269
 40
1.0
 40
1.0
 40
1.0
 40
1.0
 10
1137.5192213173
 20
315.1895928304
 30
0.0
 10
1137.3718147069
 20
315.1896003607
 30
0.0
 10
1137.0783651088
 20
315.1529421716
 30
0.0
 10
1136.669140812
 20
315.0003327577
 30
0.0
 10
1136.3061934222
 20
314.7764576645
 30
0.0
 10
1135.89028143
 20
314.4177129101
 30
0.0
 10
1135.4724230287
 20
313.8888494272
 30
0.0
 10
1135.1001447632
 20
313.1907139376
 30
0.0
 10
1134.831151358
 20
312.4603693361
 30
0.0
 10
1134.6485798584
 20
311.7118117838
 30
0.0
 10
1134.5424506934
 20
310.9530636167
 30
0.0
 10
1134.5192332514
 20
310.4437843434
 30
0.0
 10
1134.5192213173
 20
310.1895928304
 30
0.0
  0
SPLINE
  5
624
100
AcDbEntity
  8
0
100
AcDbSpline
 62
9
  6
CONTINUOUS
 70
0
 71
3
 72
15
 73
11
 74
0
 42
0.0000001
 43
0.0000001
 44
0.0000000001
 40
0.0
 40
0.0
 40
0.0
 40
0.0
 40
0.1264284906
 40
0.2526386529
 40
0.3784454449
 40
0.503725861
 40
0.6284362689
 40
0.7526238941
 40
0.876414318
 40
1.0
 40
1.0
 40
1.0
 40
1.0
 10
1138.5192213173
 20
182.4612118117
 30
0.0
 10
1138.2575764128
 20
182.4612119341
 30
0.0
 10
1137.7333411277
 20
182.4106792389
 30
0.0
 10
1136.9781623131
 20
182.1861523283
 30
0.0
 10
1136.2820345616
 20
181.8216248007
 30
0.0
 10
1135.6720869101
 20
181.3311693909
 30
0.0
 10
1135.1715835464
 20
180.733729878
 30
0.0
 10
1134.7997416346
 20
180.0521370191
 30
0.0
 10
1134.570769095
 20
179.3129455431
 30
0.0
 10
1134.5192222461
 20
178.7995260441
 30
0.0
 10
1134.5192213173
 20
178.5437643579
 30
0.0
  0
SPLINE
  5
625
100
AcDbEntity
  8
0
100
AcDbSpline
 62
9
  6
CONTINUOUS
 70
0
 71
3
 72
19
 73
15
 74
0
 42
0.0000001
 43
0.0000001
 44
0.0000000001
 40
0.0
 40
0.0
 40
0.0
 40
0.0
 40
0.0090305996
 40
0.0159561434
 40
0.0249171024
 40
0.0493289352
 40
0.0825321479
 40
0.1243939994
 40
0.1745789897
 40
0.2980882706
 40
0.4485028555
 40
0.6201073757
 40
0.8063261773
 40
1.0
 40
1.0
 40
1.0
 40
1.0
 10
1200.6952388847
 20
133.4297046658
 30
0.0
 10
1200.7011077395
 20
133.432205447
 30
0.0
 10
1200.7137892729
 20
133.4281977999
 30
0.0
 10
1200.7271679333
 20
133.4173556571
 30
0.0
 10
1200.7471592001
 20
133.3967420251
 30
0.0
 10
1200.7744852286
 20
133.3584057038
 30
0.0
 10
1200.810865276
 20
133.2982197762
 30
0.0
 10
1200.8525175032
 20
133.2201294216
 30
0.0
 10
1200.91954418
 20
133.0833769398
 30
0.0
 10
1201.0120980119
 20
132.873877556
 30
0.0
 10
1201.1306071745
 20
132.582283565
 30
0.0
 10
1201.2581454627
 20
132.2466365969
 30
0.0
 10
1201.3897508979
 20
131.8799277281
 30
0.0
 10
1201.4761925483
 20
131.6258493491
 30
0.0
 10
1201.5192213173
 20
131.4959755904
 30
0.0
  0
SPLINE
  5
626
100
AcDbEntity
  8
0
100
AcDbSpline
 62
9
  6
CONTINUOUS
 70
0
 71
3
 72
15
 73
11
 74
0
 42
0.0000001
 43
0.0000001
 44
0.0000000001
 40
0.0
 40
0.0
 40
0.0
 40
0.0
 40
0.0314452609
 40
0.0566793922
 40
0.0891336618
 40
0.1761052156
 40
0.2919615575
 40
0.43499023
 40
0.6027193643
 40
1.0
 40
1.0
 40
1.0
 40
1.0
 10
1202.3485724886
 20
135.1922102812
 30
0.0
 10
1202.3434200515
 20
135.17759397
 30
0.0
 10
1202.3556020794
 20
135.1475499072
 30
0.0
 10
1202.380240493
 20
135.112702683
 30
0.0
 10
1202.4279543288
 20
135.0587851407
 30
0.0
 10
1202.5142456755
 20
134.981542541
 30
0.0
 10
1202.6486346092
 20
134.8763528155
 30
0.0
 10
1202.8200337921
 20
134.754559995
 30
0.0
 10
1203.1107693582
 20
134.561468653
 30
0.0
 10
1203.3484817834
 20
134.4162347168
 30
0.0
 10
1203.517042607
 20
134.3166094842
 30
0.0
  0
SPLINE
  5
627
100
AcDbEntity
  8
0
100
AcDbSpline
 62
9
  6
CONTINUOUS
 70
0
 71
3
 72
13
 73
9
 74
0
 42
0.0000001
 43
0.0000001
 44
0.0000000001
 40
0.0
 40
0.0
 40
0.0
 40
0.0
 40
0.1325627091
 40
0.2266627795
 40
0.3419355428
 40
0.4782948565
 40
0.634644537
 40
1.0
 40
1.0
 40
1.0
 40
1.0
 10
1202.5192213173
 20
136.1895928304
 30
0.0
 10
1202.5192213173
 20
136.1217655622
 30
0.0
 10
1202.5867436367
 20
136.0119730358
 30
0.0
 10
1202.7151492952
 20
135.8964996732
 30
0.0
 10
1202.861774417
 20
135.7953554542
 30
0.0
 10
1203.0443676833
 20
135.6942872197
 30
0.0
 10
1203.3499495077
 20
135.5521662062
 30
0.0
 10
1203.6013041525
 20
135.4608051338
 30
0.0
 10
1203.7790882505
 20
135.4030229023
 30
0.0
  0
SPLINE
  5
628
100
AcDbEntity
  8
0
100
AcDbSpline
 62
9
  6
CONTINUOUS
 70
0
 71
3
 72
17
 73
13
 74
0
 42
0.0000001
 43
0.0000001
 44
0.0000000001
 40
0.0
 40
0.0
 40
0.0
 40
0.0
 40
0.0310016494
 40
0.0572432913
 40
0.0916106178
 40
0.1341244559
 40
0.184564568
 40
0.2425531017
 40
0.3076036255
 40
0.4565145226
 40
0.6258725101
 40
1.0
 40
1.0
 40
1.0
 40
1.0
 10
1134.5192213173
 20
215.1895928304
 30
0.0
 10
1134.5192305841
 20
215.2319052373
 30
0.0
 10
1134.5913405045
 20
215.2943172109
 30
0.0
 10
1134.6995057859
 20
215.3459797394
 30
0.0
 10
1134.8339126349
 20
215.3942271094
 30
0.0
 10
1135.0011431631
 20
215.4393599522
 30
0.0
 10
1135.2027453307
 20
215.4831552144
 30
0.0
 10
1135.435897411
 20
215.5242473936
 30
0.0
 10
1135.8032900056
 20
215.5775667785
 30
0.0
 10
1136.3237063087
 20
215.6328354886
 30
0.0
 10
1137.2665283587
 20
215.6988434553
 30
0.0
 10
1138.0085957452
 20
215.7170705834
 30
0.0
 10
1138.5192213173
 20
215.7170653579
 30
0.0
  0
SPLINE
  5
629
100
AcDbEntity
  8
0
100
AcDbSpline
 62
9
  6
CONTINUOUS
 70
0
 71
3
 72
15
 73
11
 74
0
 42
0.0000001
 43
0.0000001
 44
0.0000000001
 40
0.0
 40
0.0
 40
0.0
 40
0.0
 40
0.1235858319
 40
0.2473764065
 40
0.3715641129
 40
0.4962744733
 40
0.62155484
 40
0.7473615942
 40
0.8735716456
 40
1.0
 40
1.0
 40
1.0
 40
1.0
 10
1134.5192213173
 20
267.835421303
 30
0.0
 10
1134.5192204151
 20
267.5796593079
 30
0.0
 10
1134.5707700243
 20
267.0662391737
 30
0.0
 10
1134.7997420855
 20
266.3270470499
 30
0.0
 10
1135.1715847293
 20
265.6454539843
 30
0.0
 10
1135.672088488
 20
265.0480149159
 30
0.0
 10
1136.2820361128
 20
264.5575599291
 30
0.0
 10
1136.978163637
 20
264.1930328691
 30
0.0
 10
1137.7333419294
 20
263.9685063278
 30
0.0
 10
1138.2575766961
 20
263.9179737322
 30
0.0
 10
1138.5192213173
 20
263.9179738492
 30
0.0
  0
SPLINE
  5
62A
100
AcDbEntity
  8
0
100
AcDbSpline
 62
9
  6
CONTINUOUS
 70
0
 71
3
 72
13
 73
9
 74
0
 42
0.0000001
 43
0.0000001
 44
0.0000000001
 40
0.0
 40
0.0
 40
0.0
 40
0.0
 40
0.1335070145
 40
0.2277281045
 40
0.3429602201
 40
0.4791619811
 40
0.6352712054
 40
1.0
 40
1.0
 40
1.0
 40
1.0
 10
1202.5192213173
 20
310.1895928304
 30
0.0
 10
1202.5192213173
 20
310.2579535167
 30
0.0
 10
1202.5863126714
 20
310.3686614105
 30
0.0
 10
1202.715039555
 20
310.4849010608
 30
0.0
 10
1202.8616547356
 20
310.5861858226
 30
0.0
 10
1203.0442729765
 20
310.6870981656
 30
0.0
 10
1203.3498529012
 20
310.8285672725
 30
0.0
 10
1203.6012716996
 20
310.9190779013
 30
0.0
 10
1203.7790883589
 20
310.9761628262
 30
0.0
  0
SPLINE
  5
62B
100
AcDbEntity
  8
0
100
AcDbSpline
 62
9
  6
CONTINUOUS
 70
0
 71
3
 72
15
 73
11
 74
0
 42
0.0000001
 43
0.0000001
 44
0.0000000001
 40
0.0
 40
0.0
 40
0.0
 40
0.0
 40
0.0320784689
 40
0.0574739942
 40
0.0900243171
 40
0.1770538395
 40
0.2928471668
 40
0.4357274718
 40
0.6032469669
 40
1.0
 40
1.0
 40
1.0
 40
1.0
 10
1202.3485725157
 20
311.1869753026
 30
0.0
 10
1202.3433123887
 20
311.2018971076
 30
0.0
 10
1202.3550097493
 20
311.2324761505
 30
0.0
 10
1202.3796613054
 20
311.267989022
 30
0.0
 10
1202.4271241233
 20
311.322360247
 30
0.0
 10
1202.5133128694
 20
311.3999850109
 30
0.0
 10
1202.6476557344
 20
311.5052989759
 30
0.0
 10
1202.8191301038
 20
311.6269167407
 30
0.0
 10
1203.1101103685
 20
311.8193208695
 30
0.0
 10
1203.3481899646
 20
311.963671128
 30
0.0
 10
1203.5170427541
 20
312.0625761766
 30
0.0
  0
SPLINE
  5
62C
100
AcDbEntity
  8
0
100
AcDbSpline
 62
9
  6
CONTINUOUS
 70
0
 71
3
 72
19
 73
15
 74
0
 42
0.0000001
 43
0.0000001
 44
0.0000000001
 40
0.0
 40
0.0
 40
0.0
 40
0.0
 40
0.0091889145
 40
0.0161570263
 40
0.0251457512
 40
0.0495863898
 40
0.0827986511
 40
0.1246579078
 40
0.1748326683
 40
0.2983065553
 40
0.4486739301
 40
0.6202244766
 40
0.8063855634
 40
1.0
 40
1.0
 40
1.0
 40
1.0
 10
1200.6952388339
 20
312.9494810167
 30
0.0
 10
1200.7012126819
 20
312.9469354969
 30
0.0
 10
1200.7140690789
 20
312.9507642796
 30
0.0
 10
1200.7277182828
 20
312.9615811443
 30
0.0
 10
1200.7479262268
 20
312.9820811242
 30
0.0
 10
1200.7755056362
 20
313.0203332497
 30
0.0
 10
1200.8121129914
 20
313.0804352767
 30
0.0
 10
1200.8539496158
 20
313.15846329
 30
0.0
 10
1200.9211628973
 20
313.2951460976
 30
0.0
 10
1201.0137938229
 20
313.5046327122
 30
0.0
 10
1201.1321872605
 20
313.7962903968
 30
0.0
 10
1201.2594011799
 20
314.1320774234
 30
0.0
 10
1201.3904830891
 20
314.4989922282
 30
0.0
 10
1201.4764573236
 20
314.7532424975
 30
0.0
 10
1201.5192213173
 20
314.8832103101
 30
0.0
  0
SPLINE
  5
62D
100
AcDbEntity
  8
0
100
AcDbSpline
 62
9
  6
CONTINUOUS
 70
0
 71
3
 72
17
 73
13
 74
0
 42
0.0000001
 43
0.0000001
 44
0.0000000001
 40
0.0
 40
0.0
 40
0.0
 40
0.0
 40
0.3741274899
 40
0.5434854774
 40
0.6923963745
 40
0.7574468983
 40
0.815435432
 40
0.8658755442
 40
0.9083893822
 40
0.9427567087
 40
0.9689983507
 40
1.0
 40
1.0
 40
1.0
 40
1.0
 10
1138.5192213173
 20
230.6621203029
 30
0.0
 10
1138.0085957452
 20
230.6621150773
 30
0.0
 10
1137.2665283587
 20
230.6803422057
 30
0.0
 10
1136.3237063087
 20
230.7463501722
 30
0.0
 10
1135.8032900056
 20
230.8016188824
 30
0.0
 10
1135.435897411
 20
230.8549382671
 30
0.0
 10
1135.2027453307
 20
230.8960304464
 30
0.0
 10
1135.0011431632
 20
230.939825709
 30
0.0
 10
1134.8339126349
 20
230.9849585512
 30
0.0
 10
1134.6995057855
 20
231.0332059209
 30
0.0
 10
1134.5913405049
 20
231.0848684508
 30
0.0
 10
1134.5192305845
 20
231.1472804237
 30
0.0
 10
1134.5192213173
 20
231.1895928304
 30
0.0
  0
SPLINE
  5
62E
100
AcDbEntity
  8
0
100
AcDbSpline
 62
9
  6
CONTINUOUS
 70
0
 71
3
 72
11
 73
7
 74
0
 42
0.0000001
 43
0.0000001
 44
0.0000000001
 40
0.0
 40
0.0
 40
0.0
 40
0.0
 40
0.2497151642
 40
0.4996562495
 40
0.7497779283
 40
1.0
 40
1.0
 40
1.0
 40
1.0
 10
1167.9192982557
 20
180.5738917459
 30
0.0
 10
1167.5644340887
 20
180.8741846692
 30
0.0
 10
1166.8002983761
 20
181.4142773511
 30
0.0
 10
1165.5312140529
 20
182.0118129458
 30
0.0
 10
1164.1763190632
 20
182.3787660333
 30
0.0
 10
1163.2428113609
 20
182.4612115824
 30
0.0
 10
1162.7769973782
 20
182.4612118117
 30
0.0
  0
SPLINE
  5
62F
100
AcDbEntity
  8
0
100
AcDbSpline
 62
9
  6
CONTINUOUS
 70
0
 71
3
 72
9
 73
5
 74
0
 42
0.0000001
 43
0.0000001
 44
0.0000000001
 40
0.0
 40
0.0
 40
0.0
 40
0.0
 40
0.5321958061
 40
1.0
 40
1.0
 40
1.0
 40
1.0
 10
1162.7769973782
 20
215.7170653579
 30
0.0
 10
1163.6896314638
 20
215.7170682614
 30
0.0
 10
1165.4045234828
 20
215.6959094647
 30
0.0
 10
1167.118449217
 20
215.6302814545
 30
0.0
 10
1167.9192982557
 20
215.5835322813
 30
0.0
  0
SPLINE
  5
630
100
AcDbEntity
  8
0
100
AcDbSpline
 62
9
  6
CONTINUOUS
 70
0
 71
3
 72
11
 73
7
 74
0
 42
0.0000001
 43
0.0000001
 44
0.0000000001
 40
0.0
 40
0.0
 40
0.0
 40
0.0
 40
0.2502221255
 40
0.5003438214
 40
0.7502849025
 40
1.0
 40
1.0
 40
1.0
 40
1.0
 10
1162.7769973782
 20
263.9179738492
 30
0.0
 10
1163.2428114585
 20
263.9179740358
 30
0.0
 10
1164.1763191698
 20
264.0004199682
 30
0.0
 10
1165.531214747
 20
264.3673723299
 30
0.0
 10
1166.8002973394
 20
264.9649100251
 30
0.0
 10
1167.5644365744
 20
265.5049982624
 30
0.0
 10
1167.9192982557
 20
265.8052939268
 30
0.0
  0
SPLINE
  5
631
100
AcDbEntity
  8
0
100
AcDbSpline
 62
9
  6
CONTINUOUS
 70
0
 71
3
 72
9
 73
5
 74
0
 42
0.0000001
 43
0.0000001
 44
0.0000000001
 40
0.0
 40
0.0
 40
0.0
 40
0.0
 40
0.4678041939
 40
1.0
 40
1.0
 40
1.0
 40
1.0
 10
1167.9192982557
 20
230.7956533795
 30
0.0
 10
1167.1184492165
 20
230.7489042145
 30
0.0
 10
1165.4045234831
 20
230.6832761912
 30
0.0
 10
1163.6896314638
 20
230.6621173997
 30
0.0
 10
1162.7769973782
 20
230.6621203029
 30
0.0
  0
SPLINE
  5
632
100
AcDbEntity
  8
0
100
AcDbSpline
 62
9
  6
CONTINUOUS
 70
0
 71
3
 72
17
 73
13
 74
0
 42
0.0000001
 43
0.0000001
 44
0.0000000001
 40
0.0
 40
0.0
 40
0.0
 40
0.0
 40
0.1196168409
 40
0.2395081303
 40
0.3599957248
 40
0.4815289086
 40
0.6048071179
 40
0.7310216175
 40
0.795965457
 40
0.8624655729
 40
0.9306353425
 40
1.0
 40
1.0
 40
1.0
 40
1.0
 10
1134.5192213173
 20
136.1895928304
 30
0.0
 10
1134.5192326145
 20
135.9354023032
 30
0.0
 10
1134.5424504485
 20
135.4261255182
 30
0.0
 10
1134.6485791789
 20
134.6673807535
 30
0.0
 10
1134.8311473549
 20
133.9188252633
 30
0.0
 10
1135.1001404988
 20
133.18848115
 30
0.0
 10
1135.4724178783
 20
132.490343425
 30
0.0
 10
1135.890277638
 20
131.9614764717
 30
0.0
 10
1136.3061940151
 20
131.6027263351
 30
0.0
 10
1136.6691472546
 20
131.3788493621
 30
0.0
 10
1137.0783727147
 20
131.2262420243
 30
0.0
 10
1137.3718186713
 20
131.1895853008
 30
0.0
 10
1137.5192213173
 20
131.1895928304
 30
0.0
  0
SPLINE
  5
633
100
AcDbEntity
  8
0
100
AcDbSpline
 62
9
  6
CONTINUOUS
 70
0
 71
3
 72
13
 73
9
 74
0
 42
0.0000001
 43
0.0000001
 44
0.0000000001
 40
0.0
 40
0.0
 40
0.0
 40
0.0
 40
0.2962097236
 40
0.5645084469
 40
0.6850584478
 40
0.7963874562
 40
0.9002904222
 40
1.0
 40
1.0
 40
1.0
 40
1.0
 10
1167.9192982506
 20
215.5835322803
 30
0.0
 10
1167.8895227867
 20
215.9302123706
 30
0.0
 10
1167.7580568208
 20
216.5871498757
 30
0.0
 10
1167.3973171123
 20
217.3214665376
 30
0.0
 10
1167.0080333745
 20
217.7659018704
 30
0.0
 10
1166.691072734
 20
218.0060900895
 30
0.0
 10
1166.348446583
 20
218.1554495367
 30
0.0
 10
1166.1080638797
 20
218.189592831
 30
0.0
 10
1165.9909354266
 20
218.1895928315
 30
0.0
  0
SPLINE
  5
634
100
AcDbEntity
  8
0
100
AcDbSpline
 62
9
  6
CONTINUOUS
 70
0
 71
3
 72
13
 73
9
 74
0
 42
0.0000001
 43
0.0000001
 44
0.0000000001
 40
0.0
 40
0.0
 40
0.0
 40
0.0
 40
0.2966487467
 40
0.5661206587
 40
0.6869145348
 40
0.7980339789
 40
0.901263824
 40
1.0
 40
1.0
 40
1.0
 40
1.0
 10
1199.6615200391
 20
215.4403960472
 30
0.0
 10
1199.6419640431
 20
215.8017681527
 30
0.0
 10
1199.5247735954
 20
216.4898255522
 30
0.0
 10
1199.1698698119
 20
217.2645868594
 30
0.0
 10
1198.7761091389
 20
217.7371966665
 30
0.0
 10
1198.4528645035
 20
217.9932363623
 30
0.0
 10
1198.1013235136
 20
218.1529692541
 30
0.0
 10
1197.8536139702
 20
218.1895926668
 30
0.0
 10
1197.7331593657
 20
218.1895928304
 30
0.0
  0
SPLINE
  5
635
100
AcDbEntity
  8
0
100
AcDbSpline
 62
9
  6
CONTINUOUS
 70
0
 71
3
 72
13
 73
9
 74
0
 42
0.0000001
 43
0.0000001
 44
0.0000000001
 40
0.0
 40
0.0
 40
0.0
 40
0.0
 40
0.2907347026
 40
0.5612889991
 40
0.6844884193
 40
0.7982183271
 40
0.9028324914
 40
1.0
 40
1.0
 40
1.0
 40
1.0
 10
1204.0192213169
 20
215.1895928304
 30
0.0
 10
1204.0192213169
 20
215.5303575199
 30
0.0
 10
1203.950025353
 20
216.1901857688
 30
0.0
 10
1203.6875754185
 20
216.9582489247
 30
0.0
 10
1203.377834639
 20
217.4686001559
 30
0.0
 10
1203.1150861786
 20
217.7735517337
 30
0.0
 10
1202.8218408712
 20
218.0031176067
 30
0.0
 10
1202.6043688473
 20
218.1032628842
 30
0.0
 10
1202.4954367599
 20
218.136494278
 30
0.0
  0
SPLINE
  5
636
100
AcDbEntity
  8
0
100
AcDbSpline
 62
9
  6
CONTINUOUS
 70
0
 71
3
 72
9
 73
5
 74
0
 42
0.0000001
 43
0.0000001
 44
0.0000000001
 40
0.0
 40
0.0
 40
0.0
 40
0.0
 40
0.2529322865
 40
1.0
 40
1.0
 40
1.0
 40
1.0
 10
1202.4698116202
 20
218.144016098
 30
0.0
 10
1202.4430866563
 20
218.1515532361
 30
0.0
 10
1202.3364731735
 20
218.1778461389
 30
0.0
 10
1202.2262360626
 20
218.1895928304
 30
0.0
 10
1202.1442213173
 20
218.1895928304
 30
0.0
  0
SPLINE
  5
637
100
AcDbEntity
  8
0
100
AcDbSpline
 62
9
  6
CONTINUOUS
 70
0
 71
3
 72
13
 73
9
 74
0
 42
0.0000001
 43
0.0000001
 44
0.0000000001
 40
0.0
 40
0.0
 40
0.0
 40
0.0
 40
0.2907347026
 40
0.5612889992
 40
0.6844884193
 40
0.7982183271
 40
0.9028324914
 40
1.0
 40
1.0
 40
1.0
 40
1.0
 10
1204.0192213174
 20
231.1895928304
 30
0.0
 10
1204.0192213174
 20
230.8488281408
 30
0.0
 10
1203.9500253527
 20
230.1889998919
 30
0.0
 10
1203.6875754185
 20
229.4209367359
 30
0.0
 10
1203.3778346389
 20
228.9105855047
 30
0.0
 10
1203.1150861784
 20
228.6056339269
 30
0.0
 10
1202.821840871
 20
228.376068054
 30
0.0
 10
1202.604368847
 20
228.2759227765
 30
0.0
 10
1202.4954367596
 20
228.2426913827
 30
0.0
  0
SPLINE
  5
638
100
AcDbEntity
  8
0
100
AcDbSpline
 62
9
  6
CONTINUOUS
 70
0
 71
3
 72
9
 73
5
 74
0
 42
0.0000001
 43
0.0000001
 44
0.0000000001
 40
0.0
 40
0.0
 40
0.0
 40
0.0
 40
0.2529322867
 40
1.0
 40
1.0
 40
1.0
 40
1.0
 10
1202.4698116282
 20
228.2351695651
 30
0.0
 10
1202.4430866636
 20
228.2276324266
 30
0.0
 10
1202.3364731784
 20
228.2013395225
 30
0.0
 10
1202.2262360648
 20
228.1895928304
 30
0.0
 10
1202.1442213175
 20
228.1895928304
 30
0.0
  0
SPLINE
  5
639
100
AcDbEntity
  8
0
100
AcDbSpline
 62
9
  6
CONTINUOUS
 70
0
 71
3
 72
9
 73
5
 74
0
 42
0.0000001
 43
0.0000001
 44
0.0000000001
 40
0.0
 40
0.0
 40
0.0
 40
0.0
 40
0.5003743843
 40
1.0
 40
1.0
 40
1.0
 40
1.0
 10
1137.4703606847
 20
178.0045274584
 30
0.0
 10
1137.4842952223
 20
177.9682199796
 30
0.0
 10
1137.5091888308
 20
177.8943366665
 30
0.0
 10
1137.5192213024
 20
177.8164214599
 30
0.0
 10
1137.5192213173
 20
177.7775900118
 30
0.0
  0
SPLINE
  5
63A
100
AcDbEntity
  8
0
100
AcDbSpline
 62
9
  6
CONTINUOUS
 70
0
 71
3
 72
13
 73
9
 74
0
 42
0.0000001
 43
0.0000001
 44
0.0000000001
 40
0.0
 40
0.0
 40
0.0
 40
0.0
 40
0.2966487855
 40
0.5661206922
 40
0.6869145523
 40
0.7980339794
 40
0.9012638156
 40
1.0
 40
1.0
 40
1.0
 40
1.0
 10
1199.6615221937
 20
230.9387893334
 30
0.0
 10
1199.6419661623
 20
230.5774170115
 30
0.0
 10
1199.5247755392
 20
229.8893592525
 30
0.0
 10
1199.1698712431
 20
229.1145976809
 30
0.0
 10
1198.776110072
 20
228.6419879621
 30
0.0
 10
1198.4528650789
 20
228.3859484758
 30
0.0
 10
1198.1013237492
 20
228.2262159264
 30
0.0
 10
1197.8536140371
 20
228.1895928303
 30
0.0
 10
1197.7331593657
 20
228.1895928302
 30
0.0
  0
SPLINE
  5
63B
100
AcDbEntity
  8
0
100
AcDbSpline
 62
9
  6
CONTINUOUS
 70
0
 71
3
 72
15
 73
11
 74
0
 42
0.0000001
 43
0.0000001
 44
0.0000000001
 40
0.0
 40
0.0
 40
0.0
 40
0.0
 40
0.1249672695
 40
0.2499407784
 40
0.374924957
 40
0.4999450458
 40
0.6249539309
 40
0.749965811
 40
0.874993857
 40
1.0
 40
1.0
 40
1.0
 40
1.0
 10
1138.5192213173
 20
179.5862672692
 30
0.0
 10
1138.4267146675
 20
179.5862668747
 30
0.0
 10
1138.2408453025
 20
179.5623380205
 30
0.0
 10
1137.9807377959
 20
179.4576532211
 30
0.0
 10
1137.7545920121
 20
179.2919143409
 30
0.0
 10
1137.5745212544
 20
179.0770479702
 30
0.0
 10
1137.4514946882
 20
178.8253332274
 30
0.0
 10
1137.3882815735
 20
178.5524573587
 30
0.0
 10
1137.3909676352
 20
178.2722538485
 30
0.0
 10
1137.4372234495
 20
178.0909261196
 30
0.0
 10
1137.4703606847
 20
178.0045274584
 30
0.0
  0
SPLINE
  5
63C
100
AcDbEntity
  8
0
100
AcDbSpline
 62
9
  6
CONTINUOUS
 70
0
 71
3
 72
9
 73
5
 74
0
 42
0.0000001
 43
0.0000001
 44
0.0000000001
 40
0.0
 40
0.0
 40
0.0
 40
0.0
 40
0.4999371973
 40
1.0
 40
1.0
 40
1.0
 40
1.0
 10
1201.5192213173
 20
314.8832103101
 30
0.0
 10
1201.1979169276
 20
314.9889300192
 30
0.0
 10
1200.5352199294
 20
315.1429985719
 30
0.0
 10
1199.8575564556
 20
315.1896172007
 30
0.0
 10
1199.5192213173
 20
315.1896173307
 30
0.0
  0
LINE
  5
63D
100
AcDbEntity
  8
0
100
AcDbLine
 62
9
  6
CONTINUOUS
 10
1199.5192213173
 20
315.1896173307
 11
1137.5192213173
 21
315.1895928304
  0
SPLINE
  5
63E
100
AcDbEntity
  8
0
100
AcDbSpline
 62
9
  6
CONTINUOUS
 70
0
 71
3
 72
11
 73
7
 74
0
 42
0.0000001
 43
0.0000001
 44
0.0000000001
 40
0.0
 40
0.0
 40
0.0
 40
0.0
 40
0.2500171156
 40
0.5000209093
 40
0.7500136561
 40
1.0
 40
1.0
 40
1.0
 40
1.0
 10
1166.1131192369
 20
178.2658980532
 30
0.0
 10
1165.8887347326
 20
178.4734293195
 30
0.0
 10
1165.4013049571
 20
178.8488462558
 30
0.0
 10
1164.5802561954
 20
179.2683124503
 30
0.0
 10
1163.6953969002
 20
179.5277516047
 30
0.0
 10
1163.0826027419
 20
179.5862673748
 30
0.0
 10
1162.7769973782
 20
179.5862672692
 30
0.0
  0
SPLINE
  5
63F
100
AcDbEntity
  8
0
100
AcDbSpline
 62
9
  6
CONTINUOUS
 70
0
 71
3
 72
10
 73
6
 74
0
 42
0.0000001
 43
0.0000001
 44
0.0000000001
 40
0.0
 40
0.0
 40
0.0
 40
0.0
 40
0.4999999908
 40
0.7500000501
 40
1.0
 40
1.0
 40
1.0
 40
1.0
 10
1197.739765495
 20
151.0412428633
 30
0.0
 10
1192.4806312943
 20
155.5252480475
 30
0.0
 10
1184.6010796554
 20
162.2620330358
 30
0.0
 10
1174.1300769067
 20
171.2852104356
 30
0.0
 10
1168.9115744849
 20
175.8164866016
 30
0.0
 10
1166.3087364906
 20
178.0894645562
 30
0.0
  0
SPLINE
  5
640
100
AcDbEntity
  8
0
100
AcDbSpline
 62
9
  6
CONTINUOUS
 70
0
 71
3
 72
11
 73
7
 74
0
 42
0.0000001
 43
0.0000001
 44
0.0000000001
 40
0.0
 40
0.0
 40
0.0
 40
0.0
 40
0.2500047086
 40
0.5000083309
 40
0.7500077669
 40
1.0
 40
1.0
 40
1.0
 40
1.0
 10
1199.5238422206
 20
146.9916341837
 30
0.0
 10
1199.5354424889
 20
147.3497541102
 30
0.0
 10
1199.4830676768
 20
148.0706664623
 30
0.0
 10
1199.1816435241
 20
149.1103983588
 30
0.0
 10
1198.6701310867
 20
150.0645289665
 30
0.0
 10
1198.202174055
 20
150.6156441673
 30
0.0
 10
1197.9424403374
 20
150.8624437444
 30
0.0
  0
LINE
  5
641
100
AcDbEntity
  8
0
100
AcDbLine
 62
9
  6
CONTINUOUS
 10
1137.5192213173
 20
131.1895928304
 11
1199.5192213173
 21
131.1895683341
  0
SPLINE
  5
642
100
AcDbEntity
  8
0
100
AcDbSpline
 62
9
  6
CONTINUOUS
 70
0
 71
3
 72
9
 73
5
 74
0
 42
0.0000001
 43
0.0000001
 44
0.0000000001
 40
0.0
 40
0.0
 40
0.0
 40
0.0
 40
0.500072959
 40
1.0
 40
1.0
 40
1.0
 40
1.0
 10
1199.5192213173
 20
131.1895683341
 30
0.0
 10
1199.8575773789
 20
131.1895684606
 30
0.0
 10
1200.5352777403
 20
131.2354756931
 30
0.0
 10
1201.1981277953
 20
131.3895943302
 30
0.0
 10
1201.5192213173
 20
131.4959755904
 30
0.0
  0
SPLINE
  5
643
100
AcDbEntity
  8
0
100
AcDbSpline
 62
9
  6
CONTINUOUS
 70
0
 71
3
 72
13
 73
9
 74
0
 42
0.0000001
 43
0.0000001
 44
0.0000000001
 40
0.0
 40
0.0
 40
0.0
 40
0.0
 40
0.2962096918
 40
0.564508425
 40
0.685058441
 40
0.7963874635
 40
0.9002904343
 40
1.0
 40
1.0
 40
1.0
 40
1.0
 10
1167.9192962246
 20
230.7956537944
 30
0.0
 10
1167.889520804
 20
230.4489738872
 30
0.0
 10
1167.7580550149
 20
229.7920366782
 30
0.0
 10
1167.3973157927
 20
229.0577202072
 30
0.0
 10
1167.0080325132
 20
228.6132847564
 30
0.0
 10
1166.6910722018
 20
228.3730963279
 30
0.0
 10
1166.3484463625
 20
228.2237365591
 30
0.0
 10
1166.1080638155
 20
228.189592978
 30
0.0
 10
1165.9909354266
 20
228.1895928304
 30
0.0
  0
SPLINE
  5
644
100
AcDbEntity
  8
0
100
AcDbSpline
 62
9
  6
CONTINUOUS
 70
0
 71
3
 72
18
 73
14
 74
0
 42
0.0000001
 43
0.0000001
 44
0.0000000001
 40
0.0
 40
0.0
 40
0.0
 40
0.0
 40
0.0072017908
 40
0.0131442752
 40
0.0209370462
 40
0.042336297
 40
0.0716396177
 40
0.1539371094
 40
0.267217597
 40
0.4102684702
 40
0.5814528646
 40
0.7788108047
 40
1.0
 40
1.0
 40
1.0
 40
1.0
 10
1202.5192213173
 20
231.1895928304
 30
0.0
 10
1202.5192184884
 20
231.1826739308
 30
0.0
 10
1202.5083396265
 20
231.1721398522
 30
0.0
 10
1202.4911732374
 20
231.1630585562
 30
0.0
 10
1202.4594962953
 20
231.1503184271
 30
0.0
 10
1202.405274852
 20
231.1359242781
 30
0.0
 10
1202.279832697
 20
231.110841268
 30
0.0
 10
1202.0655677034
 20
231.0824826701
 30
0.0
 10
1201.7417876942
 20
231.0505165052
 30
0.0
 10
1201.332198985
 20
231.0196338326
 30
0.0
 10
1200.8415820813
 20
230.9900431736
 30
0.0
 10
1200.2756785683
 20
230.9624294387
 30
0.0
 10
1199.8738843046
 20
230.9464642033
 30
0.0
 10
1199.6615221948
 20
230.9387893333
 30
0.0
  0
SPLINE
  5
645
100
AcDbEntity
  8
0
100
AcDbSpline
 62
7
  6
CONTINUOUS
 70
0
 71
3
 72
9
 73
5
 74
0
 42
0.0000001
 43
0.0000001
 44
0.0000000001
 40
0.0
 40
0.0
 40
0.0
 40
0.0
 40
0.2438573022
 40
1.0
 40
1.0
 40
1.0
 40
1.0
 10
1457.0192213173
 20
79.4171087304
 30
0.0
 10
1457.0192198374
 20
78.961947257
 30
0.0
 10
1456.9722152683
 20
77.0954340588
 30
0.0
 10
1456.7571565949
 20
75.2356420062
 30
0.0
 10
1456.5309851986
 20
73.8425361274
 30
0.0
  0
SPLINE
  5
646
100
AcDbEntity
  8
0
100
AcDbSpline
 62
9
  6
CONTINUOUS
 70
0
 71
3
 72
20
 73
16
 74
0
 42
0.0000001
 43
0.0000001
 44
0.0000000001
 40
0.0
 40
0.0
 40
0.0
 40
0.0
 40
0.0716950367
 40
0.1566342235
 40
0.2555223201
 40
0.3687342949
 40
0.4968451821
 40
0.5669066079
 40
0.6413841189
 40
0.7208542978
 40
0.8062579551
 40
0.8516780355
 40
0.8991682144
 40
0.9488035513
 40
1.0
 40
1.0
 40
1.0
 40
1.0
 10
1261.0191338657
 20
433.5413166078
 30
0.0
 10
1261.0196570261
 20
432.2734977726
 30
0.0
 10
1261.3400092807
 20
429.5041840295
 30
0.0
 10
1262.4955239808
 20
425.1271089838
 30
0.0
 10
1264.3708524185
 20
420.211144922
 30
0.0
 10
1267.0168664556
 20
414.8003007928
 30
0.0
 10
1269.8703448426
 20
410.0800968622
 30
0.0
 10
1272.674212526
 20
406.1551725878
 30
0.0
 10
1275.1748485965
 20
403.0786497537
 30
0.0
 10
1278.0945842555
 20
400.007972216
 30
0.0
 10
1280.9366680686
 20
397.590514391
 30
0.0
 10
1283.5717878884
 20
395.8506927669
 30
0.0
 10
1285.8234014322
 20
394.7017791624
 30
0.0
 10
1288.3252205636
 20
393.8719367214
 30
0.0
 10
1290.11388935
 20
393.6648127921
 30
0.0
 10
1291.0192213173
 20
393.6641224559
 30
0.0
  0
SPLINE
  5
647
100
AcDbEntity
  8
0
100
AcDbSpline
 62
9
  6
CONTINUOUS
 70
0
 71
3
 72
8
 73
4
 74
0
 42
0.0000001
 43
0.0000001
 44
0.0000000001
 40
0.0
 40
0.0
 40
0.0
 40
0.0
 40
1.0
 40
1.0
 40
1.0
 40
1.0
 10
1324.666041934
 20
432.6792442539
 30
0.0
 10
1324.143450581
 20
432.6700434934
 30
0.0
 10
1323.6093806848
 20
432.7638920439
 30
0.0
 10
1323.1220973715
 20
432.952945869
 30
0.0
  0
SPLINE
  5
648
100
AcDbEntity
  8
0
100
AcDbSpline
 62
9
  6
CONTINUOUS
 70
0
 71
3
 72
9
 73
5
 74
0
 42
0.0000001
 43
0.0000001
 44
0.0000000001
 40
0.0
 40
0.0
 40
0.0
 40
0.0
 40
0.2522170055
 40
1.0
 40
1.0
 40
1.0
 40
1.0
 10
1323.1220973715
 20
432.952945869
 30
0.0
 10
1323.0004036263
 20
433.0001600202
 30
0.0
 10
1322.5274854777
 20
433.2111376169
 30
0.0
 10
1322.0966159544
 20
433.5165662061
 30
0.0
 10
1321.8186012372
 20
433.7857897074
 30
0.0
  0
SPLINE
  5
649
100
AcDbEntity
  8
0
100
AcDbSpline
 62
9
  6
CONTINUOUS
 70
0
 71
3
 72
8
 73
4
 74
0
 42
0.0000001
 43
0.0000001
 44
0.0000000001
 40
0.0
 40
0.0
 40
0.0
 40
0.0
 40
1.0
 40
1.0
 40
1.0
 40
1.0
 10
1321.6542485699
 20
433.9551652357
 30
0.0
 10
1321.3867322105
 20
434.248581986
 30
0.0
 10
1321.1627353253
 20
434.5885037218
 30
0.0
 10
1321.0004247247
 20
434.95087599
 30
0.0
  0
SPLINE
  5
64A
100
AcDbEntity
  8
0
100
AcDbSpline
 62
7
  6
CONTINUOUS
 70
0
 71
3
 72
11
 73
7
 74
0
 42
0.0000001
 43
0.0000001
 44
0.0000000001
 40
0.0
 40
0.0
 40
0.0
 40
0.0
 40
0.2292914029
 40
0.4716559799
 40
0.7292998827
 40
1.0
 40
1.0
 40
1.0
 40
1.0
 10
1427.0192213173
 20
432.6792771351
 30
0.0
 10
1429.0875612981
 20
432.285068192
 30
0.0
 10
1433.2653338613
 20
431.0252609936
 30
0.0
 10
1439.2438908147
 20
427.9360889809
 30
0.0
 10
1444.9211489487
 20
423.6587278371
 30
0.0
 10
1448.2873867387
 20
420.1275728393
 30
0.0
 10
1449.8441661557
 20
418.1895928304
 30
0.0
  0
SPLINE
  5
64B
100
AcDbEntity
  8
0
100
AcDbSpline
 62
7
  6
CONTINUOUS
 70
0
 71
3
 72
11
 73
7
 74
0
 42
0.0000001
 43
0.0000001
 44
0.0000000001
 40
0.0
 40
0.0
 40
0.0
 40
0.0
 40
0.24995396
 40
0.4999364544
 40
0.7499692308
 40
1.0
 40
1.0
 40
1.0
 40
1.0
 10
1449.8441661557
 20
418.1895928304
 30
0.0
 10
1451.0147912217
 20
416.7323228082
 30
0.0
 10
1453.0977865797
 20
413.5998036496
 30
0.0
 10
1455.3567288444
 20
408.4375989965
 30
0.0
 10
1456.7183693395
 20
402.9705280474
 30
0.0
 10
1457.0192213173
 20
399.2237477595
 30
0.0
 10
1457.0192213173
 20
397.3539491981
 30
0.0
  0
SPLINE
  5
64C
100
AcDbEntity
  8
0
100
AcDbSpline
 62
9
  6
CONTINUOUS
 70
0
 71
3
 72
8
 73
4
 74
0
 42
0.0000001
 43
0.0000001
 44
0.0000000001
 40
0.0
 40
0.0
 40
0.0
 40
0.0
 40
1.0
 40
1.0
 40
1.0
 40
1.0
 10
1257.3724007008
 20
432.6792631192
 30
0.0
 10
1257.8949908071
 20
432.6700688743
 30
0.0
 10
1258.4290577826
 20
432.7639215922
 30
0.0
 10
1258.9163388743
 20
432.9529773805
 30
0.0
  0
SPLINE
  5
64D
100
AcDbEntity
  8
0
100
AcDbSpline
 62
9
  6
CONTINUOUS
 70
0
 71
3
 72
9
 73
5
 74
0
 42
0.0000001
 43
0.0000001
 44
0.0000000001
 40
0.0
 40
0.0
 40
0.0
 40
0.0
 40
0.2526411073
 40
1.0
 40
1.0
 40
1.0
 40
1.0
 10
1258.9163388743
 20
432.9529773805
 30
0.0
 10
1259.0567753473
 20
433.0074640589
 30
0.0
 10
1259.5999005929
 20
433.2546086995
 30
0.0
 10
1260.0859001649
 20
433.6275923046
 30
0.0
 10
1260.3859031917
 20
433.9570851655
 30
0.0
  0
SPLINE
  5
64E
100
AcDbEntity
  8
0
100
AcDbSpline
 62
9
  6
CONTINUOUS
 70
0
 71
3
 72
8
 73
4
 74
0
 42
0.0000001
 43
0.0000001
 44
0.0000000001
 40
0.0
 40
0.0
 40
0.0
 40
0.0
 40
1.0
 40
1.0
 40
1.0
 40
1.0
 10
1260.3859031917
 20
433.9570851655
 30
0.0
 10
1260.6526591101
 20
434.2500627788
 30
0.0
 10
1260.8760454086
 20
434.5893091404
 30
0.0
 10
1261.0380133484
 20
434.9509180292
 30
0.0
  0
SPLINE
  5
64F
100
AcDbEntity
  8
0
100
AcDbSpline
 62
9
  6
CONTINUOUS
 70
0
 71
3
 72
11
 73
7
 74
0
 42
0.0000001
 43
0.0000001
 44
0.0000000001
 40
0.0
 40
0.0
 40
0.0
 40
0.0
 40
0.3391355384
 40
0.6066415067
 40
0.8169678175
 40
1.0
 40
1.0
 40
1.0
 40
1.0
 10
1324.6660419338
 20
432.6792771351
 30
0.0
 10
1324.6407035113
 20
432.7553613269
 30
0.0
 10
1324.5885645987
 20
432.8895696176
 30
0.0
 10
1324.4882396293
 20
433.0561667871
 30
0.0
 10
1324.3702699462
 20
433.1643618165
 30
0.0
 10
1324.2759422593
 20
433.1895570898
 30
0.0
 10
1324.232662199
 20
433.1895928304
 30
0.0
  0
SPLINE
  5
650
100
AcDbEntity
  8
0
100
AcDbSpline
 62
9
  6
CONTINUOUS
 70
0
 71
3
 72
20
 73
16
 74
0
 42
0.0000001
 43
0.0000001
 44
0.0000000001
 40
0.0
 40
0.0
 40
0.0
 40
0.0
 40
0.05119541
 40
0.1008313218
 40
0.1483219748
 40
0.193742237
 40
0.2791467317
 40
0.3586174512
 40
0.4330953684
 40
0.503157092
 40
0.6312683165
 40
0.7444802414
 40
0.8433679265
 40
0.9283063026
 40
1.0
 40
1.0
 40
1.0
 40
1.0
 10
1291.0192213173
 20
393.6641224559
 30
0.0
 10
1291.9245427409
 20
393.6647718042
 30
0.0
 10
1293.7132411321
 20
393.8718266042
 30
0.0
 10
1296.2150224186
 20
394.701867913
 30
0.0
 10
1298.4666721743
 20
395.8507849562
 30
0.0
 10
1301.1018706772
 20
397.5905901841
 30
0.0
 10
1303.943986503
 20
400.0081061127
 30
0.0
 10
1306.8637605193
 20
403.0788397941
 30
0.0
 10
1309.3644182324
 20
406.1554180199
 30
0.0
 10
1312.168298477
 20
410.0804067651
 30
0.0
 10
1315.0217874197
 20
414.8006722922
 30
0.0
 10
1317.6677804856
 20
420.2115823472
 30
0.0
 10
1319.5430746997
 20
425.1275844126
 30
0.0
 10
1320.6985280189
 20
429.5046697099
 30
0.0
 10
1321.0188200926
 20
432.2739785773
 30
0.0
 10
1321.0193040856
 20
433.5417846609
 30
0.0
  0
SPLINE
  5
651
100
AcDbEntity
  8
0
100
AcDbSpline
 62
9
  6
CONTINUOUS
 70
0
 71
3
 72
15
 73
11
 74
0
 42
0.0000001
 43
0.0000001
 44
0.0000000001
 40
0.0
 40
0.0
 40
0.0
 40
0.0
 40
0.1262169934
 40
0.2522627114
 40
0.3779875639
 40
0.5032807187
 40
0.628086916
 40
0.7524145678
 40
0.8763406641
 40
1.0
 40
1.0
 40
1.0
 40
1.0
 10
1247.0234141859
 20
432.6792844421
 30
0.0
 10
1245.0608375168
 20
432.6792943458
 30
0.0
 10
1241.1277146993
 20
432.2990081881
 30
0.0
 10
1235.4625002994
 20
430.6063507377
 30
0.0
 10
1230.2406741575
 20
427.8587670233
 30
0.0
 10
1225.6657113365
 20
424.1632783914
 30
0.0
 10
1221.9120917717
 20
419.6637403874
 30
0.0
 10
1219.1235376261
 20
414.533452733
 30
0.0
 10
1217.4058883035
 20
408.9731337057
 30
0.0
 10
1217.0199098415
 20
405.1123997838
 30
0.0
 10
1217.0192213173
 20
403.1895928336
 30
0.0
  0
SPLINE
  5
652
100
AcDbEntity
  8
0
100
AcDbSpline
 62
9
  6
CONTINUOUS
 70
0
 71
3
 72
14
 73
10
 74
0
 42
0.0000001
 43
0.0000001
 44
0.0000000001
 40
0.0
 40
0.0
 40
0.0
 40
0.0
 40
0.0613322704
 40
0.1377205034
 40
0.23587083
 40
0.3565212333
 40
0.4976590293
 40
0.6555030282
 40
1.0
 40
1.0
 40
1.0
 40
1.0
 10
1457.0192288453
 20
79.4171087303
 30
0.0
 10
1457.019222161
 20
79.3260630495
 30
0.0
 10
1457.0885736503
 20
79.121398608
 30
0.0
 10
1457.3395498076
 20
78.868438993
 30
0.0
 10
1457.7179703351
 20
78.6424486664
 30
0.0
 10
1458.2162565406
 20
78.4451376269
 30
0.0
 10
1458.818800948
 20
78.2830786227
 30
0.0
 10
1459.760348878
 20
78.1172925668
 30
0.0
 10
1460.5078272153
 20
78.0711458535
 30
0.0
 10
1461.0192213185
 20
78.071144719
 30
0.0
  0
SPLINE
  5
653
100
AcDbEntity
  8
0
100
AcDbSpline
 62
9
  6
CONTINUOUS
 70
0
 71
3
 72
28
 73
24
 74
0
 42
0.0000001
 43
0.0000001
 44
0.0000000001
 40
0.0
 40
0.0
 40
0.0
 40
0.0
 40
0.1515271373
 40
0.2906981663
 40
0.5186708148
 40
0.6092824269
 40
0.6868268841
 40
0.7530353168
 40
0.8093407585
 40
0.8568927623
 40
0.8966008905
 40
0.9291766711
 40
0.9551693029
 40
0.9658307646
 40
0.9749936259
 40
0.9826903021
 40
0.9889509235
 40
0.9937974863
 40
0.9972463913
 40
0.9984516332
 40
0.9993121121
 40
0.999828133
 40
1.0
 40
1.0
 40
1.0
 40
1.0
 10
1460.4658870494
 20
73.1895928304
 30
0.0
 10
1460.129985406
 20
71.619763987
 30
0.0
 10
1459.2477945507
 20
68.6599882195
 30
0.0
 10
1457.3104879278
 20
63.5180543496
 30
0.0
 10
1455.4671798434
 20
59.0315482451
 30
0.0
 10
1453.9296854584
 20
55.126480417
 30
0.0
 10
1453.0509363005
 20
52.8040784505
 30
0.0
 10
1452.3335614429
 20
50.8095299727
 30
0.0
 10
1451.753856815
 20
49.1034581616
 30
0.0
 10
1451.2903117418
 20
47.6547178751
 30
0.0
 10
1450.9241632886
 20
46.438990083
 30
0.0
 10
1450.6396045778
 20
45.4373984957
 30
0.0
 10
1450.4488447455
 20
44.7291465068
 30
0.0
 10
1450.326935429
 20
44.2593091286
 30
0.0
 10
1450.2550583853
 20
43.9766939312
 30
0.0
 10
1450.1958730634
 20
43.7391163865
 30
0.0
 10
1450.1481003887
 20
43.5454001529
 30
0.0
 10
1450.1123923149
 20
43.396161269
 30
0.0
 10
1450.0875876351
 20
43.2969794295
 30
0.0
 10
1450.0758025301
 20
43.2418967279
 30
0.0
 10
1450.0665233529
 20
43.2124281158
 30
0.0
 10
1450.0679000246
 20
43.2015218543
 30
0.0
 10
1450.0608588843
 20
43.1892025796
 30
0.0
 10
1450.0626409724
 20
43.1895763112
 30
0.0
  0
SPLINE
  5
654
100
AcDbEntity
  8
0
100
AcDbSpline
 62
9
  6
CONTINUOUS
 70
0
 71
3
 72
9
 73
5
 74
0
 42
0.0000001
 43
0.0000001
 44
0.0000000001
 40
0.0
 40
0.0
 40
0.0
 40
0.0
 40
0.2435708625
 40
1.0
 40
1.0
 40
1.0
 40
1.0
 10
1461.0192213173
 20
78.0711695799
 30
0.0
 10
1461.0191948349
 20
77.6718548175
 30
0.0
 10
1460.9687799588
 20
76.0324159031
 30
0.0
 10
1460.7252061347
 20
74.4022810736
 30
0.0
 10
1460.4658870494
 20
73.1895928304
 30
0.0
  0
SPLINE
  5
655
100
AcDbEntity
  8
0
100
AcDbSpline
 62
9
  6
CONTINUOUS
 70
0
 71
3
 72
19
 73
15
 74
0
 42
0.0000001
 43
0.0000001
 44
0.0000000001
 40
0.0
 40
0.0
 40
0.0
 40
0.0
 40
0.0633951502
 40
0.1003681559
 40
0.1412887608
 40
0.2355484885
 40
0.3468809333
 40
0.4757146027
 40
0.6234201432
 40
0.7056920293
 40
0.7950670347
 40
0.8932763265
 40
0.945921716
 40
1.0
 40
1.0
 40
1.0
 40
1.0
 10
1257.3724007007
 20
432.6792771351
 30
0.0
 10
1257.0509790178
 20
431.4829976694
 30
0.0
 10
1256.9354140624
 20
429.4841387817
 30
0.0
 10
1257.2425004542
 20
426.7419098393
 30
0.0
 10
1257.9372600139
 20
423.4444854473
 30
0.0
 10
1259.4969362807
 20
418.8709503508
 30
0.0
 10
1262.3119297846
 20
412.9602872755
 30
0.0
 10
1266.3044434979
 20
406.5010663823
 30
0.0
 10
1270.7410917328
 20
401.0311080498
 30
0.0
 10
1275.3228755888
 20
396.7765416333
 30
0.0
 10
1279.6439219673
 20
393.7205479951
 30
0.0
 10
1283.9618656352
 20
391.7649294494
 30
0.0
 10
1287.8735839282
 20
390.8534846482
 30
0.0
 10
1289.9625609645
 20
390.6900223817
 30
0.0
 10
1291.0192213173
 20
390.6888920401
 30
0.0
  0
SPLINE
  5
656
100
AcDbEntity
  8
0
100
AcDbSpline
 62
9
  6
CONTINUOUS
 70
0
 71
3
 72
19
 73
15
 74
0
 42
0.0000001
 43
0.0000001
 44
0.0000000001
 40
0.0
 40
0.0
 40
0.0
 40
0.0
 40
0.054077699
 40
0.1067220601
 40
0.2049320056
 40
0.2943078203
 40
0.3765800638
 40
0.5242859227
 40
0.6531197254
 40
0.7644522351
 40
0.8587119364
 40
0.8996324756
 40
0.9366052482
 40
1.0
 40
1.0
 40
1.0
 40
1.0
 10
1291.0192213173
 20
390.6888920401
 30
0.0
 10
1292.0758699444
 20
390.6899209004
 30
0.0
 10
1294.1648437202
 20
390.8532980275
 30
0.0
 10
1298.0764403367
 20
391.7651524297
 30
0.0
 10
1302.3944573778
 20
393.7205332837
 30
0.0
 10
1306.7155425752
 20
396.7765696106
 30
0.0
 10
1311.2973644323
 20
401.0311237567
 30
0.0
 10
1315.7340225359
 20
406.5010982603
 30
0.0
 10
1319.7265299884
 20
412.9603294567
 30
0.0
 10
1322.5415294834
 20
418.8709910428
 30
0.0
 10
1324.1011970905
 20
423.4445270297
 30
0.0
 10
1324.7959474233
 20
426.7419456669
 30
0.0
 10
1325.103026273
 20
429.4841603201
 30
0.0
 10
1324.9874643147
 20
431.4830064001
 30
0.0
 10
1324.6660419338
 20
432.6792771351
 30
0.0
  0
SPLINE
  5
657
100
AcDbEntity
  8
0
100
AcDbSpline
 62
9
  6
CONTINUOUS
 70
0
 71
3
 72
11
 73
7
 74
0
 42
0.0000001
 43
0.0000001
 44
0.0000000001
 40
0.0
 40
0.0
 40
0.0
 40
0.0
 40
0.1830323306
 40
0.3933586936
 40
0.660864553
 40
1.0
 40
1.0
 40
1.0
 40
1.0
 10
1257.8057804355
 20
433.1895928304
 30
0.0
 10
1257.7625003346
 20
433.1895571451
 30
0.0
 10
1257.6681725532
 20
433.1643619096
 30
0.0
 10
1257.5502028433
 20
433.0561668234
 30
0.0
 10
1257.4498780417
 20
432.8895695608
 30
0.0
 10
1257.3977391679
 20
432.7553613002
 30
0.0
 10
1257.3724007007
 20
432.6792771351
 30
0.0
  0
SPLINE
  5
658
100
AcDbEntity
  8
0
100
AcDbSpline
 62
9
  6
CONTINUOUS
 70
0
 71
3
 72
19
 73
15
 74
0
 42
0.0000001
 43
0.0000001
 44
0.0000000001
 40
0.0
 40
0.0
 40
0.0
 40
0.0
 40
0.1517304336
 40
0.2899605151
 40
0.5162040499
 40
0.6840333309
 40
0.8070623462
 40
0.8951206283
 40
0.9280932956
 40
0.9544431331
 40
0.9745658249
 40
0.9887492049
 40
0.9971892243
 40
1.0
 40
1.0
 40
1.0
 40
1.0
 10
1456.5309851986
 20
73.8425361274
 30
0.0
 10
1456.2634825808
 20
72.1929049227
 30
0.0
 10
1455.580655079
 20
69.0678763438
 30
0.0
 10
1454.0124398082
 20
63.6014186873
 30
0.0
 10
1452.1300294789
 20
58.0474916149
 30
0.0
 10
1450.2880805205
 20
52.658329454
 30
0.0
 10
1449.0311356609
 20
48.6780186655
 30
0.0
 10
1448.3023152133
 20
46.0900815575
 30
0.0
 10
1447.9004990633
 20
44.5172964997
 30
0.0
 10
1447.6943169368
 20
43.6668622225
 30
0.0
 10
1447.5455321396
 20
43.0156187626
 30
0.0
 10
1447.4410282199
 20
42.5564252713
 30
0.0
 10
1447.3866526753
 20
42.2817468645
 30
0.0
 10
1447.3561104929
 20
42.1613903857
 30
0.0
 10
1447.3516507893
 20
42.1307550294
 30
0.0
  0
SPLINE
  5
659
100
AcDbEntity
  8
0
100
AcDbSpline
 62
9
  6
CONTINUOUS
 70
0
 71
3
 72
9
 73
5
 74
0
 42
0.0000001
 43
0.0000001
 44
0.0000000001
 40
0.0
 40
0.0
 40
0.0
 40
0.0
 40
0.501727741
 40
1.0
 40
1.0
 40
1.0
 40
1.0
 10
143.1114902407
 20
79.4171087304
 30
0.0
 10
142.8047864226
 20
78.5220965501
 30
0.0
 10
142.3553984178
 20
76.6777107742
 30
0.0
 10
142.2677000617
 20
74.7810653716
 30
0.0
 10
142.3123067163
 20
73.8425361274
 30
0.0
  0
SPLINE
  5
65A
100
AcDbEntity
  8
0
100
AcDbSpline
 62
9
  6
CONTINUOUS
 70
0
 71
3
 72
29
 73
25
 74
0
 42
0.0000001
 43
0.0000001
 44
0.0000000001
 40
0.0
 40
0.0
 40
0.0
 40
0.0
 40
0.0308550294
 40
0.0614406769
 40
0.0920742971
 40
0.1228863239
 40
0.1538936627
 40
0.1850676962
 40
0.2477297361
 40
0.3106703213
 40
0.3737378915
 40
0.4368590968
 40
0.4999996618
 40
0.5631405743
 40
0.6262624004
 40
0.689330442
 40
0.7522712173
 40
0.8149333884
 40
0.8461076903
 40
0.8771152613
 40
0.9079272076
 40
0.9385608246
 40
0.9691460025
 40
1.0
 40
1.0
 40
1.0
 40
1.0
 10
142.3123067163
 20
73.8425361274
 30
0.0
 10
142.392624111
 20
72.1733991896
 30
0.0
 10
143.1197124182
 20
68.8594998222
 30
0.0
 10
145.5207807908
 20
64.4375413805
 30
0.0
 10
148.7707491646
 20
60.6230208132
 30
0.0
 10
152.5810365771
 20
57.3517287198
 30
0.0
 10
156.7704913136
 20
54.5398840774
 30
0.0
 10
162.7185247869
 20
51.3093281622
 30
0.0
 10
170.6159605286
 20
48.1182774127
 30
0.0
 10
180.4669345819
 20
45.349678921
 30
0.0
 10
190.547499029
 20
43.4663419479
 30
0.0
 10
200.7519241628
 20
42.370653709
 30
0.0
 10
211.0119188798
 20
42.0107871246
 30
0.0
 10
221.2719473064
 20
42.3706520721
 30
0.0
 10
231.4764504597
 20
43.4663461107
 30
0.0
 10
241.5570823115
 20
45.3497021939
 30
0.0
 10
251.408094311
 20
48.1183255775
 30
0.0
 10
259.3055529892
 20
51.3094053952
 30
0.0
 10
265.2536079171
 20
54.5399944216
 30
0.0
 10
269.4430660522
 20
57.3518753933
 30
0.0
 10
273.253337751
 20
60.6231994733
 30
0.0
 10
276.5032584916
 20
64.4377168668
 30
0.0
 10
278.9042551673
 20
68.859637733
 30
0.0
 10
279.6312268957
 20
72.1734577674
 30
0.0
 10
279.7115988831
 20
73.8425361274
 30
0.0
  0
SPLINE
  5
65B
100
AcDbEntity
  8
0
100
AcDbSpline
 62
9
  6
CONTINUOUS
 70
0
 71
3
 72
9
 73
5
 74
0
 42
0.0000001
 43
0.0000001
 44
0.0000000001
 40
0.0
 40
0.0
 40
0.0
 40
0.0
 40
0.4982708083
 40
1.0
 40
1.0
 40
1.0
 40
1.0
 10
279.7115988831
 20
73.8425361274
 30
0.0
 10
279.7562145162
 20
74.7810620621
 30
0.0
 10
279.6684902151
 20
76.67770561
 30
0.0
 10
279.2191275957
 20
78.5220966966
 30
0.0
 10
278.9124153586
 20
79.4171087304
 30
0.0
  0
SPLINE
  5
65C
100
AcDbEntity
  8
0
100
AcDbSpline
 62
9
  6
CONTINUOUS
 70
0
 71
3
 72
27
 73
23
 74
0
 42
0.0000001
 43
0.0000001
 44
0.0000000001
 40
0.0
 40
0.0
 40
0.0
 40
0.0
 40
0.0312590321
 40
0.062509936
 40
0.0937626643
 40
0.1250188857
 40
0.1874875206
 40
0.2499839253
 40
0.3124920565
 40
0.3750059455
 40
0.4375234738
 40
0.5000428407
 40
0.5625624187
 40
0.6250803934
 40
0.6875944862
 40
0.7501027575
 40
0.8125995126
 40
0.8750673049
 40
0.9063210416
 40
0.9375657891
 40
0.9687948106
 40
1.0
 40
1.0
 40
1.0
 40
1.0
 10
278.9124073805
 20
79.4171251075
 30
0.0
 10
278.3722024982
 20
80.9291418216
 30
0.0
 10
276.9195814611
 20
83.828264781
 30
0.0
 10
273.9388617946
 20
87.639645729
 30
0.0
 10
270.4126970516
 20
90.9424307386
 30
0.0
 10
265.2208730061
 20
94.7375218966
 30
0.0
 10
258.0986450767
 20
98.5174839077
 30
0.0
 10
249.0595449607
 20
101.8882363369
 30
0.0
 10
239.7301749252
 20
104.3373030607
 30
0.0
 10
230.2333256608
 20
106.0055852699
 30
0.0
 10
220.641002537
 20
106.9771368024
 30
0.0
 10
211.0053435722
 20
107.2960795148
 30
0.0
 10
201.36969135
 20
106.9762524753
 30
0.0
 10
191.7774127374
 20
106.0037982352
 30
0.0
 10
182.2807018314
 20
104.3344822975
 30
0.0
 10
172.9515891614
 20
101.8842459147
 30
0.0
 10
163.9130502124
 20
98.512054568
 30
0.0
 10
156.7916333814
 20
94.730736008
 30
0.0
 10
151.6015682712
 20
90.9342474246
 30
0.0
 10
148.0774761378
 20
87.6316243099
 30
0.0
 10
145.1014445166
 20
83.8220776824
 30
0.0
 10
143.6508242331
 20
80.9265017348
 30
0.0
 10
143.111490923
 20
79.4171104691
 30
0.0
  0
SPLINE
  5
65D
100
AcDbEntity
  8
0
100
AcDbSpline
 62
9
  6
CONTINUOUS
 70
0
 71
3
 72
30
 73
26
 74
0
 42
0.0000001
 43
0.0000001
 44
0.0000000001
 40
0.0
 40
0.0
 40
0.0
 40
0.0
 40
0.0002472421
 40
0.0009665732
 40
0.0021439611
 40
0.0037653691
 40
0.0082841107
 40
0.014398253
 40
0.0219327028
 40
0.0306995683
 40
0.0405129292
 40
0.0512257161
 40
0.0749178579
 40
0.100949613
 40
0.1287743288
 40
0.158010775
 40
0.2196248952
 40
0.2843176205
 40
0.3512278809
 40
0.4197990351
 40
0.4896725147
 40
0.5605891581
 40
0.7048401876
 40
0.8515289829
 40
1.0
 40
1.0
 40
1.0
 40
1.0
 10
86.0119527997
 20
393.6641224559
 30
0.0
 10
86.013082918
 20
393.6678600937
 30
0.0
 10
86.0262321806
 20
393.6777375569
 30
0.0
 10
86.0452739063
 20
393.7050281574
 30
0.0
 10
86.0833298771
 20
393.7461333543
 30
0.0
 10
86.15814856
 20
393.8338895385
 30
0.0
 10
86.2862758867
 20
393.9791869708
 30
0.0
 10
86.4755962865
 20
394.1946689655
 30
0.0
 10
86.7110761026
 20
394.4590525774
 30
0.0
 10
86.9871031902
 20
394.7654922265
 30
0.0
 10
87.2992730817
 20
395.1069388623
 30
0.0
 10
87.7744066234
 20
395.6187459461
 30
0.0
 10
88.431762516
 20
396.3108572567
 30
0.0
 10
89.2893020129
 20
397.1853559102
 30
0.0
 10
90.2226149223
 20
398.1079685589
 30
0.0
 10
91.575197967
 20
399.4055144869
 30
0.0
 10
93.3857625816
 20
401.0662933454
 30
0.0
 10
95.6892746524
 20
403.0682007821
 30
0.0
 10
98.1270994539
 20
405.0815248483
 30
0.0
 10
100.6764007899
 20
407.0868677038
 30
0.0
 10
103.3212381155
 20
409.0717180304
 30
0.0
 10
106.980630241
 20
411.6941261636
 30
0.0
 10
111.7323674527
 20
414.8725365169
 30
0.0
 10
117.656342975
 20
418.4906691235
 30
0.0
 10
121.7308238891
 20
420.758357287
 30
0.0
 10
123.8019625091
 20
421.8577453339
 30
0.0
  0
SPLINE
  5
65E
100
AcDbEntity
  8
0
100
AcDbSpline
 62
9
  6
CONTINUOUS
 70
0
 71
3
 72
11
 73
7
 74
0
 42
0.0000001
 43
0.0000001
 44
0.0000000001
 40
0.0
 40
0.0
 40
0.0
 40
0.0
 40
0.25010499
 40
0.5001155131
 40
0.750066086
 40
1.0
 40
1.0
 40
1.0
 40
1.0
 10
-736.4178084382
 20
153.13105972
 30
0.0
 10
-736.8338488277
 20
152.7560356451
 30
0.0
 10
-737.5891490824
 20
151.915879244
 30
0.0
 10
-738.4330214616
 20
150.4496986271
 30
0.0
 10
-738.9543871011
 20
148.8408055456
 30
0.0
 10
-739.071832519
 20
147.717814877
 30
0.0
 10
-739.0718314074
 20
147.1580795712
 30
0.0
  0
SPLINE
  5
65F
100
AcDbEntity
  8
0
100
AcDbSpline
 62
9
  6
CONTINUOUS
 70
0
 71
3
 72
11
 73
7
 74
0
 42
0.0000001
 43
0.0000001
 44
0.0000000001
 40
0.0
 40
0.0
 40
0.0
 40
0.0
 40
0.2499922568
 40
0.4999916916
 40
0.7499953028
 40
1.0
 40
1.0
 40
1.0
 40
1.0
 10
-734.4950504275
 20
150.8624437444
 30
0.0
 10
-734.7547841761
 20
150.615644187
 30
0.0
 10
-735.2227417035
 20
150.064529385
 30
0.0
 10
-735.7342528235
 20
149.1103979105
 30
0.0
 10
-736.035675913
 20
148.0706663079
 30
0.0
 10
-736.0880539033
 20
147.349754026
 30
0.0
 10
-736.0764523107
 20
146.9916341837
 30
0.0
  0
SPLINE
  5
660
100
AcDbEntity
  8
0
100
AcDbSpline
 62
9
  6
CONTINUOUS
 70
0
 71
3
 72
10
 73
6
 74
0
 42
0.0000001
 43
0.0000001
 44
0.0000000001
 40
0.0
 40
0.0
 40
0.0
 40
0.0
 40
0.2499999497
 40
0.5000000093
 40
1.0
 40
1.0
 40
1.0
 40
1.0
 10
-702.8613465807
 20
178.0894645562
 30
0.0
 10
-705.4641845854
 20
175.8164866211
 30
0.0
 10
-710.682686984
 20
171.2852104347
 30
0.0
 10
-721.1536897742
 20
162.262033101
 30
0.0
 10
-729.0332411494
 20
155.525247813
 30
0.0
 10
-734.2923755593
 20
151.0412428852
 30
0.0
  0
SPLINE
  5
661
100
AcDbEntity
  8
0
100
AcDbSpline
 62
9
  6
CONTINUOUS
 70
0
 71
3
 72
11
 73
7
 74
0
 42
0.0000001
 43
0.0000001
 44
0.0000000001
 40
0.0
 40
0.0
 40
0.0
 40
0.0
 40
0.249986353
 40
0.4999790986
 40
0.7499828792
 40
1.0
 40
1.0
 40
1.0
 40
1.0
 10
-699.3296074683
 20
179.5862672692
 30
0.0
 10
-699.6352131552
 20
179.586267379
 30
0.0
 10
-700.248007899
 20
179.5277513489
 30
0.0
 10
-701.1328683027
 20
179.2683126621
 30
0.0
 10
-701.95391733
 20
178.8488441261
 30
0.0
 10
-702.4413458052
 20
178.4734252675
 30
0.0
 10
-702.6657323225
 20
178.2658957086
 30
0.0
  0
SPLINE
  5
662
100
AcDbEntity
  8
0
100
AcDbSpline
 62
9
  6
CONTINUOUS
 70
0
 71
3
 72
15
 73
11
 74
0
 42
0.0000001
 43
0.0000001
 44
0.0000000001
 40
0.0
 40
0.0
 40
0.0
 40
0.0
 40
0.125006382
 40
0.2500346131
 40
0.3750465783
 40
0.5000554918
 40
0.6250754523
 40
0.7500595886
 40
0.875032936
 40
1.0
 40
1.0
 40
1.0
 40
1.0
 10
-674.0229707749
 20
178.0045274584
 30
0.0
 10
-673.9897989817
 20
178.0909130318
 30
0.0
 10
-673.9435922114
 20
178.2722603699
 30
0.0
 10
-673.9408903146
 20
178.5524562204
 30
0.0
 10
-674.0041043177
 20
178.825335374
 30
0.0
 10
-674.1271331461
 20
179.0770479626
 30
0.0
 10
-674.3072028043
 20
179.2919151171
 30
0.0
 10
-674.5333486966
 20
179.4576534917
 30
0.0
 10
-674.7934558397
 20
179.5623381605
 30
0.0
 10
-674.9793249238
 20
179.5862668414
 30
0.0
 10
-675.0718314074
 20
179.5862672692
 30
0.0
  0
SPLINE
  5
663
100
AcDbEntity
  8
0
100
AcDbSpline
 62
9
  6
CONTINUOUS
 70
0
 71
3
 72
9
 73
5
 74
0
 42
0.0000001
 43
0.0000001
 44
0.0000000001
 40
0.0
 40
0.0
 40
0.0
 40
0.0
 40
0.4996362299
 40
1.0
 40
1.0
 40
1.0
 40
1.0
 10
-674.0718314074
 20
177.7775900118
 30
0.0
 10
-674.0718319207
 20
177.8164221541
 30
0.0
 10
-674.0617947873
 20
177.8943374583
 30
0.0
 10
-674.0368960436
 20
177.9682174474
 30
0.0
 10
-674.0229707749
 20
178.0045274584
 30
0.0
  0
LINE
  5
664
100
AcDbEntity
  8
0
100
AcDbLine
 62
9
  6
CONTINUOUS
 10
-740.5718314108
 20
308.9400771692
 11
-740.5718314107
 21
293.1895928304
  0
LINE
  5
665
100
AcDbEntity
  8
0
100
AcDbLine
 62
9
  6
CONTINUOUS
 10
-740.5718314108
 20
153.1895928296
 11
-740.5718314107
 21
137.4391084914
  0
LINE
  5
666
100
AcDbEntity
  8
0
100
AcDbLine
 62
9
  6
CONTINUOUS
 10
-704.7745062812
 20
266.06836309
 11
-704.4719083458
 21
265.805293915
  0
LINE
  5
667
100
AcDbEntity
  8
0
100
AcDbLine
 62
9
  6
CONTINUOUS
 10
-704.4719083458
 20
180.573891734
 11
-704.7745062812
 21
180.3108225708
  0
SPLINE
  5
668
100
AcDbEntity
  8
0
100
AcDbSpline
 62
9
  6
CONTINUOUS
 70
0
 71
3
 72
9
 73
5
 74
0
 42
0.0000001
 43
0.0000001
 44
0.0000000001
 40
0.0
 40
0.0
 40
0.0
 40
0.0
 40
0.5003743843
 40
1.0
 40
1.0
 40
1.0
 40
1.0
 10
-674.0229707749
 20
268.3746582025
 30
0.0
 10
-674.0369053124
 20
268.4109656812
 30
0.0
 10
-674.061798921
 20
268.4848489943
 30
0.0
 10
-674.0718313925
 20
268.5627642009
 30
0.0
 10
-674.0718314074
 20
268.6015956491
 30
0.0
  0
SPLINE
  5
669
100
AcDbEntity
  8
0
100
AcDbSpline
 62
9
  6
CONTINUOUS
 70
0
 71
3
 72
15
 73
11
 74
0
 42
0.0000001
 43
0.0000001
 44
0.0000000001
 40
0.0
 40
0.0
 40
0.0
 40
0.0
 40
0.1249672828
 40
0.2499407843
 40
0.37492496
 40
0.4999450453
 40
0.6249539373
 40
0.7499658132
 40
0.8749938596
 40
1.0
 40
1.0
 40
1.0
 40
1.0
 10
-675.0718314074
 20
266.7929183917
 30
0.0
 10
-674.9793247479
 20
266.7929187846
 30
0.0
 10
-674.7934553785
 20
266.8168476456
 30
0.0
 10
-674.5333478714
 20
266.9215324475
 30
0.0
 10
-674.3072020972
 20
267.0872713233
 30
0.0
 10
-674.1271313403
 20
267.3021376962
 30
0.0
 10
-674.004104785
 20
267.5538524419
 30
0.0
 10
-673.9408916494
 20
267.8267283089
 30
0.0
 10
-673.9435777347
 20
268.1069318151
 30
0.0
 10
-673.989833541
 20
268.2882595428
 30
0.0
 10
-674.0229707749
 20
268.3746582025
 30
0.0
  0
SPLINE
  5
66A
100
AcDbEntity
  8
0
100
AcDbSpline
 62
9
  6
CONTINUOUS
 70
0
 71
3
 72
11
 73
7
 74
0
 42
0.0000001
 43
0.0000001
 44
0.0000000001
 40
0.0
 40
0.0
 40
0.0
 40
0.0
 40
0.2500171163
 40
0.5000209104
 40
0.750013656
 40
1.0
 40
1.0
 40
1.0
 40
1.0
 10
-702.6657293271
 20
268.1132876076
 30
0.0
 10
-702.4413448222
 20
267.9057563406
 30
0.0
 10
-701.9539150453
 20
267.5303394038
 30
0.0
 10
-701.1328662836
 20
267.1108732096
 30
0.0
 10
-700.248006989
 20
266.851434056
 30
0.0
 10
-699.6352128322
 20
266.792918286
 30
0.0
 10
-699.3296074683
 20
266.7929183917
 30
0.0
  0
SPLINE
  5
66B
100
AcDbEntity
  8
0
100
AcDbSpline
 62
9
  6
CONTINUOUS
 70
0
 71
3
 72
10
 73
6
 74
0
 42
0.0000001
 43
0.0000001
 44
0.0000000001
 40
0.0
 40
0.0
 40
0.0
 40
0.0
 40
0.4999999908
 40
0.7500000501
 40
1.0
 40
1.0
 40
1.0
 40
1.0
 10
-734.2923755851
 20
295.3379427976
 30
0.0
 10
-729.0332413844
 20
290.8539376133
 30
0.0
 10
-721.1536897456
 20
284.117152625
 30
0.0
 10
-710.6826869969
 20
275.0939752253
 30
0.0
 10
-705.464184575
 20
270.5626990593
 30
0.0
 10
-702.8613465807
 20
268.2897211046
 30
0.0
  0
SPLINE
  5
66C
100
AcDbEntity
  8
0
100
AcDbSpline
 62
9
  6
CONTINUOUS
 70
0
 71
3
 72
11
 73
7
 74
0
 42
0.0000001
 43
0.0000001
 44
0.0000000001
 40
0.0
 40
0.0
 40
0.0
 40
0.0
 40
0.2500047083
 40
0.5000083304
 40
0.7500077661
 40
1.0
 40
1.0
 40
1.0
 40
1.0
 10
-736.0764523107
 20
299.3875514771
 30
0.0
 10
-736.088052579
 20
299.029431551
 30
0.0
 10
-736.0356777675
 20
298.3085191995
 30
0.0
 10
-735.7342536143
 20
297.2687873045
 30
0.0
 10
-735.2227411791
 20
296.3146566952
 30
0.0
 10
-734.754784146
 20
295.7635414943
 30
0.0
 10
-734.4950504275
 20
295.5167419164
 30
0.0
  0
SPLINE
  5
66D
100
AcDbEntity
  8
0
100
AcDbSpline
 62
9
  6
CONTINUOUS
 70
0
 71
3
 72
11
 73
7
 74
0
 42
0.0000001
 43
0.0000001
 44
0.0000000001
 40
0.0
 40
0.0
 40
0.0
 40
0.0
 40
0.2498447431
 40
0.4986303534
 40
0.7481823148
 40
1.0
 40
1.0
 40
1.0
 40
1.0
 10
-740.0696528443
 20
134.3166094842
 30
0.0
 10
-739.9938125798
 20
134.0305567406
 30
0.0
 10
-739.8057806078
 20
133.4683028163
 30
0.0
 10
-739.3929650748
 20
132.6788520999
 30
0.0
 10
-738.8277762949
 20
131.9841257958
 30
0.0
 10
-738.338405476
 20
131.6297841441
 30
0.0
 10
-738.0718314074
 20
131.4959753507
 30
0.0
  0
SPLINE
  5
66E
100
AcDbEntity
  8
0
100
AcDbSpline
 62
9
  6
CONTINUOUS
 70
0
 71
3
 72
11
 73
7
 74
0
 42
0.0000001
 43
0.0000001
 44
0.0000000001
 40
0.0
 40
0.0
 40
0.0
 40
0.0
 40
0.2518297471
 40
0.5014044018
 40
0.7501893398
 40
1.0
 40
1.0
 40
1.0
 40
1.0
 10
-738.0718314074
 20
314.8832100705
 30
0.0
 10
-738.3379461922
 20
314.7487011648
 30
0.0
 10
-738.8262391499
 20
314.393342942
 30
0.0
 10
-739.3907813263
 20
313.698624289
 30
0.0
 10
-739.8041919953
 20
312.9099396207
 30
0.0
 10
-739.9932170732
 20
312.34831616
 30
0.0
 10
-740.0696526972
 20
312.0625761766
 30
0.0
  0
SPLINE
  5
66F
100
AcDbEntity
  8
0
100
AcDbSpline
 62
9
  6
CONTINUOUS
 70
0
 71
3
 72
26
 73
22
 74
0
 42
0.0000001
 43
0.0000001
 44
0.0000000001
 40
0.0
 40
0.0
 40
0.0
 40
0.0
 40
0.2158186368
 40
0.4124940168
 40
0.5857231353
 40
0.6623897961
 40
0.7318971924
 40
0.7939078478
 40
0.8481319189
 40
0.8943283627
 40
0.9323060897
 40
0.9481671377
 40
0.9619249371
 40
0.9735700186
 40
0.9830961566
 40
0.9905003691
 40
0.9957829041
 40
0.9976294971
 40
0.998947234
 40
0.9997370134
 40
1.0
 40
1.0
 40
1.0
 40
1.0
 10
-740.3316983406
 20
310.9761627585
 30
0.0
 10
-740.3430833479
 20
310.829062065
 30
0.0
 10
-740.3671548233
 20
310.5480824211
 30
0.0
 10
-740.407288826
 20
310.149667405
 30
0.0
 10
-740.4419917806
 20
309.8463457086
 30
0.0
 10
-740.4689913025
 20
309.6296657485
 30
0.0
 10
-740.4874971703
 20
309.4885511662
 30
0.0
 10
-740.5048199275
 20
309.3627581135
 30
0.0
 10
-740.5206905774
 20
309.2528539892
 30
0.0
 10
-740.5348470947
 20
309.159304994
 30
0.0
 10
-740.5455544644
 20
309.0917599853
 30
0.0
 10
-740.553061728
 20
309.0461632372
 30
0.0
 10
-740.5577501744
 20
309.0183445425
 30
0.0
 10
-740.561820651
 20
308.9948200268
 30
0.0
 10
-740.5652096478
 20
308.9755682493
 30
0.0
 10
-740.5679618785
 20
308.9606668726
 30
0.0
 10
-740.5696934256
 20
308.9508157698
 30
0.0
 10
-740.5708854005
 20
308.9452542011
 30
0.0
 10
-740.5712087257
 20
308.9424167631
 30
0.0
 10
-740.5718493071
 20
308.9411488449
 30
0.0
 10
-740.5716464245
 20
308.9401088373
 30
0.0
 10
-740.5718218622
 20
308.9400695352
 30
0.0
  0
SPLINE
  5
670
100
AcDbEntity
  8
0
100
AcDbSpline
 62
9
  6
CONTINUOUS
 70
0
 71
3
 72
9
 73
5
 74
0
 42
0.0000001
 43
0.0000001
 44
0.0000000001
 40
0.0
 40
0.0
 40
0.0
 40
0.0
 40
0.2545525327
 40
1.0
 40
1.0
 40
1.0
 40
1.0
 10
-740.0696526905
 20
312.0625761925
 30
0.0
 10
-740.1082161884
 20
311.975643251
 30
0.0
 10
-740.2419692329
 20
311.6262749981
 30
0.0
 10
-740.3102080499
 20
311.2538363754
 30
0.0
 10
-740.3316983406
 20
310.9761627585
 30
0.0
  0
SPLINE
  5
671
100
AcDbEntity
  8
0
100
AcDbSpline
 62
9
  6
CONTINUOUS
 70
0
 71
3
 72
17
 73
13
 74
0
 42
0.0000001
 43
0.0000001
 44
0.0000000001
 40
0.0
 40
0.0
 40
0.0
 40
0.0
 40
0.069366526
 40
0.1375361153
 40
0.2040343917
 40
0.2689775419
 40
0.3951913977
 40
0.5184692822
 40
0.6400027041
 40
0.7604906685
 40
0.88038269
 40
1.0
 40
1.0
 40
1.0
 40
1.0
 10
-674.0718314074
 20
131.1895928304
 30
0.0
 10
-673.9244247971
 20
131.1895853001
 30
0.0
 10
-673.6309751989
 20
131.2262434893
 30
0.0
 10
-673.2217509022
 20
131.3788529031
 30
0.0
 10
-672.8588035123
 20
131.6027279963
 30
0.0
 10
-672.4428915202
 20
131.9614727507
 30
0.0
 10
-672.0250331188
 20
132.4903362336
 30
0.0
 10
-671.6527548534
 20
133.1884717232
 30
0.0
 10
-671.3837614481
 20
133.9188163248
 30
0.0
 10
-671.2011899486
 20
134.6673738771
 30
0.0
 10
-671.0950607835
 20
135.4261220441
 30
0.0
 10
-671.0718433415
 20
135.9354013174
 30
0.0
 10
-671.0718314074
 20
136.1895928304
 30
0.0
  0
SPLINE
  5
672
100
AcDbEntity
  8
0
100
AcDbSpline
 62
9
  6
CONTINUOUS
 70
0
 71
3
 72
26
 73
22
 74
0
 42
0.0000001
 43
0.0000001
 44
0.0000000001
 40
0.0
 40
0.0
 40
0.0
 40
0.0
 40
0.000262404
 40
0.0010504725
 40
0.0023654235
 40
0.0042082119
 40
0.0094803035
 40
0.0168706783
 40
0.0263800533
 40
0.0380059254
 40
0.0517425554
 40
0.0675809664
 40
0.1055109983
 40
0.151659851
 40
0.20584038
 40
0.2678153494
 40
0.3372984683
 40
0.4139554087
 40
0.5872180932
 40
0.7840043199
 40
1.0
 40
1.0
 40
1.0
 40
1.0
 10
-740.5718218632
 20
137.4391161249
 30
0.0
 10
-740.5716459509
 20
137.4390809376
 30
0.0
 10
-740.5718449131
 20
137.4380344418
 30
0.0
 10
-740.5711981484
 20
137.4367797468
 30
0.0
 10
-740.5708631607
 20
137.433945369
 30
0.0
 10
-740.5696479529
 20
137.4284027961
 30
0.0
 10
-740.5678775824
 20
137.4185758048
 30
0.0
 10
-740.5650694375
 20
137.4037135084
 30
0.0
 10
-740.5616122735
 20
137.3845070932
 30
0.0
 10
-740.5574631749
 20
137.3610348797
 30
0.0
 10
-740.5526872574
 20
137.3332732779
 30
0.0
 10
-740.5450450284
 20
137.2877600199
 30
0.0
 10
-740.5341583862
 20
137.2203217305
 30
0.0
 10
-740.5197897882
 20
137.1268961638
 30
0.0
 10
-740.5037123398
 20
137.017103925
 30
0.0
 10
-740.4862026287
 20
136.8914015841
 30
0.0
 10
-740.4675450836
 20
136.7503476027
 30
0.0
 10
-740.4404034708
 20
136.5336743474
 30
0.0
 10
-740.405720621
 20
136.2302404845
 30
0.0
 10
-740.3660375919
 20
135.8315369628
 30
0.0
 10
-740.3426331122
 20
135.550286561
 30
0.0
 10
-740.331698449
 20
135.4030228346
 30
0.0
  0
SPLINE
  5
673
100
AcDbEntity
  8
0
100
AcDbSpline
 62
9
  6
CONTINUOUS
 70
0
 71
3
 72
9
 73
5
 74
0
 42
0.0000001
 43
0.0000001
 44
0.0000000001
 40
0.0
 40
0.0
 40
0.0
 40
0.0
 40
0.2457070416
 40
1.0
 40
1.0
 40
1.0
 40
1.0
 10
-740.331698449
 20
135.4030228346
 30
0.0
 10
-740.3249035474
 20
135.3115095137
 30
0.0
 10
-740.2836942941
 20
134.9403503673
 30
0.0
 10
-740.183028237
 20
134.5744969335
 30
0.0
 10
-740.0696528349
 20
134.3166094618
 30
0.0
  0
SPLINE
  5
674
100
AcDbEntity
  8
0
100
AcDbSpline
 62
9
  6
CONTINUOUS
 70
0
 71
3
 72
15
 73
11
 74
0
 42
0.0000001
 43
0.0000001
 44
0.0000000001
 40
0.0
 40
0.0
 40
0.0
 40
0.0
 40
0.1235858319
 40
0.2473764065
 40
0.3715641129
 40
0.4962744733
 40
0.62155484
 40
0.7473615942
 40
0.8735716456
 40
1.0
 40
1.0
 40
1.0
 40
1.0
 10
-671.0718314074
 20
178.5437643579
 30
0.0
 10
-671.0718305052
 20
178.799526353
 30
0.0
 10
-671.1233801145
 20
179.3129464872
 30
0.0
 10
-671.3523521757
 20
180.052138611
 30
0.0
 10
-671.7241948194
 20
180.7337316765
 30
0.0
 10
-672.2246985782
 20
181.3311707449
 30
0.0
 10
-672.8346462029
 20
181.8216257318
 30
0.0
 10
-673.5307737272
 20
182.1861527917
 30
0.0
 10
-674.2859520195
 20
182.410679333
 30
0.0
 10
-674.8101867862
 20
182.4612119286
 30
0.0
 10
-675.0718314074
 20
182.4612118117
 30
0.0
  0
SPLINE
  5
675
100
AcDbEntity
  8
0
100
AcDbSpline
 62
9
  6
CONTINUOUS
 70
0
 71
3
 72
17
 73
13
 74
0
 42
0.0000001
 43
0.0000001
 44
0.0000000001
 40
0.0
 40
0.0
 40
0.0
 40
0.0
 40
0.3741274899
 40
0.5434854774
 40
0.6923963745
 40
0.7574468983
 40
0.815435432
 40
0.8658755442
 40
0.9083893822
 40
0.9427567087
 40
0.9689983507
 40
1.0
 40
1.0
 40
1.0
 40
1.0
 10
-675.0718314074
 20
215.7170653579
 30
0.0
 10
-674.5612058354
 20
215.7170705835
 30
0.0
 10
-673.8191384489
 20
215.6988434552
 30
0.0
 10
-672.8763163989
 20
215.6328354887
 30
0.0
 10
-672.3559000958
 20
215.5775667784
 30
0.0
 10
-671.9885075011
 20
215.5242473937
 30
0.0
 10
-671.7553554208
 20
215.4831552145
 30
0.0
 10
-671.5537532533
 20
215.4393599518
 30
0.0
 10
-671.3865227251
 20
215.3942271096
 30
0.0
 10
-671.2521158757
 20
215.34597974
 30
0.0
 10
-671.143950595
 20
215.29431721
 30
0.0
 10
-671.0718406746
 20
215.2319052372
 30
0.0
 10
-671.0718314074
 20
215.1895928304
 30
0.0
  0
SPLINE
  5
676
100
AcDbEntity
  8
0
100
AcDbSpline
 62
9
  6
CONTINUOUS
 70
0
 71
3
 72
15
 73
11
 74
0
 42
0.0000001
 43
0.0000001
 44
0.0000000001
 40
0.0
 40
0.0
 40
0.0
 40
0.0
 40
0.1264284987
 40
0.2526386568
 40
0.378445447
 40
0.5037258607
 40
0.6284362738
 40
0.7526238955
 40
0.8764143201
 40
1.0
 40
1.0
 40
1.0
 40
1.0
 10
-675.0718314074
 20
263.9179738492
 30
0.0
 10
-674.8101864864
 20
263.9179737266
 30
0.0
 10
-674.2859511926
 20
263.9685064245
 30
0.0
 10
-673.5307723767
 20
264.1930333449
 30
0.0
 10
-672.8346446421
 20
264.5575608667
 30
0.0
 10
-672.2246969898
 20
265.0480162787
 30
0.0
 10
-671.72419363
 20
265.6454557935
 30
0.0
 10
-671.3523517178
 20
266.3270486575
 30
0.0
 10
-671.1233791846
 20
267.0662401252
 30
0.0
 10
-671.0718323368
 20
267.579659621
 30
0.0
 10
-671.0718314074
 20
267.835421303
 30
0.0
  0
SPLINE
  5
677
100
AcDbEntity
  8
0
100
AcDbSpline
 62
9
  6
CONTINUOUS
 70
0
 71
3
 72
17
 73
13
 74
0
 42
0.0000001
 43
0.0000001
 44
0.0000000001
 40
0.0
 40
0.0
 40
0.0
 40
0.0
 40
0.1196168409
 40
0.2395081303
 40
0.3599957248
 40
0.4815289086
 40
0.6048071179
 40
0.7310216175
 40
0.795965457
 40
0.8624655729
 40
0.9306353425
 40
1.0
 40
1.0
 40
1.0
 40
1.0
 10
-671.0718314074
 20
310.1895928304
 30
0.0
 10
-671.0718427047
 20
310.4437833576
 30
0.0
 10
-671.0950605386
 20
310.9530601426
 30
0.0
 10
-671.201189269
 20
311.7118049073
 30
0.0
 10
-671.3837574451
 20
312.4603603976
 30
0.0
 10
-671.652750589
 20
313.1907045109
 30
0.0
 10
-672.0250279685
 20
313.8888422359
 30
0.0
 10
-672.4428877281
 20
314.4177091891
 30
0.0
 10
-672.8588041052
 20
314.7764593257
 30
0.0
 10
-673.2217573448
 20
315.0003362987
 30
0.0
 10
-673.6309828048
 20
315.1529436365
 30
0.0
 10
-673.9244287615
 20
315.1896003601
 30
0.0
 10
-674.0718314074
 20
315.1895928304
 30
0.0
  0
SPLINE
  5
678
100
AcDbEntity
  8
0
100
AcDbSpline
 62
9
  6
CONTINUOUS
 70
0
 71
3
 72
11
 73
7
 74
0
 42
0.0000001
 43
0.0000001
 44
0.0000000001
 40
0.0
 40
0.0
 40
0.0
 40
0.0
 40
0.2502221255
 40
0.5003438214
 40
0.7502849025
 40
1.0
 40
1.0
 40
1.0
 40
1.0
 10
-699.3296074683
 20
182.4612118117
 30
0.0
 10
-699.7954215486
 20
182.4612116251
 30
0.0
 10
-700.7289292599
 20
182.3787656926
 30
0.0
 10
-702.0838248371
 20
182.0118133309
 30
0.0
 10
-703.3529074295
 20
181.4142756357
 30
0.0
 10
-704.1170466646
 20
180.8741873984
 30
0.0
 10
-704.4719083458
 20
180.573891734
 30
0.0
  0
SPLINE
  5
679
100
AcDbEntity
  8
0
100
AcDbSpline
 62
9
  6
CONTINUOUS
 70
0
 71
3
 72
17
 73
13
 74
0
 42
0.0000001
 43
0.0000001
 44
0.0000000001
 40
0.0
 40
0.0
 40
0.0
 40
0.0
 40
0.0310016494
 40
0.0572432913
 40
0.0916106178
 40
0.1341244559
 40
0.184564568
 40
0.2425531017
 40
0.3076036255
 40
0.4565145226
 40
0.6258725101
 40
1.0
 40
1.0
 40
1.0
 40
1.0
 10
-671.0718314074
 20
231.1895928304
 30
0.0
 10
-671.0718406742
 20
231.1472804235
 30
0.0
 10
-671.1439505946
 20
231.0848684499
 30
0.0
 10
-671.252115876
 20
231.0332059215
 30
0.0
 10
-671.3865227251
 20
230.9849585514
 30
0.0
 10
-671.5537532532
 20
230.9398257086
 30
0.0
 10
-671.7553554209
 20
230.8960304464
 30
0.0
 10
-671.9885075011
 20
230.8549382672
 30
0.0
 10
-672.3559000957
 20
230.8016188823
 30
0.0
 10
-672.8763163989
 20
230.7463501722
 30
0.0
 10
-673.8191384489
 20
230.6803422056
 30
0.0
 10
-674.5612058354
 20
230.6621150774
 30
0.0
 10
-675.0718314074
 20
230.6621203029
 30
0.0
  0
SPLINE
  5
67A
100
AcDbEntity
  8
0
100
AcDbSpline
 62
9
  6
CONTINUOUS
 70
0
 71
3
 72
9
 73
5
 74
0
 42
0.0000001
 43
0.0000001
 44
0.0000000001
 40
0.0
 40
0.0
 40
0.0
 40
0.0
 40
0.4678041939
 40
1.0
 40
1.0
 40
1.0
 40
1.0
 10
-704.4719083458
 20
215.5835322813
 30
0.0
 10
-703.6710593067
 20
215.6302814464
 30
0.0
 10
-701.9571335733
 20
215.6959094696
 30
0.0
 10
-700.242241554
 20
215.7170682612
 30
0.0
 10
-699.3296074683
 20
215.7170653579
 30
0.0
  0
SPLINE
  5
67B
100
AcDbEntity
  8
0
100
AcDbSpline
 62
9
  6
CONTINUOUS
 70
0
 71
3
 72
11
 73
7
 74
0
 42
0.0000001
 43
0.0000001
 44
0.0000000001
 40
0.0
 40
0.0
 40
0.0
 40
0.0
 40
0.2497151649
 40
0.4996562505
 40
0.7497779282
 40
1.0
 40
1.0
 40
1.0
 40
1.0
 10
-704.4719083458
 20
265.805293915
 30
0.0
 10
-704.1170441779
 20
265.5050009909
 30
0.0
 10
-703.3529084637
 20
264.9649083079
 30
0.0
 10
-702.0838241402
 20
264.3673727142
 30
0.0
 10
-700.7289291516
 20
264.0004196274
 30
0.0
 10
-699.7954214512
 20
263.9179740785
 30
0.0
 10
-699.3296074683
 20
263.9179738492
 30
0.0
  0
SPLINE
  5
67C
100
AcDbEntity
  8
0
100
AcDbSpline
 62
9
  6
CONTINUOUS
 70
0
 71
3
 72
9
 73
5
 74
0
 42
0.0000001
 43
0.0000001
 44
0.0000000001
 40
0.0
 40
0.0
 40
0.0
 40
0.0
 40
0.5321958061
 40
1.0
 40
1.0
 40
1.0
 40
1.0
 10
-699.3296074683
 20
230.6621203029
 30
0.0
 10
-700.242241554
 20
230.6621173995
 30
0.0
 10
-701.957133573
 20
230.6832761961
 30
0.0
 10
-703.6710593072
 20
230.7489042063
 30
0.0
 10
-704.4719083458
 20
230.7956533795
 30
0.0
  0
SPLINE
  5
67D
100
AcDbEntity
  8
0
100
AcDbSpline
 62
9
  6
CONTINUOUS
 70
0
 71
3
 72
19
 73
15
 74
0
 42
0.0000001
 43
0.0000001
 44
0.0000000001
 40
0.0
 40
0.0
 40
0.0
 40
0.0
 40
0.0090305996
 40
0.0159561434
 40
0.0249171024
 40
0.0493289352
 40
0.0825321479
 40
0.1243939994
 40
0.1745789897
 40
0.2980882706
 40
0.4485028555
 40
0.6201073757
 40
0.8063261773
 40
1.0
 40
1.0
 40
1.0
 40
1.0
 10
-737.2478489749
 20
312.949480995
 30
0.0
 10
-737.2537178296
 20
312.9469802139
 30
0.0
 10
-737.2663993631
 20
312.9509878609
 30
0.0
 10
-737.2797780235
 20
312.9618300037
 30
0.0
 10
-737.2997692903
 20
312.9824436357
 30
0.0
 10
-737.3270953188
 20
313.0207799571
 30
0.0
 10
-737.3634753662
 20
313.0809658847
 30
0.0
 10
-737.4051275934
 20
313.1590562392
 30
0.0
 10
-737.4721542701
 20
313.2958087211
 30
0.0
 10
-737.5647081021
 20
313.5053081049
 30
0.0
 10
-737.6832172647
 20
313.7969020958
 30
0.0
 10
-737.8107555529
 20
314.132549064
 30
0.0
 10
-737.9423609881
 20
314.4992579327
 30
0.0
 10
-738.0288026385
 20
314.7533363117
 30
0.0
 10
-738.0718314074
 20
314.8832100705
 30
0.0
  0
SPLINE
  5
67E
100
AcDbEntity
  8
0
100
AcDbSpline
 62
9
  6
CONTINUOUS
 70
0
 71
3
 72
15
 73
11
 74
0
 42
0.0000001
 43
0.0000001
 44
0.0000000001
 40
0.0
 40
0.0
 40
0.0
 40
0.0
 40
0.0314452609
 40
0.0566793922
 40
0.0891336618
 40
0.1761052156
 40
0.2919615575
 40
0.43499023
 40
0.6027193643
 40
1.0
 40
1.0
 40
1.0
 40
1.0
 10
-738.9011825787
 20
311.1869753796
 30
0.0
 10
-738.8960301417
 20
311.2015916908
 30
0.0
 10
-738.9082121695
 20
311.2316357537
 30
0.0
 10
-738.9328505832
 20
311.2664829779
 30
0.0
 10
-738.9805644189
 20
311.3204005202
 30
0.0
 10
-739.0668557657
 20
311.3976431198
 30
0.0
 10
-739.2012446994
 20
311.5028328454
 30
0.0
 10
-739.3726438823
 20
311.6246256659
 30
0.0
 10
-739.6633794483
 20
311.8177170079
 30
0.0
 10
-739.9010918736
 20
311.9629509441
 30
0.0
 10
-740.0696526972
 20
312.0625761766
 30
0.0
  0
SPLINE
  5
67F
100
AcDbEntity
  8
0
100
AcDbSpline
 62
9
  6
CONTINUOUS
 70
0
 71
3
 72
13
 73
9
 74
0
 42
0.0000001
 43
0.0000001
 44
0.0000000001
 40
0.0
 40
0.0
 40
0.0
 40
0.0
 40
0.1325627091
 40
0.2266627794
 40
0.3419355428
 40
0.4782948564
 40
0.634644537
 40
1.0
 40
1.0
 40
1.0
 40
1.0
 10
-739.0718314074
 20
310.1895928304
 30
0.0
 10
-739.0718314074
 20
310.2574200986
 30
0.0
 10
-739.1393537268
 20
310.367212625
 30
0.0
 10
-739.2677593854
 20
310.4826859875
 30
0.0
 10
-739.4143845071
 20
310.5838302065
 30
0.0
 10
-739.5969777735
 20
310.6848984411
 30
0.0
 10
-739.9025595979
 20
310.8270194545
 30
0.0
 10
-740.1539142427
 20
310.918380527
 30
0.0
 10
-740.3316983406
 20
310.9761627585
 30
0.0
  0
SPLINE
  5
680
100
AcDbEntity
  8
0
100
AcDbSpline
 62
9
  6
CONTINUOUS
 70
0
 71
3
 72
13
 73
9
 74
0
 42
0.0000001
 43
0.0000001
 44
0.0000000001
 40
0.0
 40
0.0
 40
0.0
 40
0.0
 40
0.1335070143
 40
0.2277281042
 40
0.3429602198
 40
0.4791619809
 40
0.6352712052
 40
1.0
 40
1.0
 40
1.0
 40
1.0
 10
-739.0718314074
 20
136.1895928304
 30
0.0
 10
-739.0718314074
 20
136.1212321443
 30
0.0
 10
-739.1389227617
 20
136.0105242508
 30
0.0
 10
-739.2676496452
 20
135.8942846006
 30
0.0
 10
-739.4142648258
 20
135.7929998389
 30
0.0
 10
-739.5968830667
 20
135.6920874959
 30
0.0
 10
-739.9024629914
 20
135.5506183887
 30
0.0
 10
-740.1538817897
 20
135.4601077597
 30
0.0
 10
-740.331698449
 20
135.4030228346
 30
0.0
  0
SPLINE
  5
681
100
AcDbEntity
  8
0
100
AcDbSpline
 62
9
  6
CONTINUOUS
 70
0
 71
3
 72
15
 73
11
 74
0
 42
0.0000001
 43
0.0000001
 44
0.0000000001
 40
0.0
 40
0.0
 40
0.0
 40
0.0
 40
0.0320784689
 40
0.0574739942
 40
0.0900243171
 40
0.1770538395
 40
0.2928471668
 40
0.4357274718
 40
0.6032469669
 40
1.0
 40
1.0
 40
1.0
 40
1.0
 10
-738.9011826059
 20
135.1922103582
 30
0.0
 10
-738.8959224788
 20
135.1772885533
 30
0.0
 10
-738.9076198394
 20
135.1467095104
 30
0.0
 10
-738.9322713956
 20
135.1111966388
 30
0.0
 10
-738.9797342135
 20
135.0568254138
 30
0.0
 10
-739.0659229595
 20
134.9792006499
 30
0.0
 10
-739.2002658246
 20
134.8738866849
 30
0.0
 10
-739.3717401939
 20
134.7522689201
 30
0.0
 10
-739.6627204587
 20
134.5598647913
 30
0.0
 10
-739.9008000548
 20
134.4155145328
 30
0.0
 10
-740.0696528443
 20
134.3166094842
 30
0.0
  0
SPLINE
  5
682
100
AcDbEntity
  8
0
100
AcDbSpline
 62
9
  6
CONTINUOUS
 70
0
 71
3
 72
19
 73
15
 74
0
 42
0.0000001
 43
0.0000001
 44
0.0000000001
 40
0.0
 40
0.0
 40
0.0
 40
0.0
 40
0.0091889145
 40
0.0161570263
 40
0.0251457512
 40
0.0495863899
 40
0.0827986511
 40
0.1246579078
 40
0.1748326683
 40
0.2983065553
 40
0.4486739301
 40
0.6202244766
 40
0.8063855634
 40
1.0
 40
1.0
 40
1.0
 40
1.0
 10
-737.247848924
 20
133.4297046442
 30
0.0
 10
-737.2538227721
 20
133.4322501639
 30
0.0
 10
-737.2666791691
 20
133.4284213812
 30
0.0
 10
-737.280328373
 20
133.4176045166
 30
0.0
 10
-737.300536317
 20
133.3971045366
 30
0.0
 10
-737.3281157264
 20
133.3588524111
 30
0.0
 10
-737.3647230815
 20
133.2987503841
 30
0.0
 10
-737.4065597059
 20
133.2207223708
 30
0.0
 10
-737.4737729875
 20
133.0840395633
 30
0.0
 10
-737.5664039131
 20
132.8745529486
 30
0.0
 10
-737.6847973506
 20
132.582895264
 30
0.0
 10
-737.8120112701
 20
132.2471082374
 30
0.0
 10
-737.9430931792
 20
131.8801934326
 30
0.0
 10
-738.0290674137
 20
131.6259431634
 30
0.0
 10
-738.0718314074
 20
131.4959753507
 30
0.0
  0
SPLINE
  5
683
100
AcDbEntity
  8
0
100
AcDbSpline
 62
9
  6
CONTINUOUS
 70
0
 71
3
 72
13
 73
9
 74
0
 42
0.0000001
 43
0.0000001
 44
0.0000000001
 40
0.0
 40
0.0
 40
0.0
 40
0.0
 40
0.2966487855
 40
0.5661206922
 40
0.6869145523
 40
0.7980339794
 40
0.9012638156
 40
1.0
 40
1.0
 40
1.0
 40
1.0
 10
-736.2141322838
 20
215.4403963274
 30
0.0
 10
-736.1945762525
 20
215.8017686493
 30
0.0
 10
-736.0773856293
 20
216.4898264083
 30
0.0
 10
-735.7224813333
 20
217.2645879799
 30
0.0
 10
-735.3287201621
 20
217.7371976988
 30
0.0
 10
-735.005475169
 20
217.993237185
 30
0.0
 10
-734.6539338393
 20
218.1529697344
 30
0.0
 10
-734.4062241273
 20
218.1895928305
 30
0.0
 10
-734.2857694558
 20
218.1895928306
 30
0.0
  0
LINE
  5
684
100
AcDbEntity
  8
0
100
AcDbLine
 62
9
  6
CONTINUOUS
 10
-674.0718314074
 20
315.1895928304
 11
-736.0718314074
 21
315.1896173268
  0
SPLINE
  5
685
100
AcDbEntity
  8
0
100
AcDbSpline
 62
9
  6
CONTINUOUS
 70
0
 71
3
 72
13
 73
9
 74
0
 42
0.0000001
 43
0.0000001
 44
0.0000000001
 40
0.0
 40
0.0
 40
0.0
 40
0.0
 40
0.2907347026
 40
0.5612889992
 40
0.6844884193
 40
0.7982183271
 40
0.9028324914
 40
1.0
 40
1.0
 40
1.0
 40
1.0
 10
-740.5718314076
 20
215.1895928304
 30
0.0
 10
-740.5718314076
 20
215.53035752
 30
0.0
 10
-740.5026354429
 20
216.1901857689
 30
0.0
 10
-740.2401855086
 20
216.958248925
 30
0.0
 10
-739.930444729
 20
217.4686001561
 30
0.0
 10
-739.6676962686
 20
217.7735517339
 30
0.0
 10
-739.3744509612
 20
218.0031176068
 30
0.0
 10
-739.1569789372
 20
218.1032628843
 30
0.0
 10
-739.0480468498
 20
218.1364942781
 30
0.0
  0
SPLINE
  5
686
100
AcDbEntity
  8
0
100
AcDbSpline
 62
9
  6
CONTINUOUS
 70
0
 71
3
 72
9
 73
5
 74
0
 42
0.0000001
 43
0.0000001
 44
0.0000000001
 40
0.0
 40
0.0
 40
0.0
 40
0.0
 40
0.2529322867
 40
1.0
 40
1.0
 40
1.0
 40
1.0
 10
-739.0224217183
 20
218.1440160957
 30
0.0
 10
-738.9956967538
 20
218.1515532343
 30
0.0
 10
-738.8890832686
 20
218.1778461383
 30
0.0
 10
-738.7788461549
 20
218.1895928304
 30
0.0
 10
-738.6968314076
 20
218.1895928304
 30
0.0
  0
SPLINE
  5
687
100
AcDbEntity
  8
0
100
AcDbSpline
 62
9
  6
CONTINUOUS
 70
0
 71
3
 72
9
 73
5
 74
0
 42
0.0000001
 43
0.0000001
 44
0.0000000001
 40
0.0
 40
0.0
 40
0.0
 40
0.0
 40
0.500072959
 40
1.0
 40
1.0
 40
1.0
 40
1.0
 10
-736.0718314074
 20
315.1896173268
 30
0.0
 10
-736.410187469
 20
315.1896172002
 30
0.0
 10
-737.0878878305
 20
315.1437099677
 30
0.0
 10
-737.7507378855
 20
314.9895913306
 30
0.0
 10
-738.0718314074
 20
314.8832100705
 30
0.0
  0
SPLINE
  5
688
100
AcDbEntity
  8
0
100
AcDbSpline
 62
9
  6
CONTINUOUS
 70
0
 71
3
 72
13
 73
9
 74
0
 42
0.0000001
 43
0.0000001
 44
0.0000000001
 40
0.0
 40
0.0
 40
0.0
 40
0.0
 40
0.2907347026
 40
0.5612889991
 40
0.6844884193
 40
0.7982183271
 40
0.9028324914
 40
1.0
 40
1.0
 40
1.0
 40
1.0
 10
-740.5718314071
 20
231.1895928304
 30
0.0
 10
-740.5718314071
 20
230.8488281409
 30
0.0
 10
-740.5026354431
 20
230.188999892
 30
0.0
 10
-740.2401855087
 20
229.4209367361
 30
0.0
 10
-739.9304447292
 20
228.910585505
 30
0.0
 10
-739.6676962688
 20
228.6056339271
 30
0.0
 10
-739.3744509614
 20
228.3760680541
 30
0.0
 10
-739.1569789374
 20
228.2759227766
 30
0.0
 10
-739.0480468501
 20
228.2426913828
 30
0.0
  0
SPLINE
  5
689
100
AcDbEntity
  8
0
100
AcDbSpline
 62
9
  6
CONTINUOUS
 70
0
 71
3
 72
9
 73
5
 74
0
 42
0.0000001
 43
0.0000001
 44
0.0000000001
 40
0.0
 40
0.0
 40
0.0
 40
0.0
 40
0.2529322865
 40
1.0
 40
1.0
 40
1.0
 40
1.0
 10
-739.0224217104
 20
228.2351695629
 30
0.0
 10
-738.9956967464
 20
228.2276324247
 30
0.0
 10
-738.8890832637
 20
228.2013395219
 30
0.0
 10
-738.7788461527
 20
228.1895928304
 30
0.0
 10
-738.6968314074
 20
228.1895928304
 30
0.0
  0
SPLINE
  5
68A
100
AcDbEntity
  8
0
100
AcDbSpline
 62
9
  6
CONTINUOUS
 70
0
 71
3
 72
13
 73
9
 74
0
 42
0.0000001
 43
0.0000001
 44
0.0000000001
 40
0.0
 40
0.0
 40
0.0
 40
0.0
 40
0.2966487467
 40
0.5661206587
 40
0.6869145348
 40
0.7980339789
 40
0.901263824
 40
1.0
 40
1.0
 40
1.0
 40
1.0
 10
-736.2141301293
 20
230.9387896136
 30
0.0
 10
-736.1945741332
 20
230.5774175082
 30
0.0
 10
-736.0773836855
 20
229.8893601086
 30
0.0
 10
-735.722479902
 20
229.1145988014
 30
0.0
 10
-735.328719229
 20
228.6419889943
 30
0.0
 10
-735.0054745936
 20
228.3859492985
 30
0.0
 10
-734.6539336037
 20
228.2262164067
 30
0.0
 10
-734.4062240603
 20
228.189592994
 30
0.0
 10
-734.2857694558
 20
228.1895928304
 30
0.0
  0
SPLINE
  5
68B
100
AcDbEntity
  8
0
100
AcDbSpline
 62
9
  6
CONTINUOUS
 70
0
 71
3
 72
13
 73
9
 74
0
 42
0.0000001
 43
0.0000001
 44
0.0000000001
 40
0.0
 40
0.0
 40
0.0
 40
0.0
 40
0.2962097236
 40
0.5645084469
 40
0.6850584478
 40
0.7963874562
 40
0.9002904222
 40
1.0
 40
1.0
 40
1.0
 40
1.0
 10
-704.4719083407
 20
230.7956533805
 30
0.0
 10
-704.4421328769
 20
230.4489732903
 30
0.0
 10
-704.310666911
 20
229.7920357852
 30
0.0
 10
-703.9499272025
 20
229.0577191232
 30
0.0
 10
-703.5606434647
 20
228.6132837904
 30
0.0
 10
-703.2436828242
 20
228.3730955713
 30
0.0
 10
-702.9010566732
 20
228.2237361241
 30
0.0
 10
-702.6606739699
 20
228.1895928299
 30
0.0
 10
-702.5435455168
 20
228.1895928293
 30
0.0
  0
SPLINE
  5
68C
100
AcDbEntity
  8
0
100
AcDbSpline
 62
9
  6
CONTINUOUS
 70
0
 71
3
 72
13
 73
9
 74
0
 42
0.0000001
 43
0.0000001
 44
0.0000000001
 40
0.0
 40
0.0
 40
0.0
 40
0.0
 40
0.2962096918
 40
0.564508425
 40
0.685058441
 40
0.7963874635
 40
0.9002904343
 40
1.0
 40
1.0
 40
1.0
 40
1.0
 10
-704.4719063147
 20
215.5835318664
 30
0.0
 10
-704.4421308942
 20
215.9302117737
 30
0.0
 10
-704.3106651051
 20
216.5871489826
 30
0.0
 10
-703.9499258829
 20
217.3214654537
 30
0.0
 10
-703.5606426034
 20
217.7659009044
 30
0.0
 10
-703.2436822919
 20
218.006089333
 30
0.0
 10
-702.9010564526
 20
218.1554491018
 30
0.0
 10
-702.6606739056
 20
218.1895926828
 30
0.0
 10
-702.5435455168
 20
218.1895928304
 30
0.0
  0
SPLINE
  5
68D
100
AcDbEntity
  8
0
100
AcDbSpline
 62
9
  6
CONTINUOUS
 70
0
 71
3
 72
9
 73
5
 74
0
 42
0.0000001
 43
0.0000001
 44
0.0000000001
 40
0.0
 40
0.0
 40
0.0
 40
0.0
 40
0.4999371973
 40
1.0
 40
1.0
 40
1.0
 40
1.0
 10
-738.0718314074
 20
131.4959753507
 30
0.0
 10
-737.7505270177
 20
131.3902556416
 30
0.0
 10
-737.0878300195
 20
131.2361870889
 30
0.0
 10
-736.4101665457
 20
131.1895684602
 30
0.0
 10
-736.0718314074
 20
131.1895683301
 30
0.0
  0
LINE
  5
68E
100
AcDbEntity
  8
0
100
AcDbLine
 62
9
  6
CONTINUOUS
 10
-736.0718314074
 20
131.1895683301
 11
-674.0718314074
 21
131.1895928304
  0
SPLINE
  5
68F
100
AcDbEntity
  8
0
100
AcDbSpline
 62
9
  6
CONTINUOUS
 70
0
 71
3
 72
18
 73
14
 74
0
 42
0.0000001
 43
0.0000001
 44
0.0000000001
 40
0.0
 40
0.0
 40
0.0
 40
0.0
 40
0.2211891953
 40
0.4185471354
 40
0.5897315298
 40
0.732782403
 40
0.8460628906
 40
0.9283603823
 40
0.957663703
 40
0.9790629538
 40
0.9868557248
 40
0.9927982091
 40
1.0
 40
1.0
 40
1.0
 40
1.0
 10
-736.2141322849
 20
230.9387893333
 30
0.0
 10
-736.4264943947
 20
230.9464642039
 30
0.0
 10
-736.8282886585
 20
230.9624294382
 30
0.0
 10
-737.3941921715
 20
230.9900431737
 30
0.0
 10
-737.8848090752
 20
231.0196338327
 30
0.0
 10
-738.2943977844
 20
231.050516505
 30
0.0
 10
-738.6181777935
 20
231.0824826702
 30
0.0
 10
-738.8324427872
 20
231.1108412679
 30
0.0
 10
-738.9578849422
 20
231.1359242781
 30
0.0
 10
-739.0121063854
 20
231.1503184272
 30
0.0
 10
-739.0437833275
 20
231.1630585562
 30
0.0
 10
-739.0609497167
 20
231.1721398522
 30
0.0
 10
-739.0718285785
 20
231.1826739308
 30
0.0
 10
-739.0718314074
 20
231.1895928304
 30
0.0
  0
SPLINE
  5
690
100
AcDbEntity
  8
0
100
AcDbSpline
 62
9
  6
CONTINUOUS
 70
0
 71
3
 72
11
 73
7
 74
0
 42
0.0000001
 43
0.0000001
 44
0.0000000001
 40
0.0
 40
0.0
 40
0.0
 40
0.0
 40
0.2499339304
 40
0.4998844927
 40
0.7498950133
 40
1.0
 40
1.0
 40
1.0
 40
1.0
 10
-739.0718314074
 20
299.2211060896
 30
0.0
 10
-739.0718316977
 20
298.6613707451
 30
0.0
 10
-738.9543875328
 20
297.5383800528
 30
0.0
 10
-738.4330213589
 20
295.9294869685
 30
0.0
 10
-737.5891491251
 20
294.4633063891
 30
0.0
 10
-736.8338488547
 20
293.6231499777
 30
0.0
 10
-736.4178084382
 20
293.2481259408
 30
0.0
  0
SPLINE
  5
691
100
AcDbEntity
  8
0
100
AcDbSpline
 62
9
  6
CONTINUOUS
 70
0
 71
3
 72
18
 73
14
 74
0
 42
0.0000001
 43
0.0000001
 44
0.0000000001
 40
0.0
 40
0.0
 40
0.0
 40
0.0
 40
0.0072017908
 40
0.0131442752
 40
0.0209370462
 40
0.042336297
 40
0.0716396177
 40
0.1539371094
 40
0.267217597
 40
0.4102684702
 40
0.5814528646
 40
0.7788108047
 40
1.0
 40
1.0
 40
1.0
 40
1.0
 10
-739.0718314074
 20
215.1895928304
 30
0.0
 10
-739.0718285786
 20
215.19651173
 30
0.0
 10
-739.0609497167
 20
215.2070458086
 30
0.0
 10
-739.0437833275
 20
215.2161271046
 30
0.0
 10
-739.0121063854
 20
215.2288672337
 30
0.0
 10
-738.9578849422
 20
215.2432613828
 30
0.0
 10
-738.8324427872
 20
215.2683443928
 30
0.0
 10
-738.6181777936
 20
215.2967029908
 30
0.0
 10
-738.2943977844
 20
215.3286691556
 30
0.0
 10
-737.8848090752
 20
215.3595518282
 30
0.0
 10
-737.3941921715
 20
215.3891424873
 30
0.0
 10
-736.8282886585
 20
215.4167562221
 30
0.0
 10
-736.4264943948
 20
215.4327214575
 30
0.0
 10
-736.2141322849
 20
215.4403963275
 30
0.0
  0
SPLINE
  5
692
100
AcDbEntity
  8
0
100
AcDbSpline
 62
7
  6
CONTINUOUS
 70
0
 71
3
 72
9
 73
5
 74
0
 42
0.0000001
 43
0.0000001
 44
0.0000000001
 40
0.0
 40
0.0
 40
0.0
 40
0.0
 40
0.2540594065
 40
1.0
 40
1.0
 40
1.0
 40
1.0
 10
-993.0835952887
 20
73.8425361274
 30
0.0
 10
-993.1595810608
 20
74.3105704671
 30
0.0
 10
-993.42965848
 20
76.157042781
 30
0.0
 10
-993.5718269971
 20
78.0249265388
 30
0.0
 10
-993.5718314074
 20
79.4171087304
 30
0.0
  0
SPLINE
  5
693
100
AcDbEntity
  8
0
100
AcDbSpline
 62
7
  6
CONTINUOUS
 70
0
 71
3
 72
19
 73
15
 74
0
 42
0.0000001
 43
0.0000001
 44
0.0000000001
 40
0.0
 40
0.0
 40
0.0
 40
0.0
 40
0.1176443505
 40
0.2372671555
 40
0.3588878277
 40
0.4824727569
 40
0.6080020148
 40
0.671543631
 40
0.7356342061
 40
0.800349089
 40
0.8658325636
 40
0.9322847137
 40
0.9660519732
 40
1.0
 40
1.0
 40
1.0
 40
1.0
 10
-785.0718314074
 20
346.6222073951
 30
0.0
 10
-785.0718314074
 20
345.1621177188
 30
0.0
 10
-785.222747723
 20
342.2159649833
 30
0.0
 10
-785.8419072755
 20
337.8002393683
 30
0.0
 10
-786.8323383596
 20
333.3768703848
 30
0.0
 10
-788.1969109028
 20
328.9776301249
 30
0.0
 10
-789.6721708472
 20
325.3807544217
 30
0.0
 10
-791.1091666518
 20
322.5844295717
 30
0.0
 10
-792.3491175577
 20
320.5416734359
 30
0.0
 10
-793.7891827379
 20
318.6011314776
 30
0.0
 10
-795.4932909267
 20
316.8429222741
 30
0.0
 10
-797.2235264584
 20
315.6757790156
 30
0.0
 10
-798.8073684535
 20
315.1304906424
 30
0.0
 10
-799.6505008183
 20
315.0303608636
 30
0.0
 10
-800.0718314074
 20
315.0303608636
 30
0.0
  0
SPLINE
  5
694
100
AcDbEntity
  8
0
100
AcDbSpline
 62
7
  6
CONTINUOUS
 70
0
 71
3
 72
20
 73
16
 74
0
 42
0.0000001
 43
0.0000001
 44
0.0000000001
 40
0.0
 40
0.0
 40
0.0
 40
0.0
 40
0.0339469752
 40
0.0677220035
 40
0.101184562
 40
0.1343211761
 40
0.1997871713
 40
0.2644854548
 40
0.3285628709
 40
0.3920932613
 40
0.5176009518
 40
0.641164443
 40
0.7627652513
 40
0.8823708578
 40
1.0
 40
1.0
 40
1.0
 40
1.0
 10
-855.0718314074
 20
315.0303608636
 30
0.0
 10
-855.4932150904
 20
315.0303608636
 30
0.0
 10
-856.3364200432
 20
315.1310659116
 30
0.0
 10
-857.5315617716
 20
315.5413230381
 30
0.0
 10
-858.6237410613
 20
316.1517070807
 30
0.0
 10
-859.9371448659
 20
317.1386505815
 30
0.0
 10
-861.3555331579
 20
318.6022732621
 30
0.0
 10
-862.7944483072
 20
320.5416289647
 30
0.0
 10
-864.0346189614
 20
322.5845251498
 30
0.0
 10
-865.4714990428
 20
325.3806937248
 30
0.0
 10
-866.9467173191
 20
328.9775745071
 30
0.0
 10
-868.3113229585
 20
333.3767255214
 30
0.0
 10
-869.3017148351
 20
337.8000936256
 30
0.0
 10
-869.9208932766
 20
342.2158643987
 30
0.0
 10
-870.0718314074
 20
345.162077268
 30
0.0
 10
-870.0718314074
 20
346.6222073951
 30
0.0
  0
SPLINE
  5
695
100
AcDbEntity
  8
0
100
AcDbSpline
 62
9
  6
CONTINUOUS
 70
0
 71
3
 72
11
 73
7
 74
0
 42
0.0000001
 43
0.0000001
 44
0.0000000001
 40
0.0
 40
0.0
 40
0.0
 40
0.0
 40
0.248514947
 40
0.4978040447
 40
0.7482729083
 40
1.0
 40
1.0
 40
1.0
 40
1.0
 10
-753.5718314074
 20
403.1895928336
 30
0.0
 10
-753.5727124865
 20
405.6590397217
 30
0.0
 10
-754.212503729
 20
410.6287224356
 30
0.0
 10
-757.0354204046
 20
417.5922575551
 30
0.0
 10
-761.5331844487
 20
423.6498161517
 30
0.0
 10
-765.4640988977
 20
426.8239131792
 30
0.0
 10
-767.5906870498
 20
428.1408992685
 30
0.0
  0
SPLINE
  5
696
100
AcDbEntity
  8
0
100
AcDbSpline
 62
9
  6
CONTINUOUS
 70
0
 71
3
 72
15
 73
11
 74
0
 42
0.0000001
 43
0.0000001
 44
0.0000000001
 40
0.0
 40
0.0
 40
0.0
 40
0.0
 40
0.0113783841
 40
0.0457821714
 40
0.1051749007
 40
0.1932779087
 40
0.4841062346
 40
0.7102504495
 40
0.8483897342
 40
1.0
 40
1.0
 40
1.0
 40
1.0
 10
-983.9042659341
 20
42.1307765182
 30
0.0
 10
-983.9314249677
 20
42.2531189996
 30
0.0
 10
-984.0344154458
 20
42.7467483999
 30
0.0
 10
-984.2936985208
 20
43.8758407968
 30
0.0
 10
-984.7782288347
 20
45.8199577612
 30
0.0
 10
-986.0888611331
 20
50.4674776772
 30
0.0
 10
-988.2512998284
 20
56.773697111
 30
0.0
 10
-990.5671777568
 20
63.6082603148
 30
0.0
 10
-992.1341065454
 20
69.0715483368
 30
0.0
 10
-992.8163580392
 20
72.1942335611
 30
0.0
 10
-993.0835952887
 20
73.8425361274
 30
0.0
  0
SPLINE
  5
697
100
AcDbEntity
  8
0
100
AcDbSpline
 62
9
  6
CONTINUOUS
 70
0
 71
3
 72
14
 73
10
 74
0
 42
0.0000001
 43
0.0000001
 44
0.0000000001
 40
0.0
 40
0.0
 40
0.0
 40
0.0
 40
0.0613270257
 40
0.1377013001
 40
0.2358385855
 40
0.356481581
 40
0.4976196416
 40
0.6554714957
 40
1.0
 40
1.0
 40
1.0
 40
1.0
 10
-993.5724841407
 20
79.4171086599
 30
0.0
 10
-993.5724239363
 20
79.3260796636
 30
0.0
 10
-993.641645721
 20
79.1214171392
 30
0.0
 10
-993.892498957
 20
78.8684382895
 30
0.0
 10
-994.2708049041
 20
78.6424385009
 30
0.0
 10
-994.7689971831
 20
78.4451100949
 30
0.0
 10
-995.3714733364
 20
78.2830267591
 30
0.0
 10
-996.3129786811
 20
78.1171953267
 30
0.0
 10
-997.0604403791
 20
78.0710132543
 30
0.0
 10
-997.5718314074
 20
78.0709834499
 30
0.0
  0
SPLINE
  5
698
100
AcDbEntity
  8
0
100
AcDbSpline
 62
9
  6
CONTINUOUS
 70
0
 71
3
 72
9
 73
5
 74
0
 42
0.0000001
 43
0.0000001
 44
0.0000000001
 40
0.0
 40
0.0
 40
0.0
 40
0.0
 40
0.2549688742
 40
1.0
 40
1.0
 40
1.0
 40
1.0
 10
-997.0184971396
 20
73.1895928304
 30
0.0
 10
-997.1058856687
 20
73.5983065683
 30
0.0
 10
-997.4154263897
 20
75.2078242757
 30
0.0
 10
-997.5717603203
 20
76.8498947421
 30
0.0
 10
-997.5718314074
 20
78.0711695799
 30
0.0
  0
SPLINE
  5
699
100
AcDbEntity
  8
0
100
AcDbSpline
 62
7
  6
CONTINUOUS
 70
0
 71
3
 72
11
 73
7
 74
0
 42
0.0000001
 43
0.0000001
 44
0.0000000001
 40
0.0
 40
0.0
 40
0.0
 40
0.0
 40
0.2500307692
 40
0.5000635456
 40
0.75004604
 40
1.0
 40
1.0
 40
1.0
 40
1.0
 10
-993.5718314074
 20
397.3539491981
 30
0.0
 10
-993.5718314074
 20
399.2237477595
 30
0.0
 10
-993.2709794296
 20
402.9705280473
 30
0.0
 10
-991.9093389346
 20
408.4375989964
 30
0.0
 10
-989.6503966699
 20
413.5998036496
 30
0.0
 10
-987.5674013118
 20
416.7323228082
 30
0.0
 10
-986.3967762459
 20
418.1895928304
 30
0.0
  0
SPLINE
  5
69A
100
AcDbEntity
  8
0
100
AcDbSpline
 62
9
  6
CONTINUOUS
 70
0
 71
3
 72
27
 73
23
 74
0
 42
0.0000001
 43
0.0000001
 44
0.0000000001
 40
0.0
 40
0.0
 40
0.0
 40
0.0
 40
0.0006880283
 40
0.0015475005
 40
0.0027519086
 40
0.0062012837
 40
0.0110476992
 40
0.0173070308
 40
0.0250044108
 40
0.0341665856
 40
0.0448279145
 40
0.0708203461
 40
0.1033961341
 40
0.1431043644
 40
0.1906565517
 40
0.2469620619
 40
0.3131709085
 40
0.3907164657
 40
0.4813298674
 40
0.7093048783
 40
0.8484760584
 40
1.0
 40
1.0
 40
1.0
 40
1.0
 10
-986.615251069
 20
43.1895763152
 30
0.0
 10
-986.6205067467
 20
43.1946273146
 30
0.0
 10
-986.6186867244
 20
43.2137921292
 30
0.0
 10
-986.6283337991
 20
43.2404940112
 30
0.0
 10
-986.6402254688
 20
43.2982612381
 30
0.0
 10
-986.6649718205
 20
43.3954188015
 30
0.0
 10
-986.7007192856
 20
43.5456228448
 30
0.0
 10
-986.7484373843
 20
43.7389576796
 30
0.0
 10
-986.8076670962
 20
43.9766513645
 30
0.0
 10
-986.8795158022
 20
44.2592236963
 30
0.0
 10
-987.0014324775
 20
44.7290693887
 30
0.0
 10
-987.1921841702
 20
45.4373065944
 30
0.0
 10
-987.476745966
 20
46.4389020693
 30
0.0
 10
-987.8428937753
 20
47.6546312372
 30
0.0
 10
-988.3064396089
 20
49.1033759895
 30
0.0
 10
-988.8861451739
 20
50.8094547086
 30
0.0
 10
-989.6035237633
 20
52.8040198162
 30
0.0
 10
-990.4822857553
 20
55.1264543239
 30
0.0
 10
-992.0198019104
 20
59.0315739207
 30
0.0
 10
-993.8631165706
 20
63.51812289
 30
0.0
 10
-995.8004668579
 20
68.6600422582
 30
0.0
 10
-996.6825093874
 20
71.619817005
 30
0.0
 10
-997.0184971396
 20
73.1895928304
 30
0.0
  0
SPLINE
  5
69B
100
AcDbEntity
  8
0
100
AcDbSpline
 62
7
  6
CONTINUOUS
 70
0
 71
3
 72
11
 73
7
 74
0
 42
0.0000001
 43
0.0000001
 44
0.0000000001
 40
0.0
 40
0.0
 40
0.0
 40
0.0
 40
0.2706807018
 40
0.5283234089
 40
0.7706968086
 40
1.0
 40
1.0
 40
1.0
 40
1.0
 10
-986.3967762459
 20
418.1895928304
 30
0.0
 10
-984.8401088078
 20
420.1274334407
 30
0.0
 10
-981.4739946832
 20
423.6584349473
 30
0.0
 10
-975.7969078422
 20
427.9358343193
 30
0.0
 10
-969.8182283911
 20
431.0251658574
 30
0.0
 10
-965.6402772994
 20
432.2850480062
 30
0.0
 10
-963.5718314074
 20
432.6792771351
 30
0.0
  0
SPLINE
  5
69C
100
AcDbEntity
  8
0
100
AcDbSpline
 62
9
  6
CONTINUOUS
 70
0
 71
3
 72
22
 73
18
 74
0
 42
0.0000001
 43
0.0000001
 44
0.0000000001
 40
0.0
 40
0.0
 40
0.0
 40
0.0
 40
0.1948530661
 40
0.3822715406
 40
0.555085446
 40
0.7066591158
 40
0.7726126713
 40
0.8311434813
 40
0.8816681331
 40
0.9237070721
 40
0.9568347048
 40
0.9699570268
 40
0.9807374957
 40
0.9891446673
 40
0.9951641672
 40
0.9987859575
 40
1.0
 40
1.0
 40
1.0
 40
1.0
 10
1998.8184641209
 20
403.1895928336
 30
0.0
 10
1998.4220190106
 20
405.1022715849
 30
0.0
 10
1997.6461470369
 20
408.8550486948
 30
0.0
 10
1996.5392664751
 20
414.3083932608
 30
0.0
 10
1995.5309671526
 20
419.3390185589
 30
0.0
 10
1994.771492182
 20
423.1776431159
 30
0.0
 10
1994.2384132148
 20
425.8931985523
 30
0.0
 10
1993.9019293918
 20
427.6150314584
 30
0.0
 10
1993.6125997755
 20
429.1018100436
 30
0.0
 10
1993.3726598637
 20
430.3387599404
 30
0.0
 10
1993.2046503861
 20
431.2077403218
 30
0.0
 10
1993.0960576058
 20
431.7690292586
 30
0.0
 10
1993.0350628818
 20
432.0871575466
 30
0.0
 10
1992.9862783653
 20
432.3350276837
 30
0.0
 10
1992.9542226865
 20
432.5132688333
 30
0.0
 10
1992.929843067
 20
432.619111778
 30
0.0
 10
1992.9246360059
 20
432.6677707506
 30
0.0
 10
1992.9206915953
 20
432.6792841735
 30
0.0
  0
SPLINE
  5
69D
100
AcDbEntity
  8
0
100
AcDbSpline
 62
9
  6
CONTINUOUS
 70
0
 71
3
 72
16
 73
12
 74
0
 42
0.0000001
 43
0.0000001
 44
0.0000000001
 40
0.0
 40
0.0
 40
0.0
 40
0.0
 40
0.0081284712
 40
0.0239122342
 40
0.0819672805
 40
0.1748485159
 40
0.2989767945
 40
0.4497861694
 40
0.621547133
 40
0.8077561566
 40
1.0
 40
1.0
 40
1.0
 40
1.0
 10
2090.6792799706
 20
432.6792631192
 30
0.0
 10
2090.690020753
 20
432.6763876746
 30
0.0
 10
2090.7223488693
 20
432.6978392966
 30
0.0
 10
2090.7830649717
 20
432.7871161488
 30
0.0
 10
2090.8852187896
 20
432.996511379
 30
0.0
 10
2091.021961419
 20
433.344530082
 30
0.0
 10
2091.190255658
 20
433.8198469266
 30
0.0
 10
2091.3789361391
 20
434.4006973185
 30
0.0
 10
2091.5820534453
 20
435.0665185806
 30
0.0
 10
2091.790420731
 20
435.789732001
 30
0.0
 10
2091.9270877882
 20
436.2890835166
 30
0.0
 10
2091.9947844675
 20
436.5431929496
 30
0.0
  0
SPLINE
  5
69E
100
AcDbEntity
  8
0
100
AcDbSpline
 62
9
  6
CONTINUOUS
 70
0
 71
3
 72
14
 73
10
 74
0
 42
0.0000001
 43
0.0000001
 44
0.0000000001
 40
0.0
 40
0.0
 40
0.0
 40
0.0
 40
0.0277361882
 40
0.087002183
 40
0.1797943123
 40
0.303127719
 40
0.4527680692
 40
0.6232693918
 40
1.0
 40
1.0
 40
1.0
 40
1.0
 10
2086.7999733315
 20
433.1893797897
 30
0.0
 10
2086.8375493036
 20
433.1893728854
 30
0.0
 10
2086.9155588632
 20
433.31323338
 30
0.0
 10
2086.9738857542
 20
433.5308953142
 30
0.0
 10
2087.0470910428
 20
433.9066844654
 30
0.0
 10
2087.1053613771
 20
434.3951668212
 30
0.0
 10
2087.1565294953
 20
434.9952191717
 30
0.0
 10
2087.2081026778
 20
435.9374446308
 30
0.0
 10
2087.2224565526
 20
436.6792119885
 30
0.0
 10
2087.2224525681
 20
437.1895928287
 30
0.0
  0
SPLINE
  5
69F
100
AcDbEntity
  8
0
100
AcDbSpline
 62
9
  6
CONTINUOUS
 70
0
 71
3
 72
22
 73
18
 74
0
 42
0.0000001
 43
0.0000001
 44
0.0000000001
 40
0.0
 40
0.0
 40
0.0
 40
0.0
 40
0.0012140424
 40
0.0048358327
 40
0.0108553327
 40
0.0192625044
 40
0.0300429732
 40
0.0431652952
 40
0.0762929278
 40
0.1183318669
 40
0.1688565187
 40
0.2273873287
 40
0.2933408842
 40
0.444914554
 40
0.6177284594
 40
0.8051469338
 40
1.0
 40
1.0
 40
1.0
 40
1.0
 10
2090.6792551623
 20
432.6792841734
 30
0.0
 10
2090.6753105166
 20
432.6677708315
 30
0.0
 10
2090.670104022
 20
432.6191116646
 30
0.0
 10
2090.6457238593
 20
432.5132689071
 30
0.0
 10
2090.6136684922
 20
432.3350276501
 30
0.0
 10
2090.5648838399
 20
432.0871575593
 30
0.0
 10
2090.5038891662
 20
431.7690292534
 30
0.0
 10
2090.395296356
 20
431.2077403263
 30
0.0
 10
2090.2272868931
 20
430.3387599397
 30
0.0
 10
2089.9873469922
 20
429.1018100418
 30
0.0
 10
2089.6980173792
 20
427.6150314557
 30
0.0
 10
2089.3615335105
 20
425.8931985589
 30
0.0
 10
2088.8284545447
 20
423.1776431222
 30
0.0
 10
2088.0689797946
 20
419.3390185205
 30
0.0
 10
2087.0606798305
 20
414.3083933542
 30
0.0
 10
2085.9538010504
 20
408.8550484187
 30
0.0
 10
2085.1779238887
 20
405.1022723847
 30
0.0
 10
2084.7814826364
 20
403.1895928336
 30
0.0
  0
SPLINE
  5
6A0
100
AcDbEntity
  8
0
100
AcDbSpline
 62
9
  6
CONTINUOUS
 70
0
 71
3
 72
33
 73
29
 74
0
 42
0.0000001
 43
0.0000001
 44
0.0000000001
 40
0.0
 40
0.0
 40
0.0
 40
0.0
 40
0.1397367457
 40
0.2793368314
 40
0.417999585
 40
0.4867307402
 40
0.5548879488
 40
0.6223037584
 40
0.6887505946
 40
0.7538937562
 40
0.7858235272
 40
0.8171973575
 40
0.8478875711
 40
0.8776961974
 40
0.9063480962
 40
0.9334011253
 40
0.946111803
 40
0.9581136781
 40
0.9692306104
 40
0.979191832
 40
0.9876942836
 40
0.991264062
 40
0.9942967523
 40
0.9967308957
 40
0.9985179041
 40
0.9991569273
 40
0.9996200665
 40
1.0
 40
1.0
 40
1.0
 40
1.0
 10
2091.9947846709
 20
436.5431929496
 30
0.0
 10
2095.9138630856
 20
435.4632341308
 30
0.0
 10
2103.6794627847
 20
433.0450672875
 30
0.0
 10
2115.0324953691
 20
428.6653118103
 30
0.0
 10
2124.1950682174
 20
424.4088695806
 30
0.0
 10
2131.2857276094
 20
420.6669233287
 30
0.0
 10
2136.4458764561
 20
417.7151967663
 30
0.0
 10
2141.4448301443
 20
414.6225918424
 30
0.0
 10
2146.2593234586
 20
411.4052479562
 30
0.0
 10
2150.1175071913
 20
408.6204312582
 30
0.0
 10
2153.0837841085
 20
406.3476161536
 30
0.0
 10
2155.2214592719
 20
404.6421983534
 30
0.0
 10
2157.2764230944
 20
402.9329402888
 30
0.0
 10
2159.2345451613
 20
401.2319811999
 30
0.0
 10
2161.0752781706
 20
399.5581972179
 30
0.0
 10
2162.5150541146
 20
398.1836713213
 30
0.0
 10
2163.5837337524
 20
397.1225928008
 30
0.0
 10
2164.313642379
 20
396.3784380665
 30
0.0
 10
2164.9780597655
 20
395.6822252189
 30
0.0
 10
2165.5644083101
 20
395.0523170292
 30
0.0
 10
2165.994984931
 20
394.5774808518
 30
0.0
 10
2166.287538173
 20
394.2495624634
 30
0.0
 10
2166.4613940511
 20
394.0524438751
 30
0.0
 10
2166.6011415229
 20
393.8941225683
 30
0.0
 10
2166.6928173676
 20
393.7868855777
 30
0.0
 10
2166.7496051762
 20
393.7243120189
 30
0.0
 10
2166.7746681601
 20
393.6900009037
 30
0.0
 10
2166.7968151647
 20
393.6747144846
 30
0.0
 10
2166.7999733787
 20
393.6641224559
 30
0.0
  0
SPLINE
  5
6A1
100
AcDbEntity
  8
0
100
AcDbSpline
 62
9
  6
CONTINUOUS
 70
0
 71
3
 72
18
 73
14
 74
0
 42
0.0000001
 43
0.0000001
 44
0.0000000001
 40
0.0
 40
0.0
 40
0.0
 40
0.0
 40
0.0048340252
 40
0.01925579
 40
0.0431510112
 40
0.0762693787
 40
0.1182984822
 40
0.1688139346
 40
0.2932860141
 40
0.4448596591
 40
0.6176858323
 40
0.8051243853
 40
1.0
 40
1.0
 40
1.0
 40
1.0
 10
1996.7999471234
 20
433.1895922723
 30
0.0
 10
1996.806069817
 20
433.1415311321
 30
0.0
 10
1996.8116404606
 20
432.9482677735
 30
0.0
 10
1996.8468742307
 20
432.5173757122
 30
0.0
 10
1996.890042052
 20
431.8025797562
 30
0.0
 10
1996.9570396582
 20
430.8122269219
 30
0.0
 10
1997.0394276028
 20
429.5554337894
 30
0.0
 10
1997.1833885398
 20
427.3851382396
 30
0.0
 10
1997.4001423041
 20
424.1193211073
 30
0.0
 10
1997.7005512489
 20
419.630494676
 30
0.0
 10
1998.0448696407
 20
414.5121033204
 30
0.0
 10
1998.4229113417
 20
408.9610045542
 30
0.0
 10
1998.6831173888
 20
405.1380606915
 30
0.0
 10
1998.8184641215
 20
403.1895928304
 30
0.0
  0
SPLINE
  5
6A2
100
AcDbEntity
  8
0
100
AcDbSpline
 62
9
  6
CONTINUOUS
 70
0
 71
3
 72
18
 73
14
 74
0
 42
0.0000001
 43
0.0000001
 44
0.0000000001
 40
0.0
 40
0.0
 40
0.0
 40
0.0
 40
0.1948756147
 40
0.3823141677
 40
0.5551403408
 40
0.7067139859
 40
0.8311860654
 40
0.8817015178
 40
0.9237306213
 40
0.9568489888
 40
0.98074421
 40
0.9951659748
 40
1.0
 40
1.0
 40
1.0
 40
1.0
 10
2084.7814826358
 20
403.1895928304
 30
0.0
 10
2084.9168333012
 20
405.1380604185
 30
0.0
 10
2085.1770340658
 20
408.9610046486
 30
0.0
 10
2085.5550775677
 20
414.5121032888
 30
0.0
 10
2085.8993953225
 20
419.6304946883
 30
0.0
 10
2086.1998045214
 20
424.1193211022
 30
0.0
 10
2086.4165582114
 20
427.38513824
 30
0.0
 10
2086.5605191421
 20
429.5554337901
 30
0.0
 10
2086.642907103
 20
430.8122269215
 30
0.0
 10
2086.7099047088
 20
431.8025797559
 30
0.0
 10
2086.7530725282
 20
432.5173757124
 30
0.0
 10
2086.7883062913
 20
432.9482677745
 30
0.0
 10
2086.7938769424
 20
433.1415311322
 30
0.0
 10
2086.7999996336
 20
433.1895922723
 30
0.0
  0
SPLINE
  5
6A3
100
AcDbEntity
  8
0
100
AcDbSpline
 62
9
  6
CONTINUOUS
 70
0
 71
3
 72
11
 73
7
 74
0
 42
0.0000001
 43
0.0000001
 44
0.0000000001
 40
0.0
 40
0.0
 40
0.0
 40
0.0
 40
0.2500043589
 40
0.5000039987
 40
0.7500015826
 40
1.0
 40
1.0
 40
1.0
 40
1.0
 10
1199.5192213173
 20
-476.192069039
 30
0.0
 10
1199.5192081601
 20
-475.8275526323
 30
0.0
 10
1199.4397748822
 20
-475.0960827873
 30
0.0
 10
1199.0875436487
 20
-474.0520496254
 30
0.0
 10
1198.5189266404
 20
-473.1082229061
 30
0.0
 10
1198.0116871712
 20
-472.5751186156
 30
0.0
 10
1197.7331593657
 20
-472.3399842774
 30
0.0
  0
SPLINE
  5
6A4
100
AcDbEntity
  8
0
100
AcDbSpline
 62
9
  6
CONTINUOUS
 70
0
 71
3
 72
11
 73
7
 74
0
 42
0.0000001
 43
0.0000001
 44
0.0000000001
 40
0.0
 40
0.0
 40
0.0
 40
0.0
 40
0.1637100438
 40
0.4006069181
 40
0.68777431
 40
1.0
 40
1.0
 40
1.0
 40
1.0
 10
1203.7790882505
 20
-358.5896816432
 30
0.0
 10
1203.811159691
 20
-358.4219732772
 30
0.0
 10
1203.8708788849
 20
-358.008127249
 30
0.0
 10
1203.9454172957
 20
-357.2945858831
 30
0.0
 10
1204.002820903
 20
-356.4240099975
 30
0.0
 10
1204.0192116852
 20
-355.7988072095
 30
0.0
 10
1204.0192117721
 20
-355.4731599716
 30
0.0
  0
SPLINE
  5
6A5
100
AcDbEntity
  8
0
100
AcDbSpline
 62
9
  6
CONTINUOUS
 70
0
 71
3
 72
15
 73
11
 74
0
 42
0.0000001
 43
0.0000001
 44
0.0000000001
 40
0.0
 40
0.0
 40
0.0
 40
0.0
 40
0.1245016175
 40
0.2490566544
 40
0.3737531405
 40
0.498635623
 40
0.6237284471
 40
0.7490217694
 40
0.8744638449
 40
1.0
 40
1.0
 40
1.0
 40
1.0
 10
1134.5192213173
 20
-353.666501067
 30
0.0
 10
1134.5192287001
 20
-353.9258300036
 30
0.0
 10
1134.5707565696
 20
-354.4460589457
 30
0.0
 10
1134.7998051291
 20
-355.1951755837
 30
0.0
 10
1135.1717342282
 20
-355.8858186653
 30
0.0
 10
1135.6723537196
 20
-356.49106481
 30
0.0
 10
1136.2823904639
 20
-356.9877704347
 30
0.0
 10
1136.9785009502
 20
-357.3568123708
 30
0.0
 10
1137.7335358371
 20
-357.5841042086
 30
0.0
 10
1138.2577375049
 20
-357.6352321937
 30
0.0
 10
1138.5192213173
 20
-357.635242562
 30
0.0
  0
SPLINE
  5
6A6
100
AcDbEntity
  8
0
100
AcDbSpline
 62
9
  6
CONTINUOUS
 70
0
 71
3
 72
11
 73
7
 74
0
 42
0.0000001
 43
0.0000001
 44
0.0000000001
 40
0.0
 40
0.0
 40
0.0
 40
0.0
 40
0.3123150576
 40
0.599625108
 40
0.836601476
 40
1.0
 40
1.0
 40
1.0
 40
1.0
 10
1204.019211773
 20
-443.4731599716
 30
0.0
 10
1204.0192116851
 20
-443.1474331318
 30
0.0
 10
1204.0024508207
 20
-442.5220110496
 30
0.0
 10
1203.9441138715
 20
-441.6512188319
 30
0.0
 10
1203.8692257969
 20
-440.9378216657
 30
0.0
 10
1203.8100089336
 20
-440.5242250939
 30
0.0
 10
1203.7790883589
 20
-440.3566383551
 30
0.0
  0
SPLINE
  5
6A7
100
AcDbEntity
  8
0
100
AcDbSpline
 62
9
  6
CONTINUOUS
 70
0
 71
3
 72
9
 73
5
 74
0
 42
0.0000001
 43
0.0000001
 44
0.0000000001
 40
0.0
 40
0.0
 40
0.0
 40
0.0
 40
0.4956959773
 40
1.0
 40
1.0
 40
1.0
 40
1.0
 10
1203.7790883589
 20
-440.3566383551
 30
0.0
 10
1203.769815854
 20
-440.3063813249
 30
0.0
 10
1203.736504937
 20
-440.2065565763
 30
0.0
 10
1203.6698361549
 20
-440.1248830156
 30
0.0
 10
1203.6313577299
 20
-440.0899165193
 30
0.0
  0
SPLINE
  5
6A8
100
AcDbEntity
  8
0
100
AcDbSpline
 62
9
  6
CONTINUOUS
 70
0
 71
3
 72
9
 73
5
 74
0
 42
0.0000001
 43
0.0000001
 44
0.0000000001
 40
0.0
 40
0.0
 40
0.0
 40
0.0
 40
0.2400483714
 40
1.0
 40
1.0
 40
1.0
 40
1.0
 10
1203.605143117
 20
-440.0675309515
 30
0.0
 10
1203.5985005967
 20
-440.0621939759
 30
0.0
 10
1203.5703515947
 20
-440.040556895
 30
0.0
 10
1203.5404209402
 20
-440.0212798632
 30
0.0
 10
1203.5170509721
 20
-440.0078062134
 30
0.0
  0
SPLINE
  5
6A9
100
AcDbEntity
  8
0
100
AcDbSpline
 62
9
  6
CONTINUOUS
 70
0
 71
3
 72
11
 73
7
 74
0
 42
0.0000001
 43
0.0000001
 44
0.0000000001
 40
0.0
 40
0.0
 40
0.0
 40
0.0
 40
0.2500451975
 40
0.5000478053
 40
0.7500254781
 40
1.0
 40
1.0
 40
1.0
 40
1.0
 10
1199.6615221948
 20
-328.8907424609
 30
0.0
 10
1200.1066084726
 20
-328.5167802392
 30
0.0
 10
1200.9176267818
 20
-327.668659878
 30
0.0
 10
1201.8277851013
 20
-326.165615061
 30
0.0
 10
1202.3919473462
 20
-324.5017029123
 30
0.0
 10
1202.5192120865
 20
-323.3354208631
 30
0.0
 10
1202.5192213173
 20
-322.7542509043
 30
0.0
  0
SPLINE
  5
6AA
100
AcDbEntity
  8
0
100
AcDbSpline
 62
9
  6
CONTINUOUS
 70
0
 71
3
 72
9
 73
5
 74
0
 42
0.0000001
 43
0.0000001
 44
0.0000000001
 40
0.0
 40
0.0
 40
0.0
 40
0.0
 40
0.2616297948
 40
1.0
 40
1.0
 40
1.0
 40
1.0
 10
1203.5171330549
 20
-358.9384663998
 30
0.0
 10
1203.5253979246
 20
-358.9337001376
 30
0.0
 10
1203.556668924
 20
-358.9149425359
 30
0.0
 10
1203.58660491
 20
-358.8939027546
 30
0.0
 10
1203.607518142
 20
-358.8769429887
 30
0.0
  0
SPLINE
  5
6AB
100
AcDbEntity
  8
0
100
AcDbSpline
 62
9
  6
CONTINUOUS
 70
0
 71
3
 72
9
 73
5
 74
0
 42
0.0000001
 43
0.0000001
 44
0.0000000001
 40
0.0
 40
0.0
 40
0.0
 40
0.0
 40
0.5029782956
 40
1.0
 40
1.0
 40
1.0
 40
1.0
 10
1203.631845282
 20
-358.8560511477
 30
0.0
 10
1203.6701106626
 20
-358.8212101733
 30
0.0
 10
1203.7364244984
 20
-358.7394837458
 30
0.0
 10
1203.7694831913
 20
-358.6399093145
 30
0.0
 10
1203.7790882505
 20
-358.5896816432
 30
0.0
  0
SPLINE
  5
6AC
100
AcDbEntity
  8
0
100
AcDbSpline
 62
9
  6
CONTINUOUS
 70
0
 71
3
 72
11
 73
7
 74
0
 42
0.0000001
 43
0.0000001
 44
0.0000000001
 40
0.0
 40
0.0
 40
0.0
 40
0.0
 40
0.2499745219
 40
0.4999521947
 40
0.7499548025
 40
1.0
 40
1.0
 40
1.0
 40
1.0
 10
1202.5192213173
 20
-476.192069039
 30
0.0
 10
1202.5192120866
 20
-475.6108990801
 30
0.0
 10
1202.3919473462
 20
-474.4446170309
 30
0.0
 10
1201.8277851013
 20
-472.7807048823
 30
0.0
 10
1200.9176267818
 20
-471.2776600653
 30
0.0
 10
1200.1066084727
 20
-470.429539704
 30
0.0
 10
1199.6615221948
 20
-470.0555774823
 30
0.0
  0
LINE
  5
6AD
100
AcDbEntity
  8
0
100
AcDbLine
 62
9
  6
CONTINUOUS
 10
1204.0192213207
 20
-485.2236443103
 11
1204.0192213206
 21
-469.4731599716
  0
SPLINE
  5
6AE
100
AcDbEntity
  8
0
100
AcDbSpline
 62
9
  6
CONTINUOUS
 70
0
 71
3
 72
11
 73
7
 74
0
 42
0.0000001
 43
0.0000001
 44
0.0000000001
 40
0.0
 40
0.0
 40
0.0
 40
0.0
 40
0.2499984174
 40
0.4999960013
 40
0.7499956411
 40
1.0
 40
1.0
 40
1.0
 40
1.0
 10
1197.7331593657
 20
-326.6063356658
 30
0.0
 10
1198.0116871717
 20
-326.3712013282
 30
0.0
 10
1198.5189266401
 20
-325.8380970367
 30
0.0
 10
1199.0875436488
 20
-324.8942703179
 30
0.0
 10
1199.4397748822
 20
-323.8502371559
 30
0.0
 10
1199.5192081601
 20
-323.1187673109
 30
0.0
 10
1199.5192213173
 20
-322.7542509043
 30
0.0
  0
SPLINE
  5
6AF
100
AcDbEntity
  8
0
100
AcDbSpline
 62
9
  6
CONTINUOUS
 70
0
 71
3
 72
11
 73
7
 74
0
 42
0.0000001
 43
0.0000001
 44
0.0000000001
 40
0.0
 40
0.0
 40
0.0
 40
0.0
 40
0.2500003721
 40
0.4999947006
 40
0.7499916583
 40
1.0
 40
1.0
 40
1.0
 40
1.0
 10
1162.7769973782
 20
-354.6819778037
 30
0.0
 10
1163.0681695943
 20
-354.6819680933
 30
0.0
 10
1163.651817891
 20
-354.6300319664
 30
0.0
 10
1164.4987622906
 20
-354.3988755224
 30
0.0
 10
1165.2919546904
 20
-354.0226655794
 30
0.0
 10
1165.7692535306
 20
-353.6829587063
 30
0.0
 10
1165.9909354266
 20
-353.4941630443
 30
0.0
  0
SPLINE
  5
6B0
100
AcDbEntity
  8
0
100
AcDbSpline
 62
9
  6
CONTINUOUS
 70
0
 71
3
 72
11
 73
7
 74
0
 42
0.0000001
 43
0.0000001
 44
0.0000000001
 40
0.0
 40
0.0
 40
0.0
 40
0.0
 40
0.2500579822
 40
0.5000859427
 40
0.7500635539
 40
1.0
 40
1.0
 40
1.0
 40
1.0
 10
1137.5192213173
 20
-353.666501067
 30
0.0
 10
1137.5192309209
 20
-353.7975962876
 30
0.0
 10
1137.5703994371
 20
-354.0625337863
 30
0.0
 10
1137.7907239674
 20
-354.3998997746
 30
0.0
 10
1138.1231349132
 20
-354.6281737923
 30
0.0
 10
1138.3881898132
 20
-354.6819677819
 30
0.0
 10
1138.5192213173
 20
-354.6819778037
 30
0.0
  0
LINE
  5
6B1
100
AcDbEntity
  8
0
100
AcDbLine
 62
9
  6
CONTINUOUS
 10
1204.0192213207
 20
-329.4731599706
 11
1204.0192213205
 21
-313.7226756326
  0
SPLINE
  5
6B2
100
AcDbEntity
  8
0
100
AcDbSpline
 62
9
  6
CONTINUOUS
 70
0
 71
3
 72
15
 73
11
 74
0
 42
0.0000001
 43
0.0000001
 44
0.0000000001
 40
0.0
 40
0.0
 40
0.0
 40
0.0
 40
0.1255361551
 40
0.2509782306
 40
0.3762715529
 40
0.501364377
 40
0.6262468595
 40
0.7509433456
 40
0.8754983825
 40
1.0
 40
1.0
 40
1.0
 40
1.0
 10
1138.5192213173
 20
-441.3110773812
 30
0.0
 10
1138.2577375049
 20
-441.3110877497
 30
0.0
 10
1137.7335358371
 20
-441.3622157345
 30
0.0
 10
1136.9785009502
 20
-441.5895075724
 30
0.0
 10
1136.2823904639
 20
-441.9585495085
 30
0.0
 10
1135.6723537196
 20
-442.4552551332
 30
0.0
 10
1135.1717342282
 20
-443.060501278
 30
0.0
 10
1134.7998051292
 20
-443.7511443595
 30
0.0
 10
1134.5707565694
 20
-444.5002609974
 30
0.0
 10
1134.5192287005
 20
-445.0204899395
 30
0.0
 10
1134.5192213173
 20
-445.2798188762
 30
0.0
  0
SPLINE
  5
6B3
100
AcDbEntity
  8
0
100
AcDbSpline
 62
9
  6
CONTINUOUS
 70
0
 71
3
 72
11
 73
7
 74
0
 42
0.0000001
 43
0.0000001
 44
0.0000000001
 40
0.0
 40
0.0
 40
0.0
 40
0.0
 40
0.2499364461
 40
0.4999140573
 40
0.7499420178
 40
1.0
 40
1.0
 40
1.0
 40
1.0
 10
1138.5192213173
 20
-444.2643421395
 30
0.0
 10
1138.3881898132
 20
-444.2643521615
 30
0.0
 10
1138.1231349132
 20
-444.3181461509
 30
0.0
 10
1137.7907239674
 20
-444.5464201686
 30
0.0
 10
1137.5703994371
 20
-444.8837861569
 30
0.0
 10
1137.5192309209
 20
-445.1487236556
 30
0.0
 10
1137.5192213173
 20
-445.2798188762
 30
0.0
  0
SPLINE
  5
6B4
100
AcDbEntity
  8
0
100
AcDbSpline
 62
9
  6
CONTINUOUS
 70
0
 71
3
 72
11
 73
7
 74
0
 42
0.0000001
 43
0.0000001
 44
0.0000000001
 40
0.0
 40
0.0
 40
0.0
 40
0.0
 40
0.2500083417
 40
0.5000052994
 40
0.7499996279
 40
1.0
 40
1.0
 40
1.0
 40
1.0
 10
1165.9909354266
 20
-445.452156899
 30
0.0
 10
1165.7692535297
 20
-445.263361238
 30
0.0
 10
1165.2919546908
 20
-444.9236543633
 30
0.0
 10
1164.4987622905
 20
-444.5474444209
 30
0.0
 10
1163.651817891
 20
-444.3162879769
 30
0.0
 10
1163.0681695943
 20
-444.2643518498
 30
0.0
 10
1162.7769973782
 20
-444.2643421395
 30
0.0
  0
SPLINE
  5
6B5
100
AcDbEntity
  8
0
100
AcDbSpline
 62
9
  6
CONTINUOUS
 70
0
 71
3
 72
19
 73
15
 74
0
 42
0.0000001
 43
0.0000001
 44
0.0000000001
 40
0.0
 40
0.0
 40
0.0
 40
0.0
 40
0.0082193818
 40
0.0150131973
 40
0.0239309005
 40
0.0350558061
 40
0.0484044699
 40
0.0817256021
 40
0.1739963385
 40
0.2976838236
 40
0.448222098
 40
0.619924072
 40
0.8062343825
 40
1.0
 40
1.0
 40
1.0
 40
1.0
 10
1217.0192213173
 20
-428.4546692287
 30
0.0
 10
1217.0196405472
 20
-428.537525315
 30
0.0
 10
1217.1518359929
 20
-428.6626980883
 30
0.0
 10
1217.3593270468
 20
-428.7680839836
 30
0.0
 10
1217.6149312566
 20
-428.8667776615
 30
0.0
 10
1217.9369222966
 20
-428.9617640703
 30
0.0
 10
1218.5037593192
 20
-429.0992816725
 30
0.0
 10
1219.8823696586
 20
-429.3491636169
 30
0.0
 10
1222.3806036881
 20
-429.6375417085
 30
0.0
 10
1226.0639055376
 20
-429.926249255
 30
0.0
 10
1230.5534492038
 20
-430.1629813143
 30
0.0
 10
1235.6771004236
 20
-430.3400173956
 30
0.0
 10
1241.2385382372
 20
-430.44882012
 30
0.0
 10
1245.0700139641
 20
-430.4731697862
 30
0.0
 10
1247.0233075969
 20
-430.4731862795
 30
0.0
  0
SPLINE
  5
6B6
100
AcDbEntity
  8
0
100
AcDbSpline
 62
9
  6
CONTINUOUS
 70
0
 71
3
 72
19
 73
15
 74
0
 42
0.0000001
 43
0.0000001
 44
0.0000000001
 40
0.0
 40
0.0
 40
0.0
 40
0.0
 40
0.1860846023
 40
0.3652384073
 40
0.5308513717
 40
0.6769625603
 40
0.7411133919
 40
0.7986375682
 40
0.8491385101
 40
0.8923892293
 40
0.9283541288
 40
0.957389953
 40
0.9805230032
 40
1.0
 40
1.0
 40
1.0
 40
1.0
 10
1247.0234141859
 20
-434.3524418909
 30
0.0
 10
1245.0696549738
 20
-434.3524045831
 30
0.0
 10
1241.2345167446
 20
-434.282323655
 30
0.0
 10
1235.6683211472
 20
-433.9675891354
 30
0.0
 10
1230.5383315279
 20
-433.4551597405
 30
0.0
 10
1226.6344532689
 20
-432.857007491
 30
0.0
 10
1223.883309186
 20
-432.273652521
 30
0.0
 10
1222.1330188323
 20
-431.8184813016
 30
0.0
 10
1220.6204529257
 20
-431.3301904621
 30
0.0
 10
1219.3583456957
 20
-430.8138139478
 30
0.0
 10
1218.3551991682
 20
-430.2730102594
 30
0.0
 10
1217.6155228233
 20
-429.7079789017
 30
0.0
 10
1217.140354191
 20
-429.1090498553
 30
0.0
 10
1217.0195746053
 20
-428.6591638765
 30
0.0
 10
1217.0192213173
 20
-428.4546692294
 30
0.0
  0
SPLINE
  5
6B7
100
AcDbEntity
  8
0
100
AcDbSpline
 62
9
  6
CONTINUOUS
 70
0
 71
3
 72
19
 73
15
 74
0
 42
0.0000001
 43
0.0000001
 44
0.0000000001
 40
0.0
 40
0.0
 40
0.0
 40
0.0
 40
0.1937656201
 40
0.3800759331
 40
0.5517779095
 40
0.702316186
 40
0.8260036727
 40
0.9182744108
 40
0.9515955308
 40
0.9649441955
 40
0.9760691154
 40
0.9849868494
 40
0.9917806938
 40
1.0
 40
1.0
 40
1.0
 40
1.0
 10
1247.0233076433
 20
-340.4731336635
 30
0.0
 10
1245.0700140083
 20
-340.4731501569
 30
0.0
 10
1241.2385382762
 20
-340.497499815
 30
0.0
 10
1235.6771004573
 20
-340.6063025675
 30
0.0
 10
1230.5534492231
 20
-340.7833385721
 30
0.0
 10
1226.0639055691
 20
-341.0200708249
 30
0.0
 10
1222.3806036638
 20
-341.3087779453
 30
0.0
 10
1219.8823698348
 20
-341.5971567169
 30
0.0
 10
1218.5037595288
 20
-341.8470379735
 30
0.0
 10
1217.9369224356
 20
-341.9845556041
 30
0.0
 10
1217.6149311432
 20
-342.0795424405
 30
0.0
 10
1217.3593261869
 20
-342.1782371019
 30
0.0
 10
1217.1518364381
 20
-342.2836234082
 30
0.0
 10
1217.0196390441
 20
-342.4087953844
 30
0.0
 10
1217.0192213173
 20
-342.4916507145
 30
0.0
  0
SPLINE
  5
6B8
100
AcDbEntity
  8
0
100
AcDbSpline
 62
9
  6
CONTINUOUS
 70
0
 71
3
 72
18
 73
14
 74
0
 42
0.0000001
 43
0.0000001
 44
0.0000000001
 40
0.0
 40
0.0
 40
0.0
 40
0.0
 40
0.0209635579
 40
0.0449642394
 40
0.0740613171
 40
0.1093574805
 40
0.1513488187
 40
0.2001784891
 40
0.3178721183
 40
0.4604766905
 40
0.6246434795
 40
0.8061155636
 40
1.0
 40
1.0
 40
1.0
 40
1.0
 10
1217.0192213173
 20
-342.4916507138
 30
0.0
 10
1217.0195233
 20
-342.3162190366
 30
0.0
 10
1217.1053281311
 20
-341.9375504721
 30
0.0
 10
1217.4560209393
 20
-341.4154926226
 30
0.0
 10
1218.0102029066
 20
-340.9182134969
 30
0.0
 10
1218.7641045583
 20
-340.439707157
 30
0.0
 10
1219.7151032438
 20
-339.978342492
 30
0.0
 10
1221.3442757344
 20
-339.3493044803
 30
0.0
 10
1223.841496563
 20
-338.6546611391
 30
0.0
 10
1227.328048247
 20
-337.9661690561
 30
0.0
 10
1231.3764265007
 20
-337.4006129384
 30
0.0
 10
1235.872169988
 20
-336.9729225869
 30
0.0
 10
1239.0088442742
 20
-336.7915315531
 30
0.0
 10
1240.6299638014
 20
-336.7244429443
 30
0.0
  0
SPLINE
  5
6B9
100
AcDbEntity
  8
0
100
AcDbSpline
 62
9
  6
CONTINUOUS
 70
0
 71
3
 72
13
 73
9
 74
0
 42
0.0000001
 43
0.0000001
 44
0.0000000001
 40
0.0
 40
0.0
 40
0.0
 40
0.0
 40
0.3571281999
 40
0.5203908942
 40
0.6653669467
 40
0.7874517991
 40
0.8836707819
 40
1.0
 40
1.0
 40
1.0
 40
1.0
 10
1324.666041934
 20
-434.3524615111
 30
0.0
 10
1324.1489433152
 20
-434.3864438245
 30
0.0
 10
1323.3970590821
 20
-434.4717936336
 30
0.0
 10
1322.4496578183
 20
-434.6647875482
 30
0.0
 10
1321.8489259089
 20
-434.8291542851
 30
0.0
 10
1321.3492923966
 20
-435.0203810771
 30
0.0
 10
1320.93543017
 20
-435.2339995096
 30
0.0
 10
1320.6640547394
 20
-435.4995886457
 30
0.0
 10
1320.6759207325
 20
-435.6679716029
 30
0.0
  0
SPLINE
  5
6BA
100
AcDbEntity
  8
0
100
AcDbSpline
 62
9
  6
CONTINUOUS
 70
0
 71
3
 72
13
 73
9
 74
0
 42
0.0000001
 43
0.0000001
 44
0.0000000001
 40
0.0
 40
0.0
 40
0.0
 40
0.0
 40
0.3571265561
 40
0.5203885569
 40
0.6653642869
 40
0.787449285
 40
0.8836688482
 40
1.0
 40
1.0
 40
1.0
 40
1.0
 10
1257.3724007008
 20
-434.3524665636
 30
0.0
 10
1257.889495483
 20
-434.3864491128
 30
0.0
 10
1258.6413742383
 20
-434.4717980733
 30
0.0
 10
1259.5887693299
 20
-434.6647893588
 30
0.0
 10
1260.1894987307
 20
-434.8291543426
 30
0.0
 10
1260.6891316903
 20
-435.0203791857
 30
0.0
 10
1261.1029972686
 20
-435.2339986074
 30
0.0
 10
1261.3743752955
 20
-435.4995854115
 30
0.0
 10
1261.3625142004
 20
-435.6679710605
 30
0.0
  0
SPLINE
  5
6BB
100
AcDbEntity
  8
0
100
AcDbSpline
 62
9
  6
CONTINUOUS
 70
0
 71
3
 72
17
 73
13
 74
0
 42
0.0000001
 43
0.0000001
 44
0.0000000001
 40
0.0
 40
0.0
 40
0.0
 40
0.0
 40
0.1250753236
 40
0.2501441361
 40
0.3752039266
 40
0.5002447448
 40
0.6252437946
 40
0.7501324999
 40
0.8126404003
 40
0.8751193588
 40
0.9375700155
 40
1.0
 40
1.0
 40
1.0
 40
1.0
 10
1324.232662199
 20
-430.4731599716
 30
0.0
 10
1323.9316461825
 20
-427.6389980511
 30
0.0
 10
1323.1525380586
 20
-421.9877375806
 30
0.0
 10
1321.4093557534
 20
-413.6101682044
 30
0.0
 10
1319.0192136086
 20
-405.3917084685
 30
0.0
 10
1315.8660242682
 20
-397.429288791
 30
0.0
 10
1311.7738458037
 20
-389.9027803323
 30
0.0
 10
1307.3326148093
 20
-384.2620008651
 30
0.0
 10
1303.0028404169
 20
-380.5350583408
 30
0.0
 10
1299.3378252683
 20
-378.2961930507
 30
0.0
 10
1295.2984437044
 20
-376.8198737511
 30
0.0
 10
1292.4418189288
 20
-376.4731823855
 30
0.0
 10
1291.0192213173
 20
-376.4731599716
 30
0.0
  0
SPLINE
  5
6BC
100
AcDbEntity
  8
0
100
AcDbSpline
 62
9
  6
CONTINUOUS
 70
0
 71
3
 72
19
 73
15
 74
0
 42
0.0000001
 43
0.0000001
 44
0.0000000001
 40
0.0
 40
0.0
 40
0.0
 40
0.0
 40
0.1323425325
 40
0.2616923214
 40
0.3876733332
 40
0.5101629284
 40
0.6295016758
 40
0.6884001057
 40
0.7471987809
 40
0.806537661
 40
0.8675153878
 40
0.931741688
 40
0.9655127161
 40
1.0
 40
1.0
 40
1.0
 40
1.0
 10
1257.3724007007
 20
-434.3524703164
 30
0.0
 10
1257.0812379796
 20
-438.3998536854
 30
0.0
 10
1256.8634753293
 20
-446.4331405962
 30
0.0
 10
1257.5669512378
 20
-458.3128596525
 30
0.0
 10
1259.2749168803
 20
-469.7881341547
 30
0.0
 10
1262.0233849315
 20
-480.7451829156
 30
0.0
 10
1265.3103010071
 20
-489.3948045893
 30
0.0
 10
1268.6830927474
 20
-495.8423802871
 30
0.0
 10
1271.6580624996
 20
-500.3952340798
 30
0.0
 10
1275.214116327
 20
-504.6041219296
 30
0.0
 10
1279.540392289
 20
-508.2991034608
 30
0.0
 10
1283.9191156289
 20
-510.583646347
 30
0.0
 10
1287.864307415
 20
-511.6153660059
 30
0.0
 10
1289.961783981
 20
-511.7987839368
 30
0.0
 10
1291.0192213173
 20
-511.7995848421
 30
0.0
  0
SPLINE
  5
6BD
100
AcDbEntity
  8
0
100
AcDbSpline
 62
9
  6
CONTINUOUS
 70
0
 71
3
 72
19
 73
15
 74
0
 42
0.0000001
 43
0.0000001
 44
0.0000000001
 40
0.0
 40
0.0
 40
0.0
 40
0.0
 40
0.0344868926
 40
0.0682573501
 40
0.1324840436
 40
0.1934622503
 40
0.2528013501
 40
0.3116001809
 40
0.3704987349
 40
0.4898377053
 40
0.6123275243
 40
0.7383087294
 40
0.867658123
 40
1.0
 40
1.0
 40
1.0
 40
1.0
 10
1291.0192213173
 20
-511.7995848421
 30
0.0
 10
1292.0766463553
 20
-511.7988483057
 30
0.0
 10
1294.1741269197
 20
-511.6155811171
 30
0.0
 10
1298.1191795583
 20
-510.5833990269
 30
0.0
 10
1302.4979894603
 20
-508.2991216059
 30
0.0
 10
1306.8243032614
 20
-504.6040849881
 30
0.0
 10
1310.3803908164
 20
-500.3952058515
 30
0.0
 10
1313.3553686554
 20
-495.8423371432
 30
0.0
 10
1316.7281667212
 20
-489.3947511171
 30
0.0
 10
1320.0150751186
 20
-480.7451103496
 30
0.0
 10
1322.7635496318
 20
-469.7880472791
 30
0.0
 10
1324.4715006591
 20
-458.3127731602
 30
0.0
 10
1325.1749642841
 20
-446.4330842819
 30
0.0
 10
1324.9572053917
 20
-438.3998321427
 30
0.0
 10
1324.6660419338
 20
-434.3524703164
 30
0.0
  0
SPLINE
  5
6BE
100
AcDbEntity
  8
0
100
AcDbSpline
 62
9
  6
CONTINUOUS
 70
0
 71
3
 72
17
 73
13
 74
0
 42
0.0000001
 43
0.0000001
 44
0.0000000001
 40
0.0
 40
0.0
 40
0.0
 40
0.0
 40
0.0625296714
 40
0.1250704638
 40
0.1875982771
 40
0.2501131023
 40
0.3749646697
 40
0.4999223385
 40
0.6249208731
 40
0.7499388292
 40
0.8749662254
 40
1.0
 40
1.0
 40
1.0
 40
1.0
 10
1291.0192213173
 20
-376.4731599716
 30
0.0
 10
1289.5943522077
 20
-376.4737917848
 30
0.0
 10
1286.7333466811
 20
-376.8206385321
 30
0.0
 10
1282.6895155069
 20
-378.3013254951
 30
0.0
 10
1279.0230755615
 20
-380.5441734422
 30
0.0
 10
1274.6951177033
 20
-384.2738544985
 30
0.0
 10
1270.2569944776
 20
-389.91480465
 30
0.0
 10
1266.1677582737
 20
-397.4397402202
 30
0.0
 10
1263.0165555995
 20
-405.3998377773
 30
0.0
 10
1260.6277980358
 20
-413.6157107078
 30
0.0
 10
1258.8854875039
 20
-421.9905478995
 30
0.0
 10
1258.1066978248
 20
-427.6399395568
 30
0.0
 10
1257.8057804355
 20
-430.4731599716
 30
0.0
  0
SPLINE
  5
6BF
100
AcDbEntity
  8
0
100
AcDbSpline
 62
7
  6
CONTINUOUS
 70
0
 71
3
 72
13
 73
9
 74
0
 42
0.0000001
 43
0.0000001
 44
0.0000000001
 40
0.0
 40
0.0
 40
0.0
 40
0.0
 40
0.0971244504
 40
0.2046992349
 40
0.3216928101
 40
0.4466862522
 40
0.7150656827
 40
1.0
 40
1.0
 40
1.0
 40
1.0
 10
1449.8441661557
 20
-325.4731599716
 30
0.0
 10
1449.0125461072
 20
-325.4731599716
 30
0.0
 10
1447.2597606547
 20
-325.6944590953
 30
0.0
 10
1444.6075139533
 20
-326.4574198298
 30
0.0
 10
1441.828464956
 20
-327.5801474602
 30
0.0
 10
1437.9065562874
 20
-329.5135521739
 30
0.0
 10
1432.9167779174
 20
-332.5014040679
 30
0.0
 10
1429.0067640599
 20
-335.1789506861
 30
0.0
 10
1427.0192213173
 20
-336.5938496268
 30
0.0
  0
SPLINE
  5
6C0
100
AcDbEntity
  8
0
100
AcDbSpline
 62
7
  6
CONTINUOUS
 70
0
 71
3
 72
13
 73
9
 74
0
 42
0.0000001
 43
0.0000001
 44
0.0000000001
 40
0.0
 40
0.0
 40
0.0
 40
0.0
 40
0.284920289
 40
0.5532929859
 40
0.6782909882
 40
0.7952857027
 40
0.9028734705
 40
1.0
 40
1.0
 40
1.0
 40
1.0
 10
1427.0192213173
 20
-434.3524703164
 30
0.0
 10
1429.0066665988
 20
-435.7672998762
 30
0.0
 10
1432.9165400217
 20
-438.4447339795
 30
0.0
 10
1437.9061607933
 20
-441.4325888799
 30
0.0
 10
1441.8280664327
 20
-443.365971317
 30
0.0
 10
1444.6072124906
 20
-444.4888981058
 30
0.0
 10
1447.2596226349
 20
-445.2517985201
 30
0.0
 10
1449.0125281406
 20
-445.4731599716
 30
0.0
 10
1449.8441661557
 20
-445.4731599716
 30
0.0
  0
ELLIPSE
  5
6C1
100
AcDbEntity
  8
02___PRT_ALL_AXES
100
AcDbEllipse
 62
7
  6
CONTINUOUS
 10
211.0119527997
 20
73.1895928304
 30
0.0
 11
65.0
 21
0.0
 31
0.0
 40
0.4615384615
 41
0.0
 42
6.2831853072
  0
ELLIPSE
  5
6C2
100
AcDbEntity
  8
02___PRT_ALL_AXES
100
AcDbEllipse
 62
7
  6
CONTINUOUS
 10
1291.0192213173
 20
-445.4731599716
 30
0.0
 11
0.0
 21
65.0
 31
0.0
 40
0.4615384615
 41
0.0
 42
6.2831853072
  0
ENDSEC
  0
SECTION
  2
OBJECTS
  0
DICTIONARY
  5
C
100
AcDbDictionary
280
0
281
1
  3
ACAD_GROUP
350
D
  3
ACAD_MLINESTYLE
350
17
  3
ACAD_LAYOUT
350
1A
  3
ACAD_PLOTSETTINGS
350
19
  3
ACAD_PLOTSTYLENAME
350
E
  0
DICTIONARY
  5
D
102
{ACAD_REACTORS
330
C
102
}
100
AcDbDictionary
280
0
281
1
  0
ACDBDICTIONARYWDFLT
  5
E
102
{ACAD_REACTORS
330
C
102
}
100
AcDbDictionary
281
1
  3
Normal
350
F
100
AcDbDictionaryWithDefault
340
F
  0
DICTIONARY
  5
17
102
{ACAD_REACTORS
330
C
102
}
100
AcDbDictionary
280
0
281
1
  3
Standard
350
18
  0
DICTIONARY
  5
19
102
{ACAD_REACTORS
330
C
102
}
100
AcDbDictionary
281
1
  0
DICTIONARY
  5
1A
102
{ACAD_REACTORS
330
C
102
}
100
AcDbDictionary
281
1
  3
Model
350
6C3
  3
Layout1
350
6C4
  0
ACDBPLACEHOLDER
  5
F
102
{ACAD_REACTORS
330
E
102
}
  0
MLINESTYLE
  5
18
102
{ACAD_REACTORS
330
17
102
}
100
AcDbMlineStyle
  2
STANDARD
 70
0
  3

 62
256
 51
90.0
 52
90.0
 71
2
 49
0.5
 62
256
  6
BYLAYER
 49
-0.5
 62
256
  6
BYLAYER
  0
LAYOUT
  5
6C3
102
{ACAD_REACTORS
330
1A
102
}
100
AcDbPlotSettings
  1

  2
none_device
  4

  6

 40
0.0
 41
0.0
 42
0.0
 43
0.0
 44
210.0
 45
297.0
 46
0.0
 47
0.0
 48
0.0
 49
0.0
140
0.0
141
0.0
142
1.0
143
1.0
 70
1024
 72
1
 73
0
 74
0
  7

 75
0
147
1.0
148
0.0
149
0.0
100
AcDbLayout
  1
Model
 70
0
 71
0
 10
0.0
 20
0.0
 11
210.0
 21
297.0
 12
0.0
 22
0.0
 32
0.0
 14
0.0
 24
0.0
 34
0.0
 15
0.0
 25
0.0
 35
0.0
146
0.0
 13
0.0
 23
0.0
 33
0.0
 16
1.0
 26
0.0
 36
0.0
 17
0.0
 27
1.0
 37
0.0
 76
0
330
21A
345
0
346
0
  0
LAYOUT
  5
6C4
102
{ACAD_REACTORS
330
1A
102
}
100
AcDbPlotSettings
  1

  2
none_device
  4

  6

 40
0.0
 41
0.0
 42
0.0
 43
0.0
 44
210.0
 45
297.0
 46
0.0
 47
0.0
 48
0.0
 49
0.0
140
0.0
141
0.0
142
1.0
143
1.0
 70
0
 72
1
 73
0
 74
0
  7

 75
0
147
1.0
148
0.0
149
0.0
100
AcDbLayout
  1
Layout1
 70
0
 71
1
 10
0.0
 20
0.0
 11
210.0
 21
297.0
 12
0.0
 22
0.0
 32
0.0
 14
0.0
 24
0.0
 34
0.0
 15
0.0
 25
0.0
 35
0.0
146
0.0
 13
0.0
 23
0.0
 33
0.0
 16
1.0
 26
0.0
 36
0.0
 17
0.0
 27
1.0
 37
0.0
 76
0
330
21B
345
0
346
0
  0
ENDSEC
  0
EOF
