999
DXF file: s_91_t_2.dxf
999
Pro/ENGINEER 2011370 by Parametric Technology Corporation
  0
SECTION
  2
HEADER
  9
$ACADVER
  1
AC1015
  9
$DWGCODEPAGE
  3
ANSI_1252
  9
$EXTMAX
 10
210.0
 20
297.0
 30
0.0
  9
$EXTMIN
 10
0.0
 20
0.0
 30
0.0
  9
$LIMMIN
 10
0.0
 20
0.0
  9
$LIMMAX
 10
210.0
 20
297.0
  9
$VIEWCTR
 10
105.0
 20
148.5
  9
$VIEWSIZE
 40
297.0
  9
$CLAYER
  8
0
  9
$LTSCALE
 40
19.36
  9
$CELTYPE
  6
BYLAYER
  9
$DIMSCALE
 40
1.0
  9
$DIMASZ
 40
2.0
  9
$DIMEXO
 40
2.2
  9
$DIMDLI
 40
13.376
  9
$DIMEXE
 40
6.336
  9
$DIMCEN
 40
3.168
  9
$DIMLFAC
 40
1.0
  9
$DIMBLK
  1
_FILLED
  9
$DIMTXT
 40
2.0
  9
$DIMTOL
 70
0
  9
$DIMLIM
 70
0
  9
$DIMTFAC
 40
1.0
  9
$PDMODE
 70
3
  9
$PDSIZE
 40
0.3125
  9
$HANDSEED
  5
699
  9
$TILEMODE
 70
1
  9
$MEASUREMENT
 70
1
  9
$INSUNITS
 70
4
  0
ENDSEC
  0
SECTION
  2
CLASSES
  0
CLASS
  1
ACDBDICTIONARYWDFLT
  2
AcDbDictionaryWithDefault
  3
AutoCAD 2000
 90
0
280
0
281
0
  0
CLASS
  1
ACDBPLACEHOLDER
  2
AcDbPlaceHolder
  3
AutoCAD 2000
 90
0
280
0
281
0
  0
CLASS
  1
LAYOUT
  2
AcDbLayout
  3
AutoCAD 2000
 90
0
280
0
281
0
  0
ENDSEC
  0
SECTION
  2
TABLES
  0
TABLE
  2
VPORT
  5
8
100
AcDbSymbolTable
 70
2
  0
VPORT
  5
1F4
100
AcDbSymbolTableRecord
100
AcDbViewportTableRecord
  2
*ACTIVE
 70
0
 10
0.0
 20
0.0
 11
1.0
 21
1.0
 12
105.0
 22
148.5
 13
0.0
 23
0.0
 14
1.0
 24
1.0
 15
0.0
 25
0.0
 16
0.0
 26
0.0
 36
1.0
 17
0.0
 27
0.0
 37
0.0
 40
297.0
 41
0.7070707071
 42
50.0
 43
0.0
 44
0.0
 50
0.0
 51
0.0
 71
0
 72
100
 73
1
 74
1
 75
0
 76
0
 77
0
 78
0
  0
ENDTAB
  0
TABLE
  2
LTYPE
  5
5
100
AcDbSymbolTable
 70
6
  0
LTYPE
  5
14
100
AcDbSymbolTableRecord
100
AcDbLinetypeTableRecord
  2
BYBLOCK
 70
0
  3

 72
65
 73
0
 40
0.0
  0
LTYPE
  5
15
100
AcDbSymbolTableRecord
100
AcDbLinetypeTableRecord
  2
BYLAYER
 70
0
  3

 72
65
 73
0
 40
0.0
  0
LTYPE
  5
16
100
AcDbSymbolTableRecord
100
AcDbLinetypeTableRecord
  2
CONTINUOUS
 70
64
  3
Solid line
 72
65
 73
0
 40
0.0
  0
LTYPE
  5
1F5
100
AcDbSymbolTableRecord
100
AcDbLinetypeTableRecord
  2
CENTER
 70
64
  3
____ _ ____ _ ____ _ ____ _ ____ _ ____ _ ____
 72
65
 73
4
 40
0.6
 49
0.375
 74
0
 49
-0.075
 74
0
 49
0.075
 74
0
 49
-0.075
 74
0
  0
LTYPE
  5
1F6
100
AcDbSymbolTableRecord
100
AcDbLinetypeTableRecord
  2
HIDDEN
 70
64
  3
- - - - - - - - - - - - - - - - - - - -
 72
65
 73
2
 40
0.2
 49
0.1
 74
0
 49
-0.1
 74
0
  0
LTYPE
  5
1F7
100
AcDbSymbolTableRecord
100
AcDbLinetypeTableRecord
  2
PHANTOM
 70
64
  3
_____ _ _ _____ _ _ _____ _ _ _____
 72
65
 73
6
 40
0.8
 49
0.45
 74
0
 49
-0.05
 74
0
 49
0.1
 74
0
 49
-0.05
 74
0
 49
0.1
 74
0
 49
-0.05
 74
0
  0
LTYPE
  5
1F8
100
AcDbSymbolTableRecord
100
AcDbLinetypeTableRecord
  2
DOT
 70
64
  3
. . . . . . . . . . . . . . . . . . . .
 72
65
 73
2
 40
0.2
 49
0.1
 74
0
 49
-0.1
 74
0
  0
LTYPE
  5
1F9
100
AcDbSymbolTableRecord
100
AcDbLinetypeTableRecord
  2
DASHED
 70
64
  3
- - - - - - - - - - - - - - - - - - - -
 72
65
 73
2
 40
0.2
 49
0.1
 74
0
 49
-0.1
 74
0
  0
ENDTAB
  0
TABLE
  2
LAYER
  5
2
100
AcDbSymbolTable
 70
36
  0
LAYER
  5
10
100
AcDbSymbolTableRecord
100
AcDbLayerTableRecord
  2
0
 70
0
 62
7
  6
CONTINUOUS
370
-3
390
F
  0
LAYER
  5
1FA
100
AcDbSymbolTableRecord
100
AcDbLayerTableRecord
  2
DEFAULT_1
 70
0
 62
7
  6
CENTER
370
-3
390
F
  0
LAYER
  5
1FB
100
AcDbSymbolTableRecord
100
AcDbLayerTableRecord
  2
DEFAULT_2
 70
0
 62
8
  6
HIDDEN
370
-3
390
F
  0
LAYER
  5
1FC
100
AcDbSymbolTableRecord
100
AcDbLayerTableRecord
  2
DEFAULT_3
 70
0
 62
7
  6
PHANTOM
370
-3
390
F
  0
LAYER
  5
1FD
100
AcDbSymbolTableRecord
100
AcDbLayerTableRecord
  2
01___PRT_ALL_DTM_PLN
 70
0
 62
7
  6
CONTINUOUS
370
-3
390
F
  0
LAYER
  5
1FE
100
AcDbSymbolTableRecord
100
AcDbLayerTableRecord
  2
01___PRT_DEF_DTM_PLN
 70
0
 62
7
  6
CONTINUOUS
370
-3
390
F
  0
LAYER
  5
1FF
100
AcDbSymbolTableRecord
100
AcDbLayerTableRecord
  2
02___PRT_ALL_AXES
 70
0
 62
7
  6
CONTINUOUS
370
-3
390
F
  0
LAYER
  5
200
100
AcDbSymbolTableRecord
100
AcDbLayerTableRecord
  2
03___PRT_ALL_CURVES
 70
0
 62
7
  6
CONTINUOUS
370
-3
390
F
  0
LAYER
  5
201
100
AcDbSymbolTableRecord
100
AcDbLayerTableRecord
  2
04___PRT_ALL_DTM_PNT
 70
0
 62
7
  6
CONTINUOUS
370
-3
390
F
  0
LAYER
  5
202
100
AcDbSymbolTableRecord
100
AcDbLayerTableRecord
  2
05___PRT_ALL_DTM_CSYS
 70
0
 62
7
  6
CONTINUOUS
370
-3
390
F
  0
LAYER
  5
203
100
AcDbSymbolTableRecord
100
AcDbLayerTableRecord
  2
05___PRT_DEF_DTM_CSYS
 70
0
 62
7
  6
CONTINUOUS
370
-3
390
F
  0
LAYER
  5
204
100
AcDbSymbolTableRecord
100
AcDbLayerTableRecord
  2
06___PRT_ALL_SURFS
 70
0
 62
7
  6
CONTINUOUS
370
-3
390
F
  0
LAYER
  5
205
100
AcDbSymbolTableRecord
100
AcDbLayerTableRecord
  2
1_ALL_PLANES
 70
0
 62
7
  6
CONTINUOUS
370
-3
390
F
  0
LAYER
  5
206
100
AcDbSymbolTableRecord
100
AcDbLayerTableRecord
  2
1_SISCO
 70
0
 62
7
  6
CONTINUOUS
370
-3
390
F
  0
LAYER
  5
207
100
AcDbSymbolTableRecord
100
AcDbLayerTableRecord
  2
1__DEF_ASM_PLN
 70
0
 62
7
  6
CONTINUOUS
370
-3
390
F
  0
LAYER
  5
208
100
AcDbSymbolTableRecord
100
AcDbLayerTableRecord
  2
1__DEF_PLANES
 70
0
 62
7
  6
CONTINUOUS
370
-3
390
F
  0
LAYER
  5
209
100
AcDbSymbolTableRecord
100
AcDbLayerTableRecord
  2
2_ALL_CSYS
 70
0
 62
7
  6
CONTINUOUS
370
-3
390
F
  0
LAYER
  5
20A
100
AcDbSymbolTableRecord
100
AcDbLayerTableRecord
  2
2_PIANI
 70
0
 62
7
  6
CONTINUOUS
370
-3
390
F
  0
LAYER
  5
20B
100
AcDbSymbolTableRecord
100
AcDbLayerTableRecord
  2
2__DEF_ASM_CSYS
 70
0
 62
7
  6
CONTINUOUS
370
-3
390
F
  0
LAYER
  5
20C
100
AcDbSymbolTableRecord
100
AcDbLayerTableRecord
  2
2__DEF_CSYS
 70
0
 62
7
  6
CONTINUOUS
370
-3
390
F
  0
LAYER
  5
20D
100
AcDbSymbolTableRecord
100
AcDbLayerTableRecord
  2
3_ALL_AXES
 70
0
 62
7
  6
CONTINUOUS
370
-3
390
F
  0
LAYER
  5
20E
100
AcDbSymbolTableRecord
100
AcDbLayerTableRecord
  2
3_PUNTI
 70
0
 62
7
  6
CONTINUOUS
370
-3
390
F
  0
LAYER
  5
20F
100
AcDbSymbolTableRecord
100
AcDbLayerTableRecord
  2
4_ALL_POINTS
 70
0
 62
7
  6
CONTINUOUS
370
-3
390
F
  0
LAYER
  5
210
100
AcDbSymbolTableRecord
100
AcDbLayerTableRecord
  2
4_CURVE
 70
0
 62
7
  6
CONTINUOUS
370
-3
390
F
  0
LAYER
  5
211
100
AcDbSymbolTableRecord
100
AcDbLayerTableRecord
  2
5_ALL_CURVES
 70
0
 62
7
  6
CONTINUOUS
370
-3
390
F
  0
LAYER
  5
212
100
AcDbSymbolTableRecord
100
AcDbLayerTableRecord
  2
5_SUPERFICI
 70
0
 62
7
  6
CONTINUOUS
370
-3
390
F
  0
LAYER
  5
213
100
AcDbSymbolTableRecord
100
AcDbLayerTableRecord
  2
6_ALL_SURFS
 70
0
 62
7
  6
CONTINUOUS
370
-3
390
F
  0
LAYER
  5
214
100
AcDbSymbolTableRecord
100
AcDbLayerTableRecord
  2
7_ALL_QUILTS
 70
0
 62
7
  6
CONTINUOUS
370
-3
390
F
  0
LAYER
  5
215
100
AcDbSymbolTableRecord
100
AcDbLayerTableRecord
  2
8_ALL_CGFEAT
 70
0
 62
7
  6
CONTINUOUS
370
-3
390
F
  0
LAYER
  5
216
100
AcDbSymbolTableRecord
100
AcDbLayerTableRecord
  2
9_ALL_THREAD
 70
0
 62
7
  6
CONTINUOUS
370
-3
390
F
  0
LAYER
  5
217
100
AcDbSymbolTableRecord
100
AcDbLayerTableRecord
  2
FILETTATURE
 70
0
 62
7
  6
CONTINUOUS
370
-3
390
F
  0
ENDTAB
  0
TABLE
  2
STYLE
  5
3
100
AcDbSymbolTable
 70
1
  0
STYLE
  5
11
100
AcDbSymbolTableRecord
100
AcDbTextStyleTableRecord
  2
STANDARD
 70
0
 40
0.0
 41
1.0
 50
0.0
 71
0
 42
0.2
  3
arial.ttf
  4

  0
STYLE
  5
218
100
AcDbSymbolTableRecord
100
AcDbTextStyleTableRecord
  2
TEXTSTYLE_1
 70
0
 40
0.0
 41
0.8
 50
0.0
 71
0
 42
0.2
  3
gdt
  4

  0
ENDTAB
  0
TABLE
  2
VIEW
  5
6
100
AcDbSymbolTable
 70
0
  0
ENDTAB
  0
TABLE
  2
UCS
  5
7
100
AcDbSymbolTable
 70
0
  0
ENDTAB
  0
TABLE
  2
APPID
  5
9
100
AcDbSymbolTable
 70
1
  0
APPID
  5
219
100
AcDbSymbolTableRecord
100
AcDbRegAppTableRecord
  2
ACAD
 70
0
  0
ENDTAB
  0
TABLE
  2
BLOCK_RECORD
  5
1
100
AcDbSymbolTable
 70
0
  0
BLOCK_RECORD
  5
21A
100
AcDbSymbolTableRecord
100
AcDbBlockTableRecord
  2
*Model_Space
  0
BLOCK_RECORD
  5
21B
100
AcDbSymbolTableRecord
100
AcDbBlockTableRecord
  2
*Paper_Space
  0
ENDTAB
  0
TABLE
  2
DIMSTYLE
  5
A
100
AcDbSymbolTable
 70
1
100
AcDbDimStyleTable
 71
0
  0
DIMSTYLE
105
21C
100
AcDbSymbolTableRecord
100
AcDbDimStyleTableRecord
  2
STANDARD
 70
0
  3

  4

 40
1.0
 41
2.0
 42
0.0625
 43
0.38
 44
0.18
 45
0.0
 46
0.0
 47
0.01
 48
0.01
140
2.0
141
0.09
142
0.0
143
25.4
144
1.0
145
0.0
146
1.0
147
0.09
 71
0.0
 72
0.0
 73
1
 74
1
 75
0
 76
0
 77
0
 78
8
170
0
171
2
172
0
173
0
174
0
175
0
176
0
177
0
178
0
270
2
271
2
272
2
273
2
274
2
275
0
280
0
281
0
282
0
283
1
284
8
285
0
286
0
287
3
288
0
340
11
  0
ENDTAB
  0
ENDSEC
  0
SECTION
  2
BLOCKS
  0
BLOCK
  5
20
100
AcDbEntity
  8
0
100
AcDbBlockBegin
  2
*Model_Space
 70
0
 10
0.0
 20
0.0
 30
0.0
  3
*Model_Space
  1

  0
ENDBLK
  5
21
100
AcDbEntity
  8
0
100
AcDbBlockEnd
  0
BLOCK
  5
1C
100
AcDbEntity
  8
0
100
AcDbBlockBegin
  2
*Paper_Space
 70
0
 10
0.0
 20
0.0
 30
0.0
  3
*Paper_Space
  1

  0
ENDBLK
  5
1D
100
AcDbEntity
  8
0
100
AcDbBlockEnd
  0
ENDSEC
  0
SECTION
  2
ENTITIES
  0
LINE
  5
21D
100
AcDbEntity
  8
0
100
AcDbLine
 62
7
  6
CONTINUOUS
 10
705.9319945891
 20
322.9993556052
 11
705.9319945891
 21
119.567852297
  0
LINE
  5
21E
100
AcDbEntity
  8
0
100
AcDbLine
 62
9
  6
CONTINUOUS
 10
711.7898575178
 20
105.4257180501
 11
711.7898575178
 21
337.1414898521
  0
LINE
  5
21F
100
AcDbEntity
  8
0
100
AcDbLine
 62
9
  6
CONTINUOUS
 10
720.0741042311
 20
345.4257381958
 11
720.0741042311
 21
97.1414697064
  0
LINE
  5
220
100
AcDbEntity
  8
0
100
AcDbLine
 62
9
  6
CONTINUOUS
 10
734.2162412344
 20
351.2836039382
 11
734.2162412344
 21
91.283603964
  0
LINE
  5
221
100
AcDbEntity
  8
0
100
AcDbLine
 62
7
  6
CONTINUOUS
 10
711.7898575178
 20
105.4257180501
 11
720.0741042068
 21
97.1414697184
  0
LINE
  5
222
100
AcDbEntity
  8
0
100
AcDbLine
 62
7
  6
CONTINUOUS
 10
711.7898575178
 20
337.1414898521
 11
720.0741042068
 21
345.4257381838
  0
LINE
  5
223
100
AcDbEntity
  8
0
100
AcDbLine
 62
7
  6
CONTINUOUS
 10
775.9319945891
 20
101.2836039511
 11
785.9319945891
 21
91.2836039511
  0
LINE
  5
224
100
AcDbEntity
  8
0
100
AcDbLine
 62
7
  6
CONTINUOUS
 10
775.9319945891
 20
351.2820803139
 11
775.9319945891
 21
91.2851275883
  0
LINE
  5
225
100
AcDbEntity
  8
0
100
AcDbLine
 62
7
  6
CONTINUOUS
 10
785.9319945891
 20
351.2836039511
 11
785.9319945891
 21
91.2836039511
  0
LINE
  5
226
100
AcDbEntity
  8
0
100
AcDbLine
 62
7
  6
CONTINUOUS
 10
775.9319945891
 20
341.2836039511
 11
785.9319945891
 21
351.2836039511
  0
LINE
  5
227
100
AcDbEntity
  8
0
100
AcDbLine
 62
3
  6
CONTINUOUS
 10
835.9319945891
 20
89.2836039511
 11
835.9319945891
 21
25.2836039511
  0
LINE
  5
228
100
AcDbEntity
  8
0
100
AcDbLine
 62
7
  6
CONTINUOUS
 10
835.9319945891
 20
21.2836039511
 11
835.9319945891
 21
25.2836039511
  0
LINE
  5
229
100
AcDbEntity
  8
0
100
AcDbLine
 62
7
  6
CONTINUOUS
 10
836.9319945891
 20
89.2836039511
 11
836.9319945891
 21
104.2836039511
  0
LINE
  5
22A
100
AcDbEntity
  8
0
100
AcDbLine
 62
9
  6
CONTINUOUS
 10
850.9319945891
 20
21.2836039511
 11
850.9319945891
 21
25.2836039511
  0
LINE
  5
22B
100
AcDbEntity
  8
0
100
AcDbLine
 62
7
  6
CONTINUOUS
 10
1355.4319945891
 20
21.2836039511
 11
1295.4319945891
 21
21.2836039511
  0
LINE
  5
22C
100
AcDbEntity
  8
0
100
AcDbLine
 62
7
  6
CONTINUOUS
 10
835.9319945891
 20
21.2836039511
 11
1055.9319945891
 21
21.2836039511
  0
LINE
  5
22D
100
AcDbEntity
  8
0
100
AcDbLine
 62
3
  6
CONTINUOUS
 10
835.9319945891
 20
25.2836039511
 11
1055.9319945891
 21
25.2836039511
  0
LINE
  5
22E
100
AcDbEntity
  8
0
100
AcDbLine
 62
9
  6
CONTINUOUS
 10
835.9319945891
 20
29.2836039511
 11
1055.9319945891
 21
29.2836039511
  0
LINE
  5
22F
100
AcDbEntity
  8
0
100
AcDbLine
 62
7
  6
CONTINUOUS
 10
1431.4319945891
 20
32.2836039511
 11
1355.4319945891
 21
32.2836039511
  0
LINE
  5
230
100
AcDbEntity
  8
0
100
AcDbLine
 62
7
  6
CONTINUOUS
 10
1295.4319945891
 20
32.2836039511
 11
1251.4319945891
 21
32.2836039511
  0
LINE
  5
231
100
AcDbEntity
  8
0
100
AcDbLine
 62
9
  6
CONTINUOUS
 10
1305.4319945891
 20
36.2836039511
 11
1355.4319945891
 21
36.2836039511
  0
LINE
  5
232
100
AcDbEntity
  8
0
100
AcDbLine
 62
7
  6
CONTINUOUS
 10
1295.4319945891
 20
39.2836039511
 11
1352.4319945891
 21
39.2836039511
  0
LINE
  5
233
100
AcDbEntity
  8
02___PRT_ALL_AXES
100
AcDbLine
 62
7
  6
CONTINUOUS
 10
1454.4754125751
 20
41.2836039511
 11
1471.4319945891
 21
41.2836039511
  0
LINE
  5
234
100
AcDbEntity
  8
0
100
AcDbLine
 62
7
  6
CONTINUOUS
 10
1355.4319945891
 20
58.0377142679
 11
1305.4319945891
 21
58.0377142679
  0
LINE
  5
235
100
AcDbEntity
  8
0
100
AcDbLine
 62
7
  6
CONTINUOUS
 10
933.9319945891
 20
330.8281154521
 11
933.9319945891
 21
401.2836039511
  0
LINE
  5
236
100
AcDbEntity
  8
0
100
AcDbLine
 62
9
  6
CONTINUOUS
 10
835.9319945891
 20
81.2836039511
 11
1055.9319945891
 21
81.2836039511
  0
LINE
  5
237
100
AcDbEntity
  8
0
100
AcDbLine
 62
7
  6
CONTINUOUS
 10
1220.9319945891
 20
86.2836039511
 11
1211.9319945891
 21
86.2836039511
  0
LINE
  5
238
100
AcDbEntity
  8
0
100
AcDbLine
 62
3
  6
CONTINUOUS
 10
835.9319945891
 20
89.2836039511
 11
836.9319945891
 21
89.2836039511
  0
LINE
  5
239
100
AcDbEntity
  8
0
100
AcDbLine
 62
7
  6
CONTINUOUS
 10
836.9319945891
 20
89.2836039511
 11
1054.9319945891
 21
89.2836039511
  0
LINE
  5
23A
100
AcDbEntity
  8
0
100
AcDbLine
 62
3
  6
CONTINUOUS
 10
1054.9319945891
 20
89.2836039511
 11
1055.9319945891
 21
89.2836039511
  0
LINE
  5
23B
100
AcDbEntity
  8
02___PRT_ALL_AXES
100
AcDbLine
 62
7
  6
CONTINUOUS
 10
734.2162412256
 20
91.2836039511
 11
775.9319945891
 21
91.2836039511
  0
LINE
  5
23C
100
AcDbEntity
  8
02___PRT_ALL_AXES
100
AcDbLine
 62
7
  6
CONTINUOUS
 10
785.9319945891
 20
91.2836039511
 11
836.9319945891
 21
91.2836039511
  0
LINE
  5
23D
100
AcDbEntity
  8
02___PRT_ALL_AXES
100
AcDbLine
 62
7
  6
CONTINUOUS
 10
1054.9319945891
 20
91.2836039511
 11
1103.9319945262
 21
91.2836039511
  0
LINE
  5
23E
100
AcDbEntity
  8
3_ALL_AXES
100
AcDbLine
 62
7
  6
CONTINUOUS
 10
1221.4319945891
 20
98.7836039511
 11
1220.9319945891
 21
98.7836039511
  0
LINE
  5
23F
100
AcDbEntity
  8
02___PRT_ALL_AXES
100
AcDbLine
 62
7
  6
CONTINUOUS
 10
1471.4319945891
 20
101.2836039511
 11
1465.4319945891
 21
101.2836039511
  0
LINE
  5
240
100
AcDbEntity
  8
0
100
AcDbLine
 62
7
  6
CONTINUOUS
 10
1305.4319945891
 20
102.856846603
 11
1295.4319945891
 21
102.856846603
  0
LINE
  5
241
100
AcDbEntity
  8
0
100
AcDbLine
 62
7
  6
CONTINUOUS
 10
836.9319945891
 20
104.2836039511
 11
1054.9319945891
 21
104.2836039511
  0
LINE
  5
242
100
AcDbEntity
  8
3_ALL_AXES
100
AcDbLine
 62
7
  6
CONTINUOUS
 10
1136.9319945891
 20
121.2836039511
 11
1124.9319945891
 21
121.2836039511
  0
LINE
  5
243
100
AcDbEntity
  8
0
100
AcDbLine
 62
7
  6
CONTINUOUS
 10
1124.9319945891
 20
121.2836039511
 11
1205.9319945891
 21
121.2836039511
  0
LINE
  5
244
100
AcDbEntity
  8
0
100
AcDbLine
 62
9
  6
CONTINUOUS
 10
1138.9319945891
 20
123.2836039511
 11
1209.9319945891
 21
123.2836039509
  0
LWPOLYLINE
  5
245
100
AcDbEntity
  8
0
100
AcDbPolyline
 62
7
  6
CONTINUOUS
 90
6
 70
0
 10
1465.4319945891
 20
101.2836084909
 10
1464.9120128076
 20
101.3175501121
 10
1463.5478247682
 20
101.7551661068
 10
1462.4253431382
 20
102.6454175876
 10
1461.6885612543
 20
103.874100096
 10
1461.4319934312
 20
105.2835956222
  0
LINE
  5
246
100
AcDbEntity
  8
0
100
AcDbLine
 62
9
  6
CONTINUOUS
 10
1203.9366154924
 20
145.0856453044
 11
1206.9319945891
 21
145.2520906919
  0
LINE
  5
247
100
AcDbEntity
  8
0
100
AcDbLine
 62
7
  6
CONTINUOUS
 10
1141.9319945891
 20
131.2836039511
 11
1203.9319945891
 21
131.2836039511
  0
LINE
  5
248
100
AcDbEntity
  8
0
100
AcDbLine
 62
9
  6
CONTINUOUS
 10
1209.9319945891
 20
132.4106206046
 11
1207.9298158789
 21
132.4106206049
  0
LINE
  5
249
100
AcDbEntity
  8
0
100
AcDbLine
 62
9
  6
CONTINUOUS
 10
1138.9319945891
 20
134.2836039511
 11
1206.9319945891
 21
134.2836039511
  0
LINE
  5
24A
100
AcDbEntity
  8
0
100
AcDbLine
 62
9
  6
CONTINUOUS
 10
1206.9319945891
 20
151.2836129806
 11
1209.9319945891
 21
151.2836039511
  0
LINE
  5
24B
100
AcDbEntity
  8
0
100
AcDbLine
 62
9
  6
CONTINUOUS
 10
1040.9319945891
 20
21.2836039511
 11
1040.9319945891
 21
25.2836039511
  0
LINE
  5
24C
100
AcDbEntity
  8
0
100
AcDbLine
 62
7
  6
CONTINUOUS
 10
1471.4319945891
 20
161.2836039511
 11
1465.4319945891
 21
161.2836039511
  0
LINE
  5
24D
100
AcDbEntity
  8
0
100
AcDbLine
 62
9
  6
CONTINUOUS
 10
1123.9319945891
 20
161.2836039511
 11
1138.9319945891
 21
161.2836039511
  0
LINE
  5
24E
100
AcDbEntity
  8
0
100
AcDbLine
 62
9
  6
CONTINUOUS
 10
1167.1897706501
 20
177.6802783899
 11
1142.9319945891
 21
177.6802783899
  0
LINE
  5
24F
100
AcDbEntity
  8
0
100
AcDbLine
 62
9
  6
CONTINUOUS
 10
1167.1897706501
 20
180.5552229324
 11
1142.9319945891
 21
180.5552229324
  0
LINE
  5
250
100
AcDbEntity
  8
0
100
AcDbLine
 62
9
  6
CONTINUOUS
 10
1461.4319945891
 20
186.2836039511
 11
1471.4319945891
 21
186.2836039511
  0
LINE
  5
251
100
AcDbEntity
  8
0
100
AcDbLine
 62
9
  6
CONTINUOUS
 10
1141.8831339566
 20
176.098538579
 11
1138.9319945891
 21
176.6377754786
  0
LINE
  5
252
100
AcDbEntity
  8
0
100
AcDbLine
 62
7
  6
CONTINUOUS
 10
1054.9319945891
 20
89.2836039511
 11
1054.9319945891
 21
104.2836039511
  0
LINE
  5
253
100
AcDbEntity
  8
0
100
AcDbLine
 62
3
  6
CONTINUOUS
 10
1055.9319945891
 20
89.2836039511
 11
1055.9319945891
 21
25.2836039511
  0
LINE
  5
254
100
AcDbEntity
  8
0
100
AcDbLine
 62
7
  6
CONTINUOUS
 10
1055.9319945891
 20
21.2836039511
 11
1055.9319945891
 21
25.2836039511
  0
LINE
  5
255
100
AcDbEntity
  8
0
100
AcDbLine
 62
7
  6
CONTINUOUS
 10
1073.9319945891
 20
330.8281154521
 11
1073.9319945891
 21
401.2836039511
  0
LWPOLYLINE
  5
256
100
AcDbEntity
  8
0
100
AcDbPolyline
 62
7
  6
CONTINUOUS
 90
3
 70
0
 10
1264.9495293773
 20
432.4537393237
 10
1264.051080725
 20
431.7561511068
 10
1262.7907014561
 20
431.3267783607
  0
LINE
  5
257
100
AcDbEntity
  8
0
100
AcDbLine
 62
9
  6
CONTINUOUS
 10
1138.9319945891
 20
213.2836039511
 11
1136.9319945891
 21
213.2836039511
  0
LINE
  5
258
100
AcDbEntity
  8
0
100
AcDbLine
 62
9
  6
CONTINUOUS
 10
1206.9319945891
 20
213.2836039511
 11
1209.9319945891
 21
213.2836039511
  0
LINE
  5
259
100
AcDbEntity
  8
0
100
AcDbLine
 62
9
  6
CONTINUOUS
 10
1142.9319945891
 20
213.8110764786
 11
1167.1897706501
 21
213.8110764786
  0
LINE
  5
25A
100
AcDbEntity
  8
0
100
AcDbLine
 62
7
  6
CONTINUOUS
 10
1206.9319945891
 20
216.2836039511
 11
1141.9319945891
 21
216.2836039511
  0
LINE
  5
25B
100
AcDbEntity
  8
0
100
AcDbLine
 62
9
  6
CONTINUOUS
 10
1141.9319945891
 20
218.2836039511
 11
1209.9319945891
 21
218.2836039513
  0
LINE
  5
25C
100
AcDbEntity
  8
0
100
AcDbLine
 62
7
  6
CONTINUOUS
 10
1103.93199465
 20
351.2836039511
 11
1103.93199465
 21
91.2836039511
  0
LINE
  5
25D
100
AcDbEntity
  8
0
100
AcDbLine
 62
9
  6
CONTINUOUS
 10
1221.4319945891
 20
221.2836039511
 11
1461.4319945891
 21
221.2836039511
  0
LINE
  5
25E
100
AcDbEntity
  8
0
100
AcDbLine
 62
9
  6
CONTINUOUS
 10
1141.9319945891
 20
224.2836039511
 11
1209.9319945891
 21
224.2836039509
  0
LINE
  5
25F
100
AcDbEntity
  8
0
100
AcDbLine
 62
7
  6
CONTINUOUS
 10
1141.9319945891
 20
226.2836039511
 11
1206.9319945891
 21
226.2836039511
  0
LINE
  5
260
100
AcDbEntity
  8
0
100
AcDbLine
 62
9
  6
CONTINUOUS
 10
1167.1897706501
 20
228.7561314236
 11
1142.9319945891
 21
228.7561314236
  0
LINE
  5
261
100
AcDbEntity
  8
0
100
AcDbLine
 62
9
  6
CONTINUOUS
 10
1209.9319945891
 20
229.2836039511
 11
1206.9319945891
 21
229.2836039511
  0
LINE
  5
262
100
AcDbEntity
  8
0
100
AcDbLine
 62
9
  6
CONTINUOUS
 10
1138.9319945891
 20
229.2836039511
 11
1136.9319945892
 21
229.2836039513
  0
LINE
  5
263
100
AcDbEntity
  8
0
100
AcDbLine
 62
9
  6
CONTINUOUS
 10
1221.4319945891
 20
248.2032660171
 11
1461.4319945891
 21
248.2032660171
  0
LINE
  5
264
100
AcDbEntity
  8
0
100
AcDbLine
 62
7
  6
CONTINUOUS
 10
1123.9319945891
 20
331.2823257636
 11
1123.9319945891
 21
111.2848821386
  0
LINE
  5
265
100
AcDbEntity
  8
0
100
AcDbLine
 62
9
  6
CONTINUOUS
 10
1124.9319945891
 20
121.2836039511
 11
1124.9319945891
 21
321.2836039511
  0
LINE
  5
266
100
AcDbEntity
  8
0
100
AcDbLine
 62
9
  6
CONTINUOUS
 10
1136.9319945891
 20
321.2836039511
 11
1136.9319945891
 21
229.2836039511
  0
LINE
  5
267
100
AcDbEntity
  8
0
100
AcDbLine
 62
9
  6
CONTINUOUS
 10
1136.9319945891
 20
213.2836039511
 11
1136.9319945891
 21
121.2836039511
  0
LINE
  5
268
100
AcDbEntity
  8
0
100
AcDbLine
 62
7
  6
CONTINUOUS
 10
1138.9319945891
 20
319.2836039511
 11
1138.9319945891
 21
229.2836039511
  0
LINE
  5
269
100
AcDbEntity
  8
0
100
AcDbLine
 62
7
  6
CONTINUOUS
 10
1138.9319945891
 20
213.2836039511
 11
1138.9319945891
 21
123.2836039511
  0
LINE
  5
26A
100
AcDbEntity
  8
0
100
AcDbLine
 62
7
  6
CONTINUOUS
 10
1265.4319945891
 20
433.1188037845
 11
1264.9495293773
 21
432.4537393237
  0
LINE
  5
26B
100
AcDbEntity
  8
0
100
AcDbLine
 62
9
  6
CONTINUOUS
 10
1141.8831339566
 20
266.4686693231
 11
1138.9319945891
 21
265.9294324236
  0
LINE
  5
26C
100
AcDbEntity
  8
0
100
AcDbLine
 62
9
  6
CONTINUOUS
 10
1461.4319945891
 20
256.2836039511
 11
1471.4319945891
 21
256.2836039511
  0
LINE
  5
26D
100
AcDbEntity
  8
0
100
AcDbLine
 62
9
  6
CONTINUOUS
 10
1142.9319945891
 20
262.0119849698
 11
1167.1897706501
 21
262.0119849698
  0
LINE
  5
26E
100
AcDbEntity
  8
0
100
AcDbLine
 62
9
  6
CONTINUOUS
 10
1142.9319945891
 20
264.8869295123
 11
1167.1897706501
 21
264.8869295123
  0
LINE
  5
26F
100
AcDbEntity
  8
0
100
AcDbLine
 62
9
  6
CONTINUOUS
 10
1141.9319945891
 20
226.2836039511
 11
1141.9319945891
 21
224.2836039511
  0
LINE
  5
270
100
AcDbEntity
  8
0
100
AcDbLine
 62
9
  6
CONTINUOUS
 10
1141.9319945891
 20
175.8716011325
 11
1141.9319945891
 21
121.2836039511
  0
LINE
  5
271
100
AcDbEntity
  8
0
100
AcDbLine
 62
9
  6
CONTINUOUS
 10
1141.9319945891
 20
216.2836039511
 11
1141.9319945894
 21
218.2836039511
  0
LINE
  5
272
100
AcDbEntity
  8
0
100
AcDbLine
 62
9
  6
CONTINUOUS
 10
1141.9319945891
 20
266.6956067697
 11
1141.9319945894
 21
321.2836039511
  0
LINE
  5
273
100
AcDbEntity
  8
0
100
AcDbLine
 62
9
  6
CONTINUOUS
 10
1142.9319945891
 20
264.8869295123
 11
1142.9319945891
 21
226.2836039511
  0
LINE
  5
274
100
AcDbEntity
  8
0
100
AcDbLine
 62
9
  6
CONTINUOUS
 10
1142.9319945891
 20
177.6802783899
 11
1142.9319945891
 21
216.2836039511
  0
LINE
  5
275
100
AcDbEntity
  8
0
100
AcDbLine
 62
9
  6
CONTINUOUS
 10
1167.1897706501
 20
177.6802783899
 11
1167.1897706501
 21
216.2836039511
  0
LINE
  5
276
100
AcDbEntity
  8
0
100
AcDbLine
 62
9
  6
CONTINUOUS
 10
1167.1897706501
 20
226.2836039511
 11
1167.1897706501
 21
264.8869295123
  0
LINE
  5
277
100
AcDbEntity
  8
0
100
AcDbLine
 62
7
  6
CONTINUOUS
 10
1471.4319945891
 20
281.2836039511
 11
1465.4319945891
 21
281.2836039511
  0
LINE
  5
278
100
AcDbEntity
  8
0
100
AcDbLine
 62
9
  6
CONTINUOUS
 10
1123.9319945891
 20
281.2836039511
 11
1138.9319945891
 21
281.2836039511
  0
LINE
  5
279
100
AcDbEntity
  8
0
100
AcDbLine
 62
9
  6
CONTINUOUS
 10
1209.9319945891
 20
291.2836039511
 11
1206.9319945891
 21
291.2835949584
  0
LINE
  5
27A
100
AcDbEntity
  8
0
100
AcDbLine
 62
9
  6
CONTINUOUS
 10
1138.9319945891
 20
308.2836039511
 11
1206.9319945891
 21
308.2836039511
  0
LINE
  5
27B
100
AcDbEntity
  8
0
100
AcDbLine
 62
9
  6
CONTINUOUS
 10
1203.9366154924
 20
297.4815625978
 11
1206.9319945891
 21
297.3151172103
  0
LINE
  5
27C
100
AcDbEntity
  8
0
100
AcDbLine
 62
9
  6
CONTINUOUS
 10
1170.5258955043
 20
266.207301073
 11
1172.3320715276
 21
263.8993050475
  0
LINE
  5
27D
100
AcDbEntity
  8
0
100
AcDbLine
 62
9
  6
CONTINUOUS
 10
1172.3320715276
 20
178.6679028665
 11
1172.3320715276
 21
213.677543402
  0
LINE
  5
27E
100
AcDbEntity
  8
0
100
AcDbLine
 62
9
  6
CONTINUOUS
 10
1172.3320715276
 20
228.8896645002
 11
1172.3320715276
 21
263.8993050475
  0
LINE
  5
27F
100
AcDbEntity
  8
0
100
AcDbLine
 62
9
  6
CONTINUOUS
 10
1170.5258925088
 20
176.3599091739
 11
1172.3320715276
 21
178.6679028665
  0
LINE
  5
280
100
AcDbEntity
  8
0
100
AcDbLine
 62
9
  6
CONTINUOUS
 10
1207.929816026
 20
310.1565872973
 11
1209.9319945891
 21
310.1565872976
  0
LINE
  5
281
100
AcDbEntity
  8
0
100
AcDbLine
 62
7
  6
CONTINUOUS
 10
1482.4319945891
 20
311.2836039511
 11
1461.4319945891
 21
311.2836039511
  0
LINE
  5
282
100
AcDbEntity
  8
0
100
AcDbLine
 62
7
  6
CONTINUOUS
 10
1203.9319945891
 20
311.2836039511
 11
1141.9319945891
 21
311.2836039511
  0
LINE
  5
283
100
AcDbEntity
  8
0
100
AcDbLine
 62
9
  6
CONTINUOUS
 10
1138.9319945891
 20
319.2836039511
 11
1209.9319945891
 21
319.2836039513
  0
LINE
  5
284
100
AcDbEntity
  8
0
100
AcDbLine
 62
7
  6
CONTINUOUS
 10
1486.4319945891
 20
320.2836039511
 11
1506.4319945891
 21
320.2836039511
  0
LINE
  5
285
100
AcDbEntity
  8
0
100
AcDbLine
 62
7
  6
CONTINUOUS
 10
1205.9319945891
 20
321.2836039511
 11
1124.9319945891
 21
321.2836039511
  0
LINE
  5
286
100
AcDbEntity
  8
0
100
AcDbLine
 62
9
  6
CONTINUOUS
 10
1484.4319945891
 20
323.2836039511
 11
1471.4319945891
 21
323.2836039511
  0
LINE
  5
287
100
AcDbEntity
  8
0
100
AcDbLine
 62
9
  6
CONTINUOUS
 10
1471.4319945891
 20
326.2836039511
 11
1461.4319945891
 21
326.2836039511
  0
LINE
  5
288
100
AcDbEntity
  8
0
100
AcDbLine
 62
7
  6
CONTINUOUS
 10
933.9319945891
 20
330.8281154521
 11
1073.9319945891
 21
330.8281154521
  0
LINE
  5
289
100
AcDbEntity
  8
0
100
AcDbLine
 62
7
  6
CONTINUOUS
 10
1123.9320053419
 20
331.2836146532
 11
1103.9320072355
 21
351.2836166604
  0
LINE
  5
28A
100
AcDbEntity
  8
0
100
AcDbLine
 62
9
  6
CONTINUOUS
 10
1203.9319945891
 20
129.2835794548
 11
1203.9319945891
 21
144.7996774797
  0
LINE
  5
28B
100
AcDbEntity
  8
0
100
AcDbLine
 62
9
  6
CONTINUOUS
 10
1203.9319945891
 20
297.7675304225
 11
1203.9319945891
 21
313.2836284514
  0
LINE
  5
28C
100
AcDbEntity
  8
0
100
AcDbLine
 62
9
  6
CONTINUOUS
 10
1204.0742954666
 20
151.4025757979
 11
1204.0742954666
 21
213.5344074482
  0
LINE
  5
28D
100
AcDbEntity
  8
0
100
AcDbLine
 62
9
  6
CONTINUOUS
 10
1204.0742954666
 20
229.032800454
 11
1204.0742954666
 21
291.1646321042
  0
LINE
  5
28E
100
AcDbEntity
  8
0
100
AcDbLine
 62
9
  6
CONTINUOUS
 10
1205.9319945891
 20
121.2836039511
 11
1205.9319945891
 21
129.5899867111
  0
LINE
  5
28F
100
AcDbEntity
  8
0
100
AcDbLine
 62
9
  6
CONTINUOUS
 10
1205.9319945891
 20
312.9772214308
 11
1205.9319945891
 21
321.2836039511
  0
LINE
  5
290
100
AcDbEntity
  8
0
100
AcDbLine
 62
7
  6
CONTINUOUS
 10
1206.9319945891
 20
134.2836039511
 11
1206.9319945891
 21
213.2836039511
  0
LINE
  5
291
100
AcDbEntity
  8
0
100
AcDbLine
 62
9
  6
CONTINUOUS
 10
1206.9319945891
 20
216.2836039511
 11
1206.9319945891
 21
226.2836039511
  0
LINE
  5
292
100
AcDbEntity
  8
0
100
AcDbLine
 62
7
  6
CONTINUOUS
 10
1206.9319945891
 20
229.2836039511
 11
1206.9319945891
 21
308.2836039511
  0
LINE
  5
293
100
AcDbEntity
  8
0
100
AcDbLine
 62
9
  6
CONTINUOUS
 10
1208.4319945878
 20
151.2836039511
 11
1208.4319945891
 21
213.2836039511
  0
LINE
  5
294
100
AcDbEntity
  8
0
100
AcDbLine
 62
9
  6
CONTINUOUS
 10
1208.4319945891
 20
229.2836039511
 11
1208.4319945877
 21
291.2836039519
  0
LINE
  5
295
100
AcDbEntity
  8
0
100
AcDbLine
 62
7
  6
CONTINUOUS
 10
1209.9319945891
 20
354.2836039511
 11
1209.9319945891
 21
88.2836039511
  0
LINE
  5
296
100
AcDbEntity
  8
0
100
AcDbLine
 62
9
  6
CONTINUOUS
 10
1211.9319945891
 20
356.2836039511
 11
1211.9319945891
 21
86.2836039511
  0
LINE
  5
297
100
AcDbEntity
  8
0
100
AcDbLine
 62
7
  6
CONTINUOUS
 10
1220.9319945891
 20
356.2836039511
 11
1220.9319945891
 21
86.2836039511
  0
LINE
  5
298
100
AcDbEntity
  8
0
100
AcDbLine
 62
7
  6
CONTINUOUS
 10
1221.4319945891
 20
62.2836040047
 11
1221.4319945891
 21
401.2836039511
  0
LINE
  5
299
100
AcDbEntity
  8
0
100
AcDbLine
 62
7
  6
CONTINUOUS
 10
1123.9320053419
 20
111.283593249
 11
1103.9320072355
 21
91.2835912418
  0
LINE
  5
29A
100
AcDbEntity
  8
3_ALL_AXES
100
AcDbLine
 62
7
  6
CONTINUOUS
 10
1221.4319945891
 20
343.7836039511
 11
1220.9319945891
 21
343.7836039511
  0
LINE
  5
29B
100
AcDbEntity
  8
02___PRT_ALL_AXES
100
AcDbLine
 62
7
  6
CONTINUOUS
 10
734.2162412256
 20
351.2836039511
 11
775.9319945891
 21
351.2836039511
  0
LINE
  5
29C
100
AcDbEntity
  8
02___PRT_ALL_AXES
100
AcDbLine
 62
7
  6
CONTINUOUS
 10
785.9319945891
 20
351.2836039511
 11
933.9319945891
 21
351.2836039511
  0
LINE
  5
29D
100
AcDbEntity
  8
02___PRT_ALL_AXES
100
AcDbLine
 62
7
  6
CONTINUOUS
 10
1073.9319945891
 20
351.2836039511
 11
1103.9319945262
 21
351.2836039511
  0
LINE
  5
29E
100
AcDbEntity
  8
0
100
AcDbLine
 62
7
  6
CONTINUOUS
 10
1220.9319945891
 20
356.2836039511
 11
1211.9319945891
 21
356.2836039511
  0
LINE
  5
29F
100
AcDbEntity
  8
0
100
AcDbLine
 62
9
  6
CONTINUOUS
 10
1202.152538741
 20
293.4319538963
 11
1204.0742954666
 21
291.1646321042
  0
LINE
  5
2A0
100
AcDbEntity
  8
0
100
AcDbLine
 62
9
  6
CONTINUOUS
 10
1202.3552136093
 20
293.6107530371
 11
1204.2779716199
 21
291.3421370615
  0
LINE
  5
2A1
100
AcDbEntity
  8
0
100
AcDbLine
 62
7
  6
CONTINUOUS
 10
1235.4319945891
 20
451.2836039511
 11
1235.4319945891
 21
426.5839708134
  0
LINE
  5
2A2
100
AcDbEntity
  8
0
100
AcDbLine
 62
7
  6
CONTINUOUS
 10
1244.4319945891
 20
455.2836039511
 11
1244.4319945891
 21
468.2836039511
  0
LINE
  5
2A3
100
AcDbEntity
  8
0
100
AcDbLine
 62
9
  6
CONTINUOUS
 10
1247.4319945891
 20
453.2836039511
 11
1247.4319945891
 21
441.2836039511
  0
LINE
  5
2A4
100
AcDbEntity
  8
0
100
AcDbLine
 62
9
  6
CONTINUOUS
 10
1250.4319945891
 20
441.2836039511
 11
1250.4319945891
 21
431.1847927916
  0
LINE
  5
2A5
100
AcDbEntity
  8
0
100
AcDbLine
 62
9
  6
CONTINUOUS
 10
1251.4319945891
 20
32.2836039511
 11
1251.4319946021
 21
431.2836039511
  0
LINE
  5
2A6
100
AcDbEntity
  8
0
100
AcDbLine
 62
9
  6
CONTINUOUS
 10
1202.1525387668
 20
149.135253984
 11
1204.0742954666
 21
151.4025757979
  0
LINE
  5
2A7
100
AcDbEntity
  8
0
100
AcDbLine
 62
9
  6
CONTINUOUS
 10
1202.3552136093
 20
148.9564548651
 11
1204.2779716199
 21
151.2250708407
  0
LINE
  5
2A8
100
AcDbEntity
  8
0
100
AcDbLine
 62
7
  6
CONTINUOUS
 10
933.9319945891
 20
401.2836039511
 11
1073.9319945891
 21
401.2836039511
  0
LINE
  5
2A9
100
AcDbEntity
  8
02___PRT_ALL_AXES
100
AcDbLine
 62
7
  6
CONTINUOUS
 10
1265.4319945891
 20
441.2836039511
 11
1265.4319945891
 21
431.6397798775
  0
LINE
  5
2AA
100
AcDbEntity
  8
0
100
AcDbLine
 62
7
  6
CONTINUOUS
 10
1265.4319946732
 20
431.6250841012
 11
1265.4319948393
 21
431.6206934312
  0
LINE
  5
2AB
100
AcDbEntity
  8
0
100
AcDbLine
 62
7
  6
CONTINUOUS
 10
1262.7907014561
 20
431.3267783607
 11
1262.2519829423
 21
431.2835315309
  0
LINE
  5
2AC
100
AcDbEntity
  8
0
100
AcDbLine
 62
9
  6
CONTINUOUS
 10
1471.4319945891
 20
416.2836039511
 11
1454.2569394276
 21
416.2836039511
  0
LINE
  5
2AD
100
AcDbEntity
  8
0
100
AcDbLine
 62
9
  6
CONTINUOUS
 10
1484.4319945891
 20
419.2836039511
 11
1471.4319945891
 21
419.2836039511
  0
LINE
  5
2AE
100
AcDbEntity
  8
0
100
AcDbLine
 62
7
  6
CONTINUOUS
 10
1486.4319945891
 20
422.2836039511
 11
1506.4319945891
 21
422.2836039511
  0
LINE
  5
2AF
100
AcDbEntity
  8
0
100
AcDbLine
 62
9
  6
CONTINUOUS
 10
1329.0788152057
 20
430.7732882558
 11
1431.4319945891
 21
430.7732882558
  0
LINE
  5
2B0
100
AcDbEntity
  8
0
100
AcDbLine
 62
9
  6
CONTINUOUS
 10
1251.4319946027
 20
430.7732927998
 11
1261.7851739726
 21
430.7732882558
  0
LINE
  5
2B1
100
AcDbEntity
  8
0
100
AcDbLine
 62
7
  6
CONTINUOUS
 10
1482.4319945891
 20
431.2836039511
 11
1328.6099179386
 21
431.2836039511
  0
LINE
  5
2B2
100
AcDbEntity
  8
0
100
AcDbLine
 62
7
  6
CONTINUOUS
 10
1262.2528850685
 20
431.2836039511
 11
1251.4319945891
 21
431.2836039511
  0
LINE
  5
2B3
100
AcDbEntity
  8
0
100
AcDbLine
 62
7
  6
CONTINUOUS
 10
1295.4319945891
 20
21.2836039511
 11
1295.4319945891
 21
102.856846603
  0
LINE
  5
2B4
100
AcDbEntity
  8
0
100
AcDbLine
 62
7
  6
CONTINUOUS
 10
1305.4319945891
 20
36.2836039511
 11
1305.4319945891
 21
102.856846603
  0
LINE
  5
2B5
100
AcDbEntity
  8
0
100
AcDbLine
 62
7
  6
CONTINUOUS
 10
1355.4319945891
 20
441.2836039511
 11
1325.4319945891
 21
441.2836039511
  0
LINE
  5
2B6
100
AcDbEntity
  8
0
100
AcDbLine
 62
7
  6
CONTINUOUS
 10
1265.4321696949
 20
441.2836039511
 11
1235.4319945891
 21
441.2836039511
  0
LINE
  5
2B7
100
AcDbEntity
  8
02___PRT_ALL_AXES
100
AcDbLine
 62
7
  6
CONTINUOUS
 10
1265.4321696949
 20
441.2836039511
 11
1325.4318194834
 21
441.2836039511
  0
LINE
  5
2B8
100
AcDbEntity
  8
0
100
AcDbLine
 62
9
  6
CONTINUOUS
 10
1235.4319945891
 20
451.2836039511
 11
1355.4319945891
 21
451.2836039511
  0
LINE
  5
2B9
100
AcDbEntity
  8
0
100
AcDbLine
 62
7
  6
CONTINUOUS
 10
1237.4319945891
 20
453.2836039511
 11
1353.4319945891
 21
453.2836039511
  0
LINE
  5
2BA
100
AcDbEntity
  8
0
100
AcDbLine
 62
9
  6
CONTINUOUS
 10
1244.4319945891
 20
455.2836039511
 11
1346.4319945891
 21
455.2836039511
  0
LINE
  5
2BB
100
AcDbEntity
  8
0
100
AcDbLine
 62
7
  6
CONTINUOUS
 10
1328.6454354709
 20
431.2836031521
 11
1328.6106494202
 21
431.2837561423
  0
LINE
  5
2BC
100
AcDbEntity
  8
0
100
AcDbLine
 62
7
  6
CONTINUOUS
 10
1328.6106473812
 20
431.2835430322
 11
1328.0505458408
 21
431.3303195489
  0
LINE
  5
2BD
100
AcDbEntity
  8
0
100
AcDbLine
 62
7
  6
CONTINUOUS
 10
1325.4319944
 20
431.6219869601
 11
1325.4319945143
 21
431.6259256998
  0
LINE
  5
2BE
100
AcDbEntity
  8
02___PRT_ALL_AXES
100
AcDbLine
 62
7
  6
CONTINUOUS
 10
1325.4319945891
 20
431.6397897399
 11
1325.4319945891
 21
441.2836039511
  0
LINE
  5
2BF
100
AcDbEntity
  8
0
100
AcDbLine
 62
9
  6
CONTINUOUS
 10
1340.4319945891
 20
441.2836039511
 11
1340.4319945891
 21
431.2836039511
  0
LINE
  5
2C0
100
AcDbEntity
  8
0
100
AcDbLine
 62
9
  6
CONTINUOUS
 10
1343.4319945891
 20
453.2836039511
 11
1343.4319945891
 21
441.2836039511
  0
LINE
  5
2C1
100
AcDbEntity
  8
0
100
AcDbLine
 62
9
  6
CONTINUOUS
 10
1343.4319945891
 20
21.2836039511
 11
1343.4319945891
 21
39.2836039511
  0
LINE
  5
2C2
100
AcDbEntity
  8
0
100
AcDbLine
 62
7
  6
CONTINUOUS
 10
1346.4319945891
 20
455.2836039511
 11
1346.4319945891
 21
468.2836039511
  0
LINE
  5
2C3
100
AcDbEntity
  8
0
100
AcDbLine
 62
7
  6
CONTINUOUS
 10
1244.4319945891
 20
468.2836039511
 11
1346.4319945891
 21
468.2836039511
  0
LINE
  5
2C4
100
AcDbEntity
  8
0
100
AcDbLine
 62
7
  6
CONTINUOUS
 10
1355.4319945891
 20
451.2836039511
 11
1355.4319945891
 21
431.2836039511
  0
LINE
  5
2C5
100
AcDbEntity
  8
0
100
AcDbLine
 62
7
  6
CONTINUOUS
 10
1355.4319945891
 20
58.0377142679
 11
1355.4319945891
 21
21.2836039511
  0
LWPOLYLINE
  5
2C6
100
AcDbEntity
  8
0
100
AcDbPolyline
 62
7
  6
CONTINUOUS
 90
3
 70
0
 10
1328.0505458408
 20
431.3303195489
 10
1326.7858427425
 20
431.7712933312
 10
1325.8942742063
 20
432.4754199181
  0
LINE
  5
2C7
100
AcDbEntity
  8
0
100
AcDbLine
 62
7
  6
CONTINUOUS
 10
1325.8942742063
 20
432.4754199181
 11
1325.4319945891
 21
433.1231131809
  0
LINE
  5
2C8
100
AcDbEntity
  8
0
100
AcDbLine
 62
9
  6
CONTINUOUS
 10
1431.4319945891
 20
430.7732882558
 11
1431.4319945891
 21
32.2836039511
  0
LINE
  5
2C9
100
AcDbEntity
  8
0
100
AcDbLine
 62
7
  6
CONTINUOUS
 10
1461.4319945891
 20
395.4479603188
 11
1461.4319945891
 21
77.5111215898
  0
LINE
  5
2CA
100
AcDbEntity
  8
0
100
AcDbLine
 62
9
  6
CONTINUOUS
 10
1465.4319945891
 20
281.2836039511
 11
1465.4319945891
 21
161.2836039511
  0
LINE
  5
2CB
100
AcDbEntity
  8
0
100
AcDbLine
 62
9
  6
CONTINUOUS
 10
1465.4319945891
 20
101.2836039511
 11
1465.4319945891
 21
76.1651807005
  0
LINE
  5
2CC
100
AcDbEntity
  8
02___PRT_ALL_AXES
100
AcDbLine
 62
7
  6
CONTINUOUS
 10
1471.4319945891
 20
281.2836039511
 11
1471.4319945891
 21
161.2836039511
  0
LINE
  5
2CD
100
AcDbEntity
  8
02___PRT_ALL_AXES
100
AcDbLine
 62
7
  6
CONTINUOUS
 10
1471.4319945891
 20
101.2834288453
 11
1471.4319945891
 21
41.2837790569
  0
LINE
  5
2CE
100
AcDbEntity
  8
0
100
AcDbLine
 62
7
  6
CONTINUOUS
 10
1471.4319945891
 20
311.2836039511
 11
1471.4319945891
 21
431.2836039511
  0
LWPOLYLINE
  5
2CF
100
AcDbEntity
  8
0
100
AcDbPolyline
 62
7
  6
CONTINUOUS
 90
4
 70
0
 10
1451.7644183117
 20
40.2247641874
 10
1452.9197817732
 20
40.9686943105
 10
1454.1364181438
 20
41.2691962844
 10
1454.4754125643
 20
41.283586796
  0
LINE
  5
2D0
100
AcDbEntity
  8
0
100
AcDbLine
 62
9
  6
CONTINUOUS
 10
1482.4319945891
 20
431.2836039511
 11
1482.4319945891
 21
311.2836039511
  0
LINE
  5
2D1
100
AcDbEntity
  8
0
100
AcDbLine
 62
7
  6
CONTINUOUS
 10
1484.4319945891
 20
429.2836039511
 11
1484.4319945891
 21
313.2836039511
  0
LINE
  5
2D2
100
AcDbEntity
  8
0
100
AcDbLine
 62
9
  6
CONTINUOUS
 10
1486.4319945891
 20
422.2836039511
 11
1486.4319945891
 21
320.2836039511
  0
LINE
  5
2D3
100
AcDbEntity
  8
0
100
AcDbLine
 62
7
  6
CONTINUOUS
 10
1506.4319945891
 20
422.2836039511
 11
1506.4319945891
 21
320.2836039511
  0
LINE
  5
2D4
100
AcDbEntity
  8
0
100
AcDbLine
 62
7
  6
CONTINUOUS
 10
367.1840148764
 20
21.2836039511
 11
297.1840148764
 21
21.2836039511
  0
LINE
  5
2D5
100
AcDbEntity
  8
0
100
AcDbLine
 62
7
  6
CONTINUOUS
 10
97.1840148764
 20
21.2836039511
 11
27.1840148764
 21
21.2836039511
  0
LINE
  5
2D6
100
AcDbEntity
  8
0
100
AcDbLine
 62
7
  6
CONTINUOUS
 10
290.0418792527
 20
32.2836039511
 11
104.3261505001
 21
32.2836039511
  0
LINE
  5
2D7
100
AcDbEntity
  8
0
100
AcDbLine
 62
9
  6
CONTINUOUS
 10
27.1840148764
 20
36.2836039511
 11
94.1840148764
 21
36.2836039511
  0
LINE
  5
2D8
100
AcDbEntity
  8
0
100
AcDbLine
 62
9
  6
CONTINUOUS
 10
300.1840148764
 20
36.2836039511
 11
367.1840148764
 21
36.2836039511
  0
LINE
  5
2D9
100
AcDbEntity
  8
0
100
AcDbLine
 62
7
  6
CONTINUOUS
 10
30.1840148764
 20
39.2836039511
 11
97.1840148764
 21
39.2836039511
  0
LINE
  5
2DA
100
AcDbEntity
  8
0
100
AcDbLine
 62
7
  6
CONTINUOUS
 10
297.1840148764
 20
39.2836039511
 11
364.1840148764
 21
39.2836039511
  0
LINE
  5
2DB
100
AcDbEntity
  8
0
100
AcDbLine
 62
7
  6
CONTINUOUS
 10
22.1840148764
 20
248.2032660171
 11
22.1840148764
 21
221.2836039511
  0
LINE
  5
2DC
100
AcDbEntity
  8
0
100
AcDbLine
 62
7
  6
CONTINUOUS
 10
27.1840148764
 20
21.2836039511
 11
27.1840148764
 21
39.2836039511
  0
LINE
  5
2DD
100
AcDbEntity
  8
0
100
AcDbLine
 62
9
  6
CONTINUOUS
 10
39.1840148764
 20
21.2836039511
 11
39.1840148764
 21
39.2836039511
  0
LWPOLYLINE
  5
2DE
100
AcDbEntity
  8
0
100
AcDbPolyline
 62
7
  6
CONTINUOUS
 90
3
 70
0
 10
85.8640048264
 20
390.1903970391
 10
85.8411842986
 20
390.1378927969
 10
85.6989250946
 20
389.8489351605
  0
LWPOLYLINE
  5
2DF
100
AcDbEntity
  8
0
100
AcDbPolyline
 62
7
  6
CONTINUOUS
 90
7
 70
0
 10
85.8487575962
 20
390.1550874417
 10
85.7430856444
 20
389.9325028869
 10
85.5964550103
 20
389.6712874357
 10
85.4403406297
 20
389.4352523074
 10
85.2811128309
 20
389.2268932086
 10
85.1279914638
 20
389.0503775728
 10
84.9957430202
 20
388.9133492218
  0
LWPOLYLINE
  5
2E0
100
AcDbEntity
  8
0
100
AcDbPolyline
 62
7
  6
CONTINUOUS
 90
6
 70
0
 10
85.6989250946
 20
389.8489351605
 10
85.5427814523
 20
389.5860659432
 10
85.3786355206
 20
389.3512372654
 10
85.2142386371
 20
389.1473751633
 10
85.0624580409
 20
388.9810068416
 10
84.9484586432
 20
388.8676035269
  0
LWPOLYLINE
  5
2E1
100
AcDbEntity
  8
0
100
AcDbPolyline
 62
7
  6
CONTINUOUS
 90
3
 70
0
 10
84.9957430202
 20
388.9133492218
 10
84.9260783715
 20
388.8462216711
 10
84.9020002537
 20
388.8238185736
  0
LWPOLYLINE
  5
2E2
100
AcDbEntity
  8
0
100
AcDbPolyline
 62
7
  6
CONTINUOUS
 90
3
 70
0
 10
84.9484586432
 20
388.8676035269
 10
84.9025853154
 20
388.8245220731
 10
84.8877570101
 20
388.8109356863
  0
LINE
  5
2E3
100
AcDbEntity
  8
0
100
AcDbLine
 62
7
  6
CONTINUOUS
 10
84.8877570101
 20
388.8109356863
 11
84.886201861
 21
388.809525215
  0
LINE
  5
2E4
100
AcDbEntity
  8
0
100
AcDbLine
 62
7
  6
CONTINUOUS
 10
84.8575900059
 20
388.7829031608
 11
85.1723469979
 21
389.065111662
  0
LINE
  5
2E5
100
AcDbEntity
  8
0
100
AcDbLine
 62
9
  6
CONTINUOUS
 10
143.2835523176
 20
77.511119851
 11
147.0503775147
 21
76.1651558397
  0
LINE
  5
2E6
100
AcDbEntity
  8
0
100
AcDbLine
 62
9
  6
CONTINUOUS
 10
52.1840148764
 20
248.2032660171
 11
52.1840148764
 21
221.2836039511
  0
LINE
  5
2E7
100
AcDbEntity
  8
0
100
AcDbLine
 62
7
  6
CONTINUOUS
 10
86.1840148764
 20
441.2836039511
 11
86.1840148764
 21
391.7581335765
  0
LINE
  5
2E8
100
AcDbEntity
  8
02___PRT_ALL_AXES
100
AcDbLine
 62
7
  6
CONTINUOUS
 10
97.1840148764
 20
21.2836039511
 11
97.1840148764
 21
25.1414683274
  0
LINE
  5
2E9
100
AcDbEntity
  8
0
100
AcDbLine
 62
9
  6
CONTINUOUS
 10
117.1840148764
 20
256.2836039511
 11
117.1840148764
 21
186.2836039511
  0
LINE
  5
2EA
100
AcDbEntity
  8
02___PRT_ALL_AXES
100
AcDbLine
 62
7
  6
CONTINUOUS
 10
277.8818983208
 20
44.4435848829
 11
297.1840148764
 21
25.1414683274
  0
LINE
  5
2EB
100
AcDbEntity
  8
02___PRT_ALL_AXES
100
AcDbLine
 62
7
  6
CONTINUOUS
 10
121.1840148764
 20
256.2836039511
 11
121.1840148764
 21
186.2836039511
  0
LINE
  5
2EC
100
AcDbEntity
  8
0
100
AcDbLine
 62
9
  6
CONTINUOUS
 10
146.1840148764
 20
157.2836039511
 11
276.1840148764
 21
157.2836039511
  0
LINE
  5
2ED
100
AcDbEntity
  8
02___PRT_ALL_AXES
100
AcDbLine
 62
7
  6
CONTINUOUS
 10
146.1840148764
 20
161.2836039511
 11
276.1840148764
 21
161.2836039511
  0
LINE
  5
2EE
100
AcDbEntity
  8
0
100
AcDbLine
 62
7
  6
CONTINUOUS
 10
300.1840148764
 20
36.2836039511
 11
287.9097139123
 21
48.5579049152
  0
LINE
  5
2EF
100
AcDbEntity
  8
0
100
AcDbLine
 62
9
  6
CONTINUOUS
 10
146.1840148764
 20
285.2836039511
 11
146.1840148764
 21
281.2836039511
  0
LINE
  5
2F0
100
AcDbEntity
  8
0
100
AcDbLine
 62
9
  6
CONTINUOUS
 10
146.1840148764
 20
157.2836039511
 11
146.1840148764
 21
161.2836039511
  0
LINE
  5
2F1
100
AcDbEntity
  8
0
100
AcDbLine
 62
7
  6
CONTINUOUS
 10
151.1840148764
 20
419.2836039511
 11
151.1840148764
 21
323.2836039511
  0
LINE
  5
2F2
100
AcDbEntity
  8
0
100
AcDbLine
 62
9
  6
CONTINUOUS
 10
153.1840148764
 20
419.2836039511
 11
153.1840148764
 21
323.2836039511
  0
LINE
  5
2F3
100
AcDbEntity
  8
0
100
AcDbLine
 62
7
  6
CONTINUOUS
 10
27.1840148764
 20
39.2836039511
 11
63.8880436347
 21
102.856846603
  0
LINE
  5
2F4
100
AcDbEntity
  8
0
100
AcDbLine
 62
9
  6
CONTINUOUS
 10
305.1840148764
 20
186.2836039511
 11
301.1840148764
 21
186.2836039511
  0
LINE
  5
2F5
100
AcDbEntity
  8
0
100
AcDbLine
 62
9
  6
CONTINUOUS
 10
117.1840148764
 20
186.2836039511
 11
121.1840148764
 21
186.2836039511
  0
LINE
  5
2F6
100
AcDbEntity
  8
0
100
AcDbLine
 62
9
  6
CONTINUOUS
 10
163.1840148764
 20
313.2836039511
 11
163.1840148764
 21
311.2836039511
  0
LINE
  5
2F7
100
AcDbEntity
  8
0
100
AcDbLine
 62
9
  6
CONTINUOUS
 10
163.1840148764
 20
429.2836039511
 11
163.1840148764
 21
431.2836039511
  0
LINE
  5
2F8
100
AcDbEntity
  8
0
100
AcDbLine
 62
9
  6
CONTINUOUS
 10
52.1840148764
 20
221.2836039511
 11
22.1840148764
 21
221.2836039512
  0
LINE
  5
2F9
100
AcDbEntity
  8
0
100
AcDbLine
 62
9
  6
CONTINUOUS
 10
370.1840148764
 20
221.2836039511
 11
400.1840148764
 21
221.2836039511
  0
LINE
  5
2FA
100
AcDbEntity
  8
0
100
AcDbLine
 62
7
  6
CONTINUOUS
 10
216.1840148764
 20
441.2836039511
 11
216.1840148764
 21
435.2836039511
  0
LINE
  5
2FB
100
AcDbEntity
  8
0
100
AcDbLine
 62
9
  6
CONTINUOUS
 10
52.1840148764
 20
248.2032660171
 11
22.1840148764
 21
248.2032660171
  0
LINE
  5
2FC
100
AcDbEntity
  8
0
100
AcDbLine
 62
9
  6
CONTINUOUS
 10
370.1840148764
 20
248.2032660171
 11
400.1840148764
 21
248.2032660171
  0
LINE
  5
2FD
100
AcDbEntity
  8
0
100
AcDbLine
 62
9
  6
CONTINUOUS
 10
305.1840148764
 20
256.2836039511
 11
301.1840148764
 21
256.2836039511
  0
LINE
  5
2FE
100
AcDbEntity
  8
0
100
AcDbLine
 62
9
  6
CONTINUOUS
 10
117.1840148764
 20
256.2836039511
 11
121.1840148764
 21
256.2836039511
  0
LINE
  5
2FF
100
AcDbEntity
  8
02___PRT_ALL_AXES
100
AcDbLine
 62
7
  6
CONTINUOUS
 10
276.1840148764
 20
281.2836039511
 11
146.1840148764
 21
281.2836039511
  0
LINE
  5
300
100
AcDbEntity
  8
0
100
AcDbLine
 62
9
  6
CONTINUOUS
 10
276.1840148764
 20
285.2836039511
 11
146.1840148764
 21
285.2836039511
  0
LINE
  5
301
100
AcDbEntity
  8
0
100
AcDbLine
 62
7
  6
CONTINUOUS
 10
341.267206091
 20
84.1728335374
 11
367.1840148764
 21
39.2836039511
  0
LINE
  5
302
100
AcDbEntity
  8
0
100
AcDbLine
 62
9
  6
CONTINUOUS
 10
259.1840148764
 20
313.2836039511
 11
259.1840148764
 21
311.2836039511
  0
LINE
  5
303
100
AcDbEntity
  8
0
100
AcDbLine
 62
9
  6
CONTINUOUS
 10
259.1840148764
 20
429.2836039511
 11
259.1840148764
 21
431.2836039511
  0
LINE
  5
304
100
AcDbEntity
  8
0
100
AcDbLine
 62
9
  6
CONTINUOUS
 10
269.1840148764
 20
323.2836039511
 11
269.1840148764
 21
419.2836039511
  0
LINE
  5
305
100
AcDbEntity
  8
0
100
AcDbLine
 62
7
  6
CONTINUOUS
 10
271.1840148764
 20
323.2836039511
 11
271.1840148764
 21
419.2836039511
  0
LINE
  5
306
100
AcDbEntity
  8
0
100
AcDbLine
 62
9
  6
CONTINUOUS
 10
276.1840148764
 20
285.2836039511
 11
276.1840148764
 21
281.2836039511
  0
LINE
  5
307
100
AcDbEntity
  8
0
100
AcDbLine
 62
9
  6
CONTINUOUS
 10
276.1840148764
 20
157.2836039511
 11
276.1840148764
 21
161.2836039511
  0
LINE
  5
308
100
AcDbEntity
  8
0
100
AcDbLine
 62
7
  6
CONTINUOUS
 10
286.1840148764
 20
451.2836039511
 11
286.1840148764
 21
426.2836039511
  0
LINE
  5
309
100
AcDbEntity
  8
0
100
AcDbLine
 62
7
  6
CONTINUOUS
 10
295.1840148764
 20
455.2836039511
 11
295.1840148764
 21
468.2836039511
  0
LINE
  5
30A
100
AcDbEntity
  8
0
100
AcDbLine
 62
7
  6
CONTINUOUS
 10
115.9381251932
 20
58.0377142679
 11
94.1840148764
 21
36.2836039511
  0
LINE
  5
30B
100
AcDbEntity
  8
02___PRT_ALL_AXES
100
AcDbLine
 62
7
  6
CONTINUOUS
 10
97.1840148764
 20
25.1414683274
 11
125.0793484117
 21
53.0368018626
  0
LINE
  5
30C
100
AcDbEntity
  8
0
100
AcDbLine
 62
7
  6
CONTINUOUS
 10
163.1840148764
 20
311.2836039511
 11
259.1840148764
 21
311.2836039511
  0
LINE
  5
30D
100
AcDbEntity
  8
0
100
AcDbLine
 62
9
  6
CONTINUOUS
 10
163.1840148764
 20
313.2836039511
 11
259.1840148764
 21
313.2836039511
  0
LINE
  5
30E
100
AcDbEntity
  8
0
100
AcDbLine
 62
9
  6
CONTINUOUS
 10
153.1840148764
 20
323.2836039511
 11
151.1840148764
 21
323.2836039511
  0
LINE
  5
30F
100
AcDbEntity
  8
0
100
AcDbLine
 62
9
  6
CONTINUOUS
 10
269.1840148764
 20
323.2836039511
 11
271.1840148764
 21
323.2836039511
  0
LINE
  5
310
100
AcDbEntity
  8
02___PRT_ALL_AXES
100
AcDbLine
 62
7
  6
CONTINUOUS
 10
297.1840148764
 20
21.2836039511
 11
297.1840148764
 21
25.1414683274
  0
LINE
  5
311
100
AcDbEntity
  8
0
100
AcDbLine
 62
9
  6
CONTINUOUS
 10
298.1840148764
 20
453.2836039511
 11
298.1840148764
 21
441.2836039511
  0
LINE
  5
312
100
AcDbEntity
  8
0
100
AcDbLine
 62
9
  6
CONTINUOUS
 10
301.1840148764
 20
441.2836039511
 11
301.1840148764
 21
426.2836039511
  0
LINE
  5
313
100
AcDbEntity
  8
02___PRT_ALL_AXES
100
AcDbLine
 62
7
  6
CONTINUOUS
 10
301.1840148764
 20
186.2836039511
 11
301.1840148764
 21
256.2836039511
  0
LINE
  5
314
100
AcDbEntity
  8
0
100
AcDbLine
 62
7
  6
CONTINUOUS
 10
303.6840148764
 20
413.0205891358
 11
303.6840148764
 21
426.2836039511
  0
LINE
  5
315
100
AcDbEntity
  8
0
100
AcDbLine
 62
9
  6
CONTINUOUS
 10
305.1840148764
 20
186.2836039511
 11
305.1840148764
 21
256.2836039511
  0
LINE
  5
316
100
AcDbEntity
  8
0
100
AcDbLine
 62
9
  6
CONTINUOUS
 10
318.6840148764
 20
403.6534187993
 11
318.6840148764
 21
426.2836039511
  0
LINE
  5
317
100
AcDbEntity
  8
0
100
AcDbLine
 62
9
  6
CONTINUOUS
 10
355.1840148764
 20
21.2836039511
 11
355.1840148764
 21
39.2836039511
  0
LINE
  5
318
100
AcDbEntity
  8
0
100
AcDbLine
 62
7
  6
CONTINUOUS
 10
367.1840148764
 20
21.2836039511
 11
367.1840148764
 21
39.2836039511
  0
LINE
  5
319
100
AcDbEntity
  8
0
100
AcDbLine
 62
9
  6
CONTINUOUS
 10
370.1840148764
 20
221.2836039511
 11
370.1840148764
 21
248.2032660171
  0
LINE
  5
31A
100
AcDbEntity
  8
0
100
AcDbLine
 62
9
  6
CONTINUOUS
 10
373.6840148764
 20
344.7162185157
 11
373.6840148764
 21
426.2836039511
  0
LINE
  5
31B
100
AcDbEntity
  8
0
100
AcDbLine
 62
7
  6
CONTINUOUS
 10
388.6840148764
 20
313.1243719843
 11
388.6840148764
 21
426.2836039511
  0
LINE
  5
31C
100
AcDbEntity
  8
0
100
AcDbLine
 62
9
  6
CONTINUOUS
 10
391.1840148764
 20
441.2836039511
 11
391.1840148764
 21
426.2836039511
  0
LINE
  5
31D
100
AcDbEntity
  8
0
100
AcDbLine
 62
9
  6
CONTINUOUS
 10
279.0844773063
 20
77.5111197806
 11
275.3172008185
 21
76.1649945706
  0
LINE
  5
31E
100
AcDbEntity
  8
0
100
AcDbLine
 62
9
  6
CONTINUOUS
 10
153.1840148764
 20
419.2836039511
 11
151.1840148764
 21
419.2836039511
  0
LINE
  5
31F
100
AcDbEntity
  8
0
100
AcDbLine
 62
9
  6
CONTINUOUS
 10
269.1840148764
 20
419.2836039511
 11
271.1840148764
 21
419.2836039511
  0
LINE
  5
320
100
AcDbEntity
  8
0
100
AcDbLine
 62
9
  6
CONTINUOUS
 10
394.1840148764
 20
453.2836039511
 11
394.1840148764
 21
441.2836039511
  0
LINE
  5
321
100
AcDbEntity
  8
0
100
AcDbLine
 62
7
  6
CONTINUOUS
 10
397.1840148764
 20
455.2836039511
 11
397.1840148764
 21
468.2836039511
  0
LINE
  5
322
100
AcDbEntity
  8
0
100
AcDbLine
 62
7
  6
CONTINUOUS
 10
400.1840148764
 20
221.2836039511
 11
400.1840148764
 21
248.2032660171
  0
LINE
  5
323
100
AcDbEntity
  8
0
100
AcDbLine
 62
7
  6
CONTINUOUS
 10
406.1840148764
 20
451.2836039511
 11
406.1840148764
 21
426.2836039511
  0
LINE
  5
324
100
AcDbEntity
  8
0
100
AcDbLine
 62
7
  6
CONTINUOUS
 10
406.1840148764
 20
426.2836039511
 11
286.1840148764
 21
426.2836039511
  0
LINE
  5
325
100
AcDbEntity
  8
0
100
AcDbLine
 62
9
  6
CONTINUOUS
 10
259.1840148764
 20
429.2836039511
 11
163.1840148764
 21
429.2836039511
  0
LINE
  5
326
100
AcDbEntity
  8
0
100
AcDbLine
 62
7
  6
CONTINUOUS
 10
259.1840148764
 20
431.2836039511
 11
163.1840148764
 21
431.2836039511
  0
LINE
  5
327
100
AcDbEntity
  8
0
100
AcDbLine
 62
9
  6
CONTINUOUS
 10
165.7615329509
 20
435.2836039511
 11
216.1840148764
 21
435.2836039511
  0
LINE
  5
328
100
AcDbEntity
  8
0
100
AcDbLine
 62
7
  6
CONTINUOUS
 10
406.1840148764
 20
441.2836039511
 11
286.1840148764
 21
441.2836039511
  0
LINE
  5
329
100
AcDbEntity
  8
02___PRT_ALL_AXES
100
AcDbLine
 62
7
  6
CONTINUOUS
 10
86.1840148764
 20
441.2836039511
 11
216.1840148764
 21
441.2836039511
  0
LINE
  5
32A
100
AcDbEntity
  8
0
100
AcDbLine
 62
9
  6
CONTINUOUS
 10
286.1840148764
 20
451.2836039511
 11
406.1840148764
 21
451.2836039511
  0
LINE
  5
32B
100
AcDbEntity
  8
0
100
AcDbLine
 62
7
  6
CONTINUOUS
 10
288.1840148764
 20
453.2836039511
 11
404.1840148764
 21
453.2836039511
  0
LINE
  5
32C
100
AcDbEntity
  8
0
100
AcDbLine
 62
9
  6
CONTINUOUS
 10
295.1840148764
 20
455.2836039511
 11
397.1840148764
 21
455.2836039511
  0
LINE
  5
32D
100
AcDbEntity
  8
0
100
AcDbLine
 62
7
  6
CONTINUOUS
 10
295.184018329
 20
468.2836039511
 11
397.1840114238
 21
468.2836039511
  0
LINE
  5
32E
100
AcDbEntity
  8
0
100
AcDbLine
 62
7
  6
CONTINUOUS
 10
-1040.6332388629
 20
320.2836039511
 11
-1040.6332388629
 21
422.2836039511
  0
LINE
  5
32F
100
AcDbEntity
  8
0
100
AcDbLine
 62
9
  6
CONTINUOUS
 10
-1020.6332388629
 20
320.2836039511
 11
-1020.6332388629
 21
422.2836039511
  0
LINE
  5
330
100
AcDbEntity
  8
0
100
AcDbLine
 62
7
  6
CONTINUOUS
 10
-1018.6332388629
 20
313.2836039511
 11
-1018.6332388629
 21
429.2836039511
  0
LINE
  5
331
100
AcDbEntity
  8
0
100
AcDbLine
 62
9
  6
CONTINUOUS
 10
-1016.6332388629
 20
311.2836039511
 11
-1016.6332388629
 21
431.2836039511
  0
LINE
  5
332
100
AcDbEntity
  8
02___PRT_ALL_AXES
100
AcDbLine
 62
7
  6
CONTINUOUS
 10
-1005.6332388629
 20
41.2837790569
 11
-1005.6332388629
 21
101.2834288453
  0
LINE
  5
333
100
AcDbEntity
  8
02___PRT_ALL_AXES
100
AcDbLine
 62
7
  6
CONTINUOUS
 10
-1005.6332388629
 20
161.2836039511
 11
-1005.6332388629
 21
281.2836039511
  0
LINE
  5
334
100
AcDbEntity
  8
0
100
AcDbLine
 62
7
  6
CONTINUOUS
 10
-1005.6332388629
 20
311.2836039511
 11
-1005.6332388629
 21
431.2836039511
  0
LINE
  5
335
100
AcDbEntity
  8
0
100
AcDbLine
 62
9
  6
CONTINUOUS
 10
-999.6332388629
 20
76.1651807005
 11
-999.6332388629
 21
101.2836039486
  0
LINE
  5
336
100
AcDbEntity
  8
0
100
AcDbLine
 62
9
  6
CONTINUOUS
 10
-999.6332388629
 20
161.2836039511
 11
-999.6332388629
 21
281.2836039511
  0
LINE
  5
337
100
AcDbEntity
  8
0
100
AcDbLine
 62
7
  6
CONTINUOUS
 10
-995.6332388629
 20
77.5111198511
 11
-995.6332388629
 21
395.4479603188
  0
LINE
  5
338
100
AcDbEntity
  8
0
100
AcDbLine
 62
9
  6
CONTINUOUS
 10
-965.6332388629
 20
32.2836039511
 11
-965.6332388629
 21
430.7732882558
  0
LWPOLYLINE
  5
339
100
AcDbEntity
  8
0
100
AcDbPolyline
 62
7
  6
CONTINUOUS
 90
6
 70
0
 10
-995.633237705
 20
105.2835956222
 10
-995.889805528
 20
103.874100096
 10
-996.626587412
 20
102.6454175876
 10
-997.7490690419
 20
101.7551661068
 10
-999.1132570814
 20
101.3175501121
 10
-999.6332388629
 20
101.2836084909
  0
LINE
  5
33A
100
AcDbEntity
  8
0
100
AcDbLine
 62
7
  6
CONTINUOUS
 10
-889.6332388629
 20
451.2836039511
 11
-889.6332388629
 21
426.2836039511
  0
LINE
  5
33B
100
AcDbEntity
  8
0
100
AcDbLine
 62
7
  6
CONTINUOUS
 10
-889.6332388629
 20
21.2836039511
 11
-889.6332388629
 21
48.5579049152
  0
LINE
  5
33C
100
AcDbEntity
  8
0
100
AcDbLine
 62
7
  6
CONTINUOUS
 10
-880.6332388629
 20
455.2836039511
 11
-880.6332388629
 21
468.2836039511
  0
LINE
  5
33D
100
AcDbEntity
  8
0
100
AcDbLine
 62
9
  6
CONTINUOUS
 10
-877.6332388629
 20
453.2836039511
 11
-877.6332388629
 21
441.2836039511
  0
LINE
  5
33E
100
AcDbEntity
  8
0
100
AcDbLine
 62
9
  6
CONTINUOUS
 10
-877.6332388629
 20
21.2836039511
 11
-877.6332388629
 21
39.2836039511
  0
LINE
  5
33F
100
AcDbEntity
  8
0
100
AcDbLine
 62
9
  6
CONTINUOUS
 10
-874.6332388629
 20
441.2836039511
 11
-874.6332388629
 21
426.2836039511
  0
LINE
  5
340
100
AcDbEntity
  8
0
100
AcDbLine
 62
7
  6
CONTINUOUS
 10
-872.1332388629
 20
344.7162185157
 11
-872.1332388629
 21
426.2836039511
  0
LINE
  5
341
100
AcDbEntity
  8
0
100
AcDbLine
 62
9
  6
CONTINUOUS
 10
-857.1332388629
 20
313.1243719843
 11
-857.1332388629
 21
426.2836039511
  0
LINE
  5
342
100
AcDbEntity
  8
0
100
AcDbLine
 62
7
  6
CONTINUOUS
 10
-370.1332388629
 20
21.2836039511
 11
-590.1332388629
 21
21.2836039511
  0
LINE
  5
343
100
AcDbEntity
  8
0
100
AcDbLine
 62
7
  6
CONTINUOUS
 10
-829.6332388629
 20
21.2836039511
 11
-889.6332388629
 21
21.2836039511
  0
LINE
  5
344
100
AcDbEntity
  8
0
100
AcDbLine
 62
3
  6
CONTINUOUS
 10
-370.1332388629
 20
25.2836039511
 11
-590.1332388629
 21
25.2836039511
  0
LINE
  5
345
100
AcDbEntity
  8
0
100
AcDbLine
 62
9
  6
CONTINUOUS
 10
-370.1332388629
 20
29.2836039511
 11
-590.1332388629
 21
29.2836039511
  0
LINE
  5
346
100
AcDbEntity
  8
0
100
AcDbLine
 62
7
  6
CONTINUOUS
 10
-965.6332388629
 20
32.2836039511
 11
-889.6332388629
 21
32.2836039511
  0
LINE
  5
347
100
AcDbEntity
  8
0
100
AcDbLine
 62
7
  6
CONTINUOUS
 10
-829.6332388629
 20
32.2836039511
 11
-785.6332388629
 21
32.2836039511
  0
LWPOLYLINE
  5
348
100
AcDbEntity
  8
0
100
AcDbPolyline
 62
7
  6
CONTINUOUS
 90
4
 70
0
 10
-988.676656838
 20
41.283586796
 10
-988.3376624175
 20
41.2691962844
 10
-987.121026047
 20
40.9686943105
 10
-985.9656625854
 20
40.2247641874
  0
LINE
  5
349
100
AcDbEntity
  8
0
100
AcDbLine
 62
7
  6
CONTINUOUS
 10
-839.6332388629
 20
36.2836039511
 11
-839.6332388629
 21
84.1728335374
  0
LINE
  5
34A
100
AcDbEntity
  8
0
100
AcDbLine
 62
7
  6
CONTINUOUS
 10
-829.6332388629
 20
21.2836039511
 11
-829.6332388629
 21
84.1728335374
  0
LINE
  5
34B
100
AcDbEntity
  8
0
100
AcDbLine
 62
9
  6
CONTINUOUS
 10
-889.6332388629
 20
36.2836039511
 11
-839.6332388629
 21
36.2836039511
  0
LINE
  5
34C
100
AcDbEntity
  8
0
100
AcDbLine
 62
7
  6
CONTINUOUS
 10
-829.6332388629
 20
39.2836039511
 11
-886.6332388629
 21
39.2836039511
  0
LINE
  5
34D
100
AcDbEntity
  8
02___PRT_ALL_AXES
100
AcDbLine
 62
7
  6
CONTINUOUS
 10
-1005.6332388629
 20
41.2836039511
 11
-988.6766568488
 21
41.2836039511
  0
LINE
  5
34E
100
AcDbEntity
  8
0
100
AcDbLine
 62
7
  6
CONTINUOUS
 10
-889.6332388629
 20
48.5579049152
 11
-839.6332388629
 21
48.5579049152
  0
LINE
  5
34F
100
AcDbEntity
  8
0
100
AcDbLine
 62
9
  6
CONTINUOUS
 10
-802.1332388629
 20
313.1243719843
 11
-802.1332388629
 21
426.2836039511
  0
LINE
  5
350
100
AcDbEntity
  8
0
100
AcDbLine
 62
9
  6
CONTINUOUS
 10
-370.1332388629
 20
81.2836039511
 11
-590.1332388629
 21
81.2836039511
  0
LINE
  5
351
100
AcDbEntity
  8
0
100
AcDbLine
 62
7
  6
CONTINUOUS
 10
-839.6332388629
 20
84.1728335374
 11
-829.6332388629
 21
84.1728335374
  0
LINE
  5
352
100
AcDbEntity
  8
0
100
AcDbLine
 62
7
  6
CONTINUOUS
 10
-755.1332388629
 20
86.2836039511
 11
-746.1332388629
 21
86.2836039511
  0
LINE
  5
353
100
AcDbEntity
  8
0
100
AcDbLine
 62
7
  6
CONTINUOUS
 10
-589.1332388629
 20
89.2836039511
 11
-371.1332388629
 21
89.2836039511
  0
LINE
  5
354
100
AcDbEntity
  8
0
100
AcDbLine
 62
3
  6
CONTINUOUS
 10
-370.1332388629
 20
89.2836039511
 11
-371.1332388629
 21
89.2836039511
  0
LINE
  5
355
100
AcDbEntity
  8
0
100
AcDbLine
 62
3
  6
CONTINUOUS
 10
-589.1332388629
 20
89.2836039511
 11
-590.1332388629
 21
89.2836039511
  0
LINE
  5
356
100
AcDbEntity
  8
02___PRT_ALL_AXES
100
AcDbLine
 62
7
  6
CONTINUOUS
 10
-268.4174854994
 20
91.2836039511
 11
-310.1332388629
 21
91.2836039511
  0
LINE
  5
357
100
AcDbEntity
  8
02___PRT_ALL_AXES
100
AcDbLine
 62
7
  6
CONTINUOUS
 10
-320.1332388629
 20
91.2836039511
 11
-371.1332388629
 21
91.2836039511
  0
LINE
  5
358
100
AcDbEntity
  8
02___PRT_ALL_AXES
100
AcDbLine
 62
7
  6
CONTINUOUS
 10
-589.1332388629
 20
91.2836039511
 11
-638.1332387999
 21
91.2836039511
  0
LINE
  5
359
100
AcDbEntity
  8
0
100
AcDbLine
 62
7
  6
CONTINUOUS
 10
-787.1332388629
 20
344.7162185157
 11
-787.1332388629
 21
426.2836039511
  0
LINE
  5
35A
100
AcDbEntity
  8
0
100
AcDbLine
 62
9
  6
CONTINUOUS
 10
-785.6332388629
 20
426.2836039511
 11
-785.6332388629
 21
32.2836039511
  0
LINE
  5
35B
100
AcDbEntity
  8
0
100
AcDbLine
 62
9
  6
CONTINUOUS
 10
-784.6332388629
 20
441.2836039511
 11
-784.6332388629
 21
426.2836039511
  0
LINE
  5
35C
100
AcDbEntity
  8
0
100
AcDbLine
 62
9
  6
CONTINUOUS
 10
-781.6332388629
 20
453.2836039511
 11
-781.6332388629
 21
441.2836039511
  0
LINE
  5
35D
100
AcDbEntity
  8
0
100
AcDbLine
 62
7
  6
CONTINUOUS
 10
-778.6332388629
 20
455.2836039511
 11
-778.6332388629
 21
468.2836039511
  0
LINE
  5
35E
100
AcDbEntity
  8
0
100
AcDbLine
 62
7
  6
CONTINUOUS
 10
-769.6332388629
 20
451.2836039511
 11
-769.6332388629
 21
426.2836039511
  0
LINE
  5
35F
100
AcDbEntity
  8
3_ALL_AXES
100
AcDbLine
 62
7
  6
CONTINUOUS
 10
-755.6332388629
 20
98.7836039511
 11
-755.1332388629
 21
98.7836039511
  0
LINE
  5
360
100
AcDbEntity
  8
02___PRT_ALL_AXES
100
AcDbLine
 62
7
  6
CONTINUOUS
 10
-999.6332388629
 20
101.2836039511
 11
-1005.6332388629
 21
101.2836039511
  0
LINE
  5
361
100
AcDbEntity
  8
0
100
AcDbLine
 62
7
  6
CONTINUOUS
 10
-589.1332388629
 20
104.2836039511
 11
-371.1332388629
 21
104.2836039511
  0
LINE
  5
362
100
AcDbEntity
  8
0
100
AcDbLine
 62
7
  6
CONTINUOUS
 10
-740.1332388629
 20
121.2836039511
 11
-659.1332388629
 21
121.2836039511
  0
LINE
  5
363
100
AcDbEntity
  8
0
100
AcDbLine
 62
9
  6
CONTINUOUS
 10
-673.1332388629
 20
123.2836039511
 11
-744.1332388629
 21
123.2836039509
  0
LINE
  5
364
100
AcDbEntity
  8
0
100
AcDbLine
 62
9
  6
CONTINUOUS
 10
-736.556457883
 20
148.9564548651
 11
-738.4792158936
 21
151.2250708407
  0
LINE
  5
365
100
AcDbEntity
  8
0
100
AcDbLine
 62
9
  6
CONTINUOUS
 10
-736.3537830147
 20
149.1352540059
 11
-738.2755397404
 21
151.4025757979
  0
LINE
  5
366
100
AcDbEntity
  8
0
100
AcDbLine
 62
7
  6
CONTINUOUS
 10
-755.6332388629
 20
401.2836039511
 11
-755.6332388629
 21
62.2836040047
  0
LINE
  5
367
100
AcDbEntity
  8
0
100
AcDbLine
 62
7
  6
CONTINUOUS
 10
-755.1332388629
 20
86.2836039511
 11
-755.1332388629
 21
356.2836039511
  0
LINE
  5
368
100
AcDbEntity
  8
0
100
AcDbLine
 62
9
  6
CONTINUOUS
 10
-746.1332388629
 20
86.2836039511
 11
-746.1332388629
 21
356.2836039511
  0
LINE
  5
369
100
AcDbEntity
  8
0
100
AcDbLine
 62
7
  6
CONTINUOUS
 10
-744.1332388629
 20
88.2836039511
 11
-744.1332388629
 21
354.2836039511
  0
LINE
  5
36A
100
AcDbEntity
  8
0
100
AcDbLine
 62
9
  6
CONTINUOUS
 10
-742.6332388615
 20
291.2836039511
 11
-742.6332388629
 21
229.2836039511
  0
LINE
  5
36B
100
AcDbEntity
  8
0
100
AcDbLine
 62
9
  6
CONTINUOUS
 10
-742.6332388629
 20
213.2836039511
 11
-742.6332388615
 21
151.2836039503
  0
LINE
  5
36C
100
AcDbEntity
  8
0
100
AcDbLine
 62
7
  6
CONTINUOUS
 10
-741.1332388629
 20
308.2836039511
 11
-741.1332388629
 21
229.2836039511
  0
LINE
  5
36D
100
AcDbEntity
  8
0
100
AcDbLine
 62
7
  6
CONTINUOUS
 10
-741.1332388629
 20
213.2836039511
 11
-741.1332388629
 21
134.2836039511
  0
LINE
  5
36E
100
AcDbEntity
  8
0
100
AcDbLine
 62
9
  6
CONTINUOUS
 10
-741.1332388629
 20
216.2836039511
 11
-741.1332388629
 21
226.2836039511
  0
LINE
  5
36F
100
AcDbEntity
  8
0
100
AcDbLine
 62
9
  6
CONTINUOUS
 10
-740.1332388629
 20
121.2836039511
 11
-740.1332388629
 21
129.5899864714
  0
LINE
  5
370
100
AcDbEntity
  8
0
100
AcDbLine
 62
9
  6
CONTINUOUS
 10
-740.1332388629
 20
312.9772211911
 11
-740.1332388629
 21
321.2836039511
  0
LINE
  5
371
100
AcDbEntity
  8
0
100
AcDbLine
 62
9
  6
CONTINUOUS
 10
-738.2755397404
 20
291.1646321042
 11
-738.2755397404
 21
229.032800454
  0
LINE
  5
372
100
AcDbEntity
  8
0
100
AcDbLine
 62
9
  6
CONTINUOUS
 10
-738.2755397404
 20
213.5344074482
 11
-738.2755397404
 21
151.4025757979
  0
LINE
  5
373
100
AcDbEntity
  8
0
100
AcDbLine
 62
9
  6
CONTINUOUS
 10
-738.1332388629
 20
144.7996774797
 11
-738.1332388629
 21
129.2835794508
  0
LINE
  5
374
100
AcDbEntity
  8
0
100
AcDbLine
 62
9
  6
CONTINUOUS
 10
-738.1332388629
 20
297.7675304225
 11
-738.1332388629
 21
313.2836284474
  0
LINE
  5
375
100
AcDbEntity
  8
0
100
AcDbLine
 62
9
  6
CONTINUOUS
 10
-738.4792158936
 20
291.3421370615
 11
-736.556457883
 21
293.6107530371
  0
LINE
  5
376
100
AcDbEntity
  8
0
100
AcDbLine
 62
9
  6
CONTINUOUS
 10
-738.2755397404
 20
291.1646321042
 11
-736.3537830406
 21
293.4319539182
  0
LINE
  5
377
100
AcDbEntity
  8
0
100
AcDbLine
 62
7
  6
CONTINUOUS
 10
-738.1332388629
 20
131.2836039511
 11
-676.1332388629
 21
131.2836039511
  0
LINE
  5
378
100
AcDbEntity
  8
0
100
AcDbLine
 62
9
  6
CONTINUOUS
 10
-742.1310602997
 20
132.4106206049
 11
-744.1332388629
 21
132.4106206046
  0
LINE
  5
379
100
AcDbEntity
  8
0
100
AcDbLine
 62
9
  6
CONTINUOUS
 10
-673.1332388629
 20
134.2836039511
 11
-741.1332388629
 21
134.2836039511
  0
LINE
  5
37A
100
AcDbEntity
  8
0
100
AcDbLine
 62
9
  6
CONTINUOUS
 10
-741.1332388629
 20
151.2836129438
 11
-744.1332388629
 21
151.2836039511
  0
LINE
  5
37B
100
AcDbEntity
  8
0
100
AcDbLine
 62
9
  6
CONTINUOUS
 10
-738.1378597662
 20
145.0856453044
 11
-741.1332388629
 21
145.2520906919
  0
LINE
  5
37C
100
AcDbEntity
  8
0
100
AcDbLine
 62
7
  6
CONTINUOUS
 10
-658.1332496157
 20
111.283593249
 11
-638.1332515093
 21
91.2835912418
  0
LINE
  5
37D
100
AcDbEntity
  8
0
100
AcDbLine
 62
9
  6
CONTINUOUS
 10
-704.727139778
 20
176.3599068292
 11
-706.5333158013
 21
178.6679028547
  0
LINE
  5
37E
100
AcDbEntity
  8
0
100
AcDbLine
 62
9
  6
CONTINUOUS
 10
-706.5333158013
 20
263.8993050357
 11
-706.5333158013
 21
228.8896645002
  0
LINE
  5
37F
100
AcDbEntity
  8
0
100
AcDbLine
 62
9
  6
CONTINUOUS
 10
-706.5333158013
 20
213.677543402
 11
-706.5333158013
 21
178.6679028547
  0
LINE
  5
380
100
AcDbEntity
  8
0
100
AcDbLine
 62
9
  6
CONTINUOUS
 10
-701.3910149238
 20
177.6802783899
 11
-701.3910149238
 21
216.2836039511
  0
LINE
  5
381
100
AcDbEntity
  8
0
100
AcDbLine
 62
9
  6
CONTINUOUS
 10
-701.3910149238
 20
226.2836039511
 11
-701.3910149238
 21
264.8869295123
  0
LINE
  5
382
100
AcDbEntity
  8
0
100
AcDbLine
 62
9
  6
CONTINUOUS
 10
-706.5333158013
 20
263.8993050357
 11
-704.7271367826
 21
266.2072987283
  0
LINE
  5
383
100
AcDbEntity
  8
0
100
AcDbLine
 62
7
  6
CONTINUOUS
 10
-658.1332496157
 20
331.2836146532
 11
-638.1332515093
 21
351.2836166604
  0
LINE
  5
384
100
AcDbEntity
  8
0
100
AcDbLine
 62
9
  6
CONTINUOUS
 10
-676.0843782304
 20
176.098538579
 11
-673.1332388629
 21
176.6377754786
  0
LINE
  5
385
100
AcDbEntity
  8
0
100
AcDbLine
 62
7
  6
CONTINUOUS
 10
-1005.6332388629
 20
161.2836039511
 11
-999.6332388629
 21
161.2836039511
  0
LINE
  5
386
100
AcDbEntity
  8
0
100
AcDbLine
 62
9
  6
CONTINUOUS
 10
-658.1332388629
 20
161.2836039511
 11
-673.1332388629
 21
161.2836039511
  0
LINE
  5
387
100
AcDbEntity
  8
02___PRT_ALL_AXES
100
AcDbLine
 62
7
  6
CONTINUOUS
 10
-999.6332388629
 20
161.2836039511
 11
-1005.6332388629
 21
161.2836039511
  0
LINE
  5
388
100
AcDbEntity
  8
0
100
AcDbLine
 62
9
  6
CONTINUOUS
 10
-677.1332388629
 20
177.6802783899
 11
-701.3910149238
 21
177.6802783899
  0
LINE
  5
389
100
AcDbEntity
  8
0
100
AcDbLine
 62
9
  6
CONTINUOUS
 10
-677.1332388629
 20
180.5552229324
 11
-701.3910149238
 21
180.5552229324
  0
LINE
  5
38A
100
AcDbEntity
  8
0
100
AcDbLine
 62
9
  6
CONTINUOUS
 10
-995.6332388629
 20
186.2836039511
 11
-1005.6332388629
 21
186.2836039511
  0
LINE
  5
38B
100
AcDbEntity
  8
0
100
AcDbLine
 62
9
  6
CONTINUOUS
 10
-677.1332388629
 20
177.6802783899
 11
-677.1332388629
 21
216.2836039511
  0
LINE
  5
38C
100
AcDbEntity
  8
0
100
AcDbLine
 62
9
  6
CONTINUOUS
 10
-677.1332388629
 20
226.2836039511
 11
-677.1332388629
 21
264.8869295123
  0
LINE
  5
38D
100
AcDbEntity
  8
0
100
AcDbLine
 62
9
  6
CONTINUOUS
 10
-676.1332388629
 20
226.2836039511
 11
-676.1332388631
 21
224.2836039511
  0
LINE
  5
38E
100
AcDbEntity
  8
0
100
AcDbLine
 62
9
  6
CONTINUOUS
 10
-676.1332388631
 20
121.2836039511
 11
-676.1332388629
 21
175.8716011325
  0
LINE
  5
38F
100
AcDbEntity
  8
0
100
AcDbLine
 62
9
  6
CONTINUOUS
 10
-676.1332388629
 20
216.2836039511
 11
-676.1332388629
 21
218.2836039511
  0
LINE
  5
390
100
AcDbEntity
  8
0
100
AcDbLine
 62
9
  6
CONTINUOUS
 10
-676.1332388629
 20
266.6956067697
 11
-676.1332388629
 21
321.2836039511
  0
LINE
  5
391
100
AcDbEntity
  8
0
100
AcDbLine
 62
7
  6
CONTINUOUS
 10
-673.1332388629
 20
123.2836039511
 11
-673.1332388629
 21
213.2836039511
  0
LINE
  5
392
100
AcDbEntity
  8
0
100
AcDbLine
 62
7
  6
CONTINUOUS
 10
-673.1332388629
 20
229.2836039511
 11
-673.1332388629
 21
319.2836039511
  0
LINE
  5
393
100
AcDbEntity
  8
0
100
AcDbLine
 62
9
  6
CONTINUOUS
 10
-671.1332388629
 20
121.2836039511
 11
-671.1332388629
 21
213.2836039511
  0
LINE
  5
394
100
AcDbEntity
  8
0
100
AcDbLine
 62
9
  6
CONTINUOUS
 10
-671.1332388629
 20
229.2836039511
 11
-671.1332388629
 21
321.2836039511
  0
LINE
  5
395
100
AcDbEntity
  8
0
100
AcDbLine
 62
9
  6
CONTINUOUS
 10
-744.1332388629
 20
213.2836039511
 11
-741.1332388629
 21
213.2836039511
  0
LINE
  5
396
100
AcDbEntity
  8
0
100
AcDbLine
 62
9
  6
CONTINUOUS
 10
-673.1332388629
 20
213.2836039511
 11
-671.133238863
 21
213.2836039509
  0
LINE
  5
397
100
AcDbEntity
  8
0
100
AcDbLine
 62
9
  6
CONTINUOUS
 10
-701.3910149238
 20
213.8110764786
 11
-677.1332388629
 21
213.8110764786
  0
LINE
  5
398
100
AcDbEntity
  8
0
100
AcDbLine
 62
7
  6
CONTINUOUS
 10
-676.1332388629
 20
216.2836039511
 11
-741.1332388629
 21
216.2836039511
  0
LINE
  5
399
100
AcDbEntity
  8
0
100
AcDbLine
 62
9
  6
CONTINUOUS
 10
-676.1332388629
 20
218.2836039511
 11
-744.1332388629
 21
218.2836039513
  0
LINE
  5
39A
100
AcDbEntity
  8
0
100
AcDbLine
 62
9
  6
CONTINUOUS
 10
-659.1332388629
 20
321.2836039511
 11
-659.1332388629
 21
121.2836039511
  0
LINE
  5
39B
100
AcDbEntity
  8
0
100
AcDbLine
 62
7
  6
CONTINUOUS
 10
-658.1332388629
 20
111.2848821386
 11
-658.1332388629
 21
331.2823257636
  0
LINE
  5
39C
100
AcDbEntity
  8
0
100
AcDbLine
 62
7
  6
CONTINUOUS
 10
-638.1332389238
 20
91.2836039511
 11
-638.1332389238
 21
351.2836039511
  0
LINE
  5
39D
100
AcDbEntity
  8
0
100
AcDbLine
 62
9
  6
CONTINUOUS
 10
-755.6332388629
 20
221.2836039511
 11
-995.6332388629
 21
221.2836039511
  0
LINE
  5
39E
100
AcDbEntity
  8
0
100
AcDbLine
 62
9
  6
CONTINUOUS
 10
-676.1332388629
 20
224.2836039511
 11
-744.1332388629
 21
224.2836039509
  0
LINE
  5
39F
100
AcDbEntity
  8
0
100
AcDbLine
 62
7
  6
CONTINUOUS
 10
-741.1332388629
 20
226.2836039511
 11
-676.1332388629
 21
226.2836039511
  0
LINE
  5
3A0
100
AcDbEntity
  8
0
100
AcDbLine
 62
9
  6
CONTINUOUS
 10
-677.1332388629
 20
228.7561314236
 11
-701.3910149238
 21
228.7561314236
  0
LINE
  5
3A1
100
AcDbEntity
  8
0
100
AcDbLine
 62
9
  6
CONTINUOUS
 10
-673.1332388629
 20
229.2836039511
 11
-671.1332388629
 21
229.2836039511
  0
LINE
  5
3A2
100
AcDbEntity
  8
0
100
AcDbLine
 62
9
  6
CONTINUOUS
 10
-741.1332388629
 20
229.2836039511
 11
-744.1332388629
 21
229.2836039511
  0
LINE
  5
3A3
100
AcDbEntity
  8
0
100
AcDbLine
 62
9
  6
CONTINUOUS
 10
-755.6332388629
 20
248.2032660171
 11
-995.6332388629
 21
248.2032660171
  0
LINE
  5
3A4
100
AcDbEntity
  8
0
100
AcDbLine
 62
7
  6
CONTINUOUS
 10
-608.1332388629
 20
330.8281154521
 11
-608.1332388629
 21
401.2836039511
  0
LINE
  5
3A5
100
AcDbEntity
  8
0
100
AcDbLine
 62
9
  6
CONTINUOUS
 10
-995.6332388629
 20
256.2836039511
 11
-1005.6332388629
 21
256.2836039511
  0
LINE
  5
3A6
100
AcDbEntity
  8
0
100
AcDbLine
 62
9
  6
CONTINUOUS
 10
-701.3910149238
 20
262.0119849698
 11
-677.1332388629
 21
262.0119849698
  0
LINE
  5
3A7
100
AcDbEntity
  8
0
100
AcDbLine
 62
9
  6
CONTINUOUS
 10
-701.3910149238
 20
264.8869295123
 11
-677.1332388629
 21
264.8869295123
  0
LINE
  5
3A8
100
AcDbEntity
  8
0
100
AcDbLine
 62
9
  6
CONTINUOUS
 10
-673.1332388629
 20
265.9294324236
 11
-676.0843782304
 21
266.4686693231
  0
LINE
  5
3A9
100
AcDbEntity
  8
0
100
AcDbLine
 62
7
  6
CONTINUOUS
 10
-590.1332388629
 20
21.2836039511
 11
-590.1332388629
 21
25.2836039511
  0
LINE
  5
3AA
100
AcDbEntity
  8
0
100
AcDbLine
 62
3
  6
CONTINUOUS
 10
-590.1332388629
 20
25.2836039511
 11
-590.1332388629
 21
89.2836039511
  0
LINE
  5
3AB
100
AcDbEntity
  8
0
100
AcDbLine
 62
7
  6
CONTINUOUS
 10
-589.1332388629
 20
89.2836039511
 11
-589.1332388629
 21
104.2836039511
  0
LINE
  5
3AC
100
AcDbEntity
  8
0
100
AcDbLine
 62
9
  6
CONTINUOUS
 10
-741.1332388629
 20
297.3151172103
 11
-738.1378597662
 21
297.4815625978
  0
LINE
  5
3AD
100
AcDbEntity
  8
0
100
AcDbLine
 62
7
  6
CONTINUOUS
 10
-1005.6332388629
 20
281.2836039511
 11
-999.6332388629
 21
281.2836039511
  0
LINE
  5
3AE
100
AcDbEntity
  8
0
100
AcDbLine
 62
9
  6
CONTINUOUS
 10
-658.1332388629
 20
281.2836039511
 11
-673.1332388629
 21
281.2836039511
  0
LINE
  5
3AF
100
AcDbEntity
  8
02___PRT_ALL_AXES
100
AcDbLine
 62
7
  6
CONTINUOUS
 10
-999.6332388629
 20
281.2836039511
 11
-1005.6332388629
 21
281.2836039511
  0
LINE
  5
3B0
100
AcDbEntity
  8
0
100
AcDbLine
 62
9
  6
CONTINUOUS
 10
-744.1332388629
 20
291.2836039511
 11
-741.1332388629
 21
291.2835949216
  0
LINE
  5
3B1
100
AcDbEntity
  8
0
100
AcDbLine
 62
9
  6
CONTINUOUS
 10
-673.1332388629
 20
308.2836039511
 11
-741.1332388629
 21
308.2836039511
  0
LINE
  5
3B2
100
AcDbEntity
  8
0
100
AcDbLine
 62
9
  6
CONTINUOUS
 10
-575.1332388629
 20
21.2836039511
 11
-575.1332388629
 21
25.2836039511
  0
LINE
  5
3B3
100
AcDbEntity
  8
0
100
AcDbLine
 62
9
  6
CONTINUOUS
 10
-744.1332388629
 20
310.1565872976
 11
-742.1310601527
 21
310.1565872973
  0
LINE
  5
3B4
100
AcDbEntity
  8
0
100
AcDbLine
 62
7
  6
CONTINUOUS
 10
-1016.6332388629
 20
311.2836039511
 11
-995.6332388629
 21
311.2836039511
  0
LINE
  5
3B5
100
AcDbEntity
  8
0
100
AcDbLine
 62
7
  6
CONTINUOUS
 10
-676.1332388629
 20
311.2836039511
 11
-738.1332388629
 21
311.2836039511
  0
LINE
  5
3B6
100
AcDbEntity
  8
0
100
AcDbLine
 62
7
  6
CONTINUOUS
 10
-857.1332388629
 20
313.1243719843
 11
-802.1332388629
 21
313.1243719843
  0
LINE
  5
3B7
100
AcDbEntity
  8
0
100
AcDbLine
 62
9
  6
CONTINUOUS
 10
-673.1332388629
 20
319.2836039511
 11
-744.1332388629
 21
319.2836039513
  0
LINE
  5
3B8
100
AcDbEntity
  8
0
100
AcDbLine
 62
7
  6
CONTINUOUS
 10
-1020.6332388629
 20
320.2836039511
 11
-1040.6332388629
 21
320.2836039511
  0
LINE
  5
3B9
100
AcDbEntity
  8
3_ALL_AXES
100
AcDbLine
 62
7
  6
CONTINUOUS
 10
-671.1332388629
 20
321.2836039511
 11
-659.1332388629
 21
321.2836039511
  0
LINE
  5
3BA
100
AcDbEntity
  8
0
100
AcDbLine
 62
7
  6
CONTINUOUS
 10
-659.1332388629
 20
321.2836039511
 11
-740.1332388629
 21
321.2836039511
  0
LINE
  5
3BB
100
AcDbEntity
  8
0
100
AcDbLine
 62
9
  6
CONTINUOUS
 10
-1018.6332388629
 20
323.2836039511
 11
-1005.6332388629
 21
323.2836039511
  0
LINE
  5
3BC
100
AcDbEntity
  8
0
100
AcDbLine
 62
9
  6
CONTINUOUS
 10
-1005.6332388629
 20
326.2836039511
 11
-995.6332388629
 21
326.2836039511
  0
LINE
  5
3BD
100
AcDbEntity
  8
0
100
AcDbLine
 62
7
  6
CONTINUOUS
 10
-468.1332388629
 20
330.8281154521
 11
-608.1332388629
 21
330.8281154521
  0
LINE
  5
3BE
100
AcDbEntity
  8
3_ALL_AXES
100
AcDbLine
 62
7
  6
CONTINUOUS
 10
-755.6332388629
 20
343.7836039511
 11
-755.1332388629
 21
343.7836039511
  0
LINE
  5
3BF
100
AcDbEntity
  8
02___PRT_ALL_AXES
100
AcDbLine
 62
7
  6
CONTINUOUS
 10
-268.4174854994
 20
351.2836039511
 11
-310.1332388629
 21
351.2836039511
  0
LINE
  5
3C0
100
AcDbEntity
  8
02___PRT_ALL_AXES
100
AcDbLine
 62
7
  6
CONTINUOUS
 10
-320.1332388629
 20
351.2836039511
 11
-468.1332388629
 21
351.2836039511
  0
LINE
  5
3C1
100
AcDbEntity
  8
02___PRT_ALL_AXES
100
AcDbLine
 62
7
  6
CONTINUOUS
 10
-608.1332388629
 20
351.2836039511
 11
-638.1332387999
 21
351.2836039511
  0
LINE
  5
3C2
100
AcDbEntity
  8
0
100
AcDbLine
 62
7
  6
CONTINUOUS
 10
-755.1332388629
 20
356.2836039511
 11
-746.1332388629
 21
356.2836039511
  0
LINE
  5
3C3
100
AcDbEntity
  8
0
100
AcDbLine
 62
7
  6
CONTINUOUS
 10
-608.1332388629
 20
401.2836039511
 11
-468.1332388629
 21
401.2836039511
  0
LINE
  5
3C4
100
AcDbEntity
  8
0
100
AcDbLine
 62
7
  6
CONTINUOUS
 10
-468.1332388629
 20
330.8281154521
 11
-468.1332388629
 21
401.2836039511
  0
LINE
  5
3C5
100
AcDbEntity
  8
0
100
AcDbLine
 62
9
  6
CONTINUOUS
 10
-988.4581837014
 20
416.2836039511
 11
-1005.6332388629
 21
416.2836039511
  0
LINE
  5
3C6
100
AcDbEntity
  8
0
100
AcDbLine
 62
9
  6
CONTINUOUS
 10
-1018.6332388629
 20
419.2836039511
 11
-1005.6332388629
 21
419.2836039511
  0
LINE
  5
3C7
100
AcDbEntity
  8
0
100
AcDbLine
 62
7
  6
CONTINUOUS
 10
-1020.6332388629
 20
422.2836039511
 11
-1040.6332388629
 21
422.2836039511
  0
LINE
  5
3C8
100
AcDbEntity
  8
0
100
AcDbLine
 62
7
  6
CONTINUOUS
 10
-769.6332388629
 20
426.2836039511
 11
-889.6332388629
 21
426.2836039511
  0
LINE
  5
3C9
100
AcDbEntity
  8
0
100
AcDbLine
 62
9
  6
CONTINUOUS
 10
-889.6332388629
 20
430.7732901743
 11
-965.6332388629
 21
430.7732882558
  0
LINE
  5
3CA
100
AcDbEntity
  8
0
100
AcDbLine
 62
7
  6
CONTINUOUS
 10
-1016.6332388629
 20
431.2836039511
 11
-889.6332388629
 21
431.2836039511
  0
LINE
  5
3CB
100
AcDbEntity
  8
0
100
AcDbLine
 62
7
  6
CONTINUOUS
 10
-769.6332388629
 20
441.2836039511
 11
-889.6332388629
 21
441.2836039511
  0
LINE
  5
3CC
100
AcDbEntity
  8
0
100
AcDbLine
 62
9
  6
CONTINUOUS
 10
-889.6332388629
 20
451.2836039511
 11
-769.6332388629
 21
451.2836039511
  0
LINE
  5
3CD
100
AcDbEntity
  8
0
100
AcDbLine
 62
7
  6
CONTINUOUS
 10
-887.6332388629
 20
453.2836039511
 11
-771.6332388629
 21
453.2836039511
  0
LINE
  5
3CE
100
AcDbEntity
  8
0
100
AcDbLine
 62
9
  6
CONTINUOUS
 10
-880.6332388629
 20
455.2836039511
 11
-778.6332388629
 21
455.2836039511
  0
LINE
  5
3CF
100
AcDbEntity
  8
0
100
AcDbLine
 62
7
  6
CONTINUOUS
 10
-880.6332388629
 20
468.2836039511
 11
-778.6332388629
 21
468.2836039511
  0
LINE
  5
3D0
100
AcDbEntity
  8
0
100
AcDbLine
 62
9
  6
CONTINUOUS
 10
-385.1332388629
 20
21.2836039511
 11
-385.1332388629
 21
25.2836039511
  0
LINE
  5
3D1
100
AcDbEntity
  8
0
100
AcDbLine
 62
7
  6
CONTINUOUS
 10
-371.1332388629
 20
89.2836039511
 11
-371.1332388629
 21
104.2836039511
  0
LINE
  5
3D2
100
AcDbEntity
  8
0
100
AcDbLine
 62
7
  6
CONTINUOUS
 10
-370.1332388629
 20
21.2836039511
 11
-370.1332388629
 21
25.2836039511
  0
LINE
  5
3D3
100
AcDbEntity
  8
0
100
AcDbLine
 62
3
  6
CONTINUOUS
 10
-370.1332388629
 20
25.2836039511
 11
-370.1332388629
 21
89.2836039511
  0
LINE
  5
3D4
100
AcDbEntity
  8
0
100
AcDbLine
 62
7
  6
CONTINUOUS
 10
-310.1332388629
 20
341.2836039511
 11
-320.1332388629
 21
351.2836039511
  0
LINE
  5
3D5
100
AcDbEntity
  8
0
100
AcDbLine
 62
7
  6
CONTINUOUS
 10
-320.1332388629
 20
91.2836039511
 11
-320.1332388629
 21
351.2836039511
  0
LINE
  5
3D6
100
AcDbEntity
  8
0
100
AcDbLine
 62
7
  6
CONTINUOUS
 10
-310.1332388629
 20
91.2851275883
 11
-310.1332388629
 21
351.2820803139
  0
LINE
  5
3D7
100
AcDbEntity
  8
0
100
AcDbLine
 62
7
  6
CONTINUOUS
 10
-310.1332388629
 20
101.2836039511
 11
-320.1332388629
 21
91.2836039511
  0
LINE
  5
3D8
100
AcDbEntity
  8
0
100
AcDbLine
 62
7
  6
CONTINUOUS
 10
-245.9911017915
 20
337.1414898521
 11
-254.2753484806
 21
345.4257381838
  0
LINE
  5
3D9
100
AcDbEntity
  8
0
100
AcDbLine
 62
9
  6
CONTINUOUS
 10
-268.4174855082
 20
91.283603964
 11
-268.4174855082
 21
351.2836039382
  0
LINE
  5
3DA
100
AcDbEntity
  8
0
100
AcDbLine
 62
9
  6
CONTINUOUS
 10
-254.2753485048
 20
97.1414697064
 11
-254.2753485048
 21
345.4257381958
  0
LINE
  5
3DB
100
AcDbEntity
  8
0
100
AcDbLine
 62
9
  6
CONTINUOUS
 10
-245.9911017915
 20
337.1414898521
 11
-245.9911017915
 21
105.4257180501
  0
LINE
  5
3DC
100
AcDbEntity
  8
0
100
AcDbLine
 62
7
  6
CONTINUOUS
 10
-240.1332388629
 20
322.9993556519
 11
-240.1332388629
 21
119.5678522503
  0
LINE
  5
3DD
100
AcDbEntity
  8
0
100
AcDbLine
 62
7
  6
CONTINUOUS
 10
-245.9911017915
 20
105.4257180501
 11
-254.2753484806
 21
97.1414697184
  0
LINE
  5
3DE
100
AcDbEntity
  8
0
100
AcDbLine
 62
7
  6
CONTINUOUS
 10
1842.2933678746
 20
21.2836039511
 11
1912.2933678746
 21
21.2836039511
  0
LINE
  5
3DF
100
AcDbEntity
  8
0
100
AcDbLine
 62
7
  6
CONTINUOUS
 10
2112.2933678746
 20
21.2836039511
 11
2182.2933678746
 21
21.2836039511
  0
LINE
  5
3E0
100
AcDbEntity
  8
0
100
AcDbLine
 62
3
  6
CONTINUOUS
 10
1842.2933678746
 20
25.2836039511
 11
1878.2933678746
 21
25.2836039511
  0
LINE
  5
3E1
100
AcDbEntity
  8
0
100
AcDbLine
 62
3
  6
CONTINUOUS
 10
2146.2933678746
 20
25.2836039511
 11
2182.2933678746
 21
25.2836039511
  0
LINE
  5
3E2
100
AcDbEntity
  8
0
100
AcDbLine
 62
9
  6
CONTINUOUS
 10
2142.2933678746
 20
29.2836039511
 11
2138.2933678746
 21
29.2836039511
  0
LINE
  5
3E3
100
AcDbEntity
  8
0
100
AcDbLine
 62
9
  6
CONTINUOUS
 10
1882.2933678746
 20
29.2836039511
 11
1886.2933678746
 21
29.2836039511
  0
LINE
  5
3E4
100
AcDbEntity
  8
0
100
AcDbLine
 62
7
  6
CONTINUOUS
 10
1919.4355034984
 20
32.2836039511
 11
2105.1512322509
 21
32.2836039511
  0
LINE
  5
3E5
100
AcDbEntity
  8
0
100
AcDbLine
 62
7
  6
CONTINUOUS
 10
1803.2933678746
 20
451.2836039511
 11
1803.2933678746
 21
426.2836039511
  0
LINE
  5
3E6
100
AcDbEntity
  8
0
100
AcDbLine
 62
7
  6
CONTINUOUS
 10
1809.2933678746
 20
248.2032660171
 11
1809.2933678746
 21
221.2836039511
  0
LINE
  5
3E7
100
AcDbEntity
  8
0
100
AcDbLine
 62
7
  6
CONTINUOUS
 10
1812.2933678746
 20
455.2836039511
 11
1812.2933678746
 21
468.2836039511
  0
LINE
  5
3E8
100
AcDbEntity
  8
0
100
AcDbLine
 62
9
  6
CONTINUOUS
 10
1815.2933678746
 20
453.2836039511
 11
1815.2933678746
 21
441.2836039511
  0
LINE
  5
3E9
100
AcDbEntity
  8
0
100
AcDbLine
 62
9
  6
CONTINUOUS
 10
1818.2933678746
 20
441.2836039511
 11
1818.2933678746
 21
426.2836039511
  0
LINE
  5
3EA
100
AcDbEntity
  8
0
100
AcDbLine
 62
7
  6
CONTINUOUS
 10
1820.7933678746
 20
313.1243719843
 11
1820.7933678746
 21
426.2836039511
  0
LINE
  5
3EB
100
AcDbEntity
  8
0
100
AcDbLine
 62
9
  6
CONTINUOUS
 10
1835.7933678746
 20
344.7162185157
 11
1835.7933678746
 21
426.2836039511
  0
LINE
  5
3EC
100
AcDbEntity
  8
0
100
AcDbLine
 62
9
  6
CONTINUOUS
 10
1839.2933678746
 20
248.2032660171
 11
1839.2933678746
 21
221.2836039511
  0
LINE
  5
3ED
100
AcDbEntity
  8
0
100
AcDbLine
 62
9
  6
CONTINUOUS
 10
2142.2933678746
 20
81.2836039511
 11
2138.2933678746
 21
81.2836039511
  0
LINE
  5
3EE
100
AcDbEntity
  8
0
100
AcDbLine
 62
9
  6
CONTINUOUS
 10
1882.2933678746
 20
81.2836039511
 11
1886.2933678746
 21
81.2836039511
  0
LINE
  5
3EF
100
AcDbEntity
  8
0
100
AcDbLine
 62
7
  6
CONTINUOUS
 10
1890.2933678746
 20
85.2836039511
 11
2134.2933678746
 21
85.2836039511
  0
LINE
  5
3F0
100
AcDbEntity
  8
0
100
AcDbLine
 62
7
  6
CONTINUOUS
 10
1882.2933678746
 20
89.2836039511
 11
1890.2933678746
 21
89.2836039511
  0
LINE
  5
3F1
100
AcDbEntity
  8
0
100
AcDbLine
 62
3
  6
CONTINUOUS
 10
1890.2933678746
 20
89.2836039511
 11
2134.2933678746
 21
89.2836039511
  0
LINE
  5
3F2
100
AcDbEntity
  8
0
100
AcDbLine
 62
7
  6
CONTINUOUS
 10
2134.2933678746
 20
89.2836039511
 11
2142.2933678746
 21
89.2836039511
  0
LINE
  5
3F3
100
AcDbEntity
  8
0
100
AcDbLine
 62
7
  6
CONTINUOUS
 10
1842.2933678746
 20
21.2836039511
 11
1842.2933678746
 21
39.2836039511
  0
LINE
  5
3F4
100
AcDbEntity
  8
0
100
AcDbLine
 62
9
  6
CONTINUOUS
 10
1857.2933678746
 20
21.2836039511
 11
1857.2933678746
 21
25.2836039511
  0
LINE
  5
3F5
100
AcDbEntity
  8
0
100
AcDbLine
 62
7
  6
CONTINUOUS
 10
1882.2933678746
 20
104.2836039511
 11
1955.6276816086
 21
104.2836039511
  0
LINE
  5
3F6
100
AcDbEntity
  8
0
100
AcDbLine
 62
7
  6
CONTINUOUS
 10
2068.9590541407
 20
104.2836039511
 11
2142.2933678746
 21
104.2836039511
  0
LINE
  5
3F7
100
AcDbEntity
  8
0
100
AcDbLine
 62
9
  6
CONTINUOUS
 10
1878.2933678746
 20
25.2836039511
 11
1878.2933678746
 21
21.2836039511
  0
LINE
  5
3F8
100
AcDbEntity
  8
0
100
AcDbLine
 62
3
  6
CONTINUOUS
 10
1882.2933678746
 20
29.2836039511
 11
1882.2933678746
 21
81.2836039511
  0
LINE
  5
3F9
100
AcDbEntity
  8
0
100
AcDbLine
 62
7
  6
CONTINUOUS
 10
1882.2933678746
 20
89.2836039511
 11
1882.2933678746
 21
104.2836039511
  0
LINE
  5
3FA
100
AcDbEntity
  8
0
100
AcDbLine
 62
7
  6
CONTINUOUS
 10
1886.2933678746
 20
29.2836039511
 11
1886.2933678746
 21
81.2836039511
  0
LINE
  5
3FB
100
AcDbEntity
  8
0
100
AcDbLine
 62
9
  6
CONTINUOUS
 10
1890.2933678746
 20
89.2836039511
 11
1890.2933678746
 21
85.2836039511
  0
LINE
  5
3FC
100
AcDbEntity
  8
0
100
AcDbLine
 62
9
  6
CONTINUOUS
 10
1890.7933678746
 20
403.6534187993
 11
1890.7933678746
 21
426.2836039511
  0
LINE
  5
3FD
100
AcDbEntity
  8
0
100
AcDbLine
 62
7
  6
CONTINUOUS
 10
1905.7933678746
 20
413.0205891358
 11
1905.7933678746
 21
426.2836039511
  0
LINE
  5
3FE
100
AcDbEntity
  8
0
100
AcDbLine
 62
9
  6
CONTINUOUS
 10
1908.2933678746
 20
441.2836039511
 11
1908.2933678746
 21
426.2836039511
  0
LINE
  5
3FF
100
AcDbEntity
  8
0
100
AcDbLine
 62
9
  6
CONTINUOUS
 10
1911.2933678746
 20
453.2836039511
 11
1911.2933678746
 21
441.2836039511
  0
LINE
  5
400
100
AcDbEntity
  8
02___PRT_ALL_AXES
100
AcDbLine
 62
7
  6
CONTINUOUS
 10
1912.2933678746
 20
21.2836039511
 11
1912.2933678746
 21
25.1414683274
  0
LINE
  5
401
100
AcDbEntity
  8
0
100
AcDbLine
 62
7
  6
CONTINUOUS
 10
1914.2933678746
 20
455.2836039511
 11
1914.2933678746
 21
468.2836039511
  0
LINE
  5
402
100
AcDbEntity
  8
0
100
AcDbLine
 62
7
  6
CONTINUOUS
 10
1923.2933678746
 20
451.2836039511
 11
1923.2933678746
 21
426.2836039511
  0
LINE
  5
403
100
AcDbEntity
  8
0
100
AcDbLine
 62
7
  6
CONTINUOUS
 10
2112.2933678746
 20
25.1414683274
 11
2105.1512322509
 21
32.2836039511
  0
LINE
  5
404
100
AcDbEntity
  8
0
100
AcDbLine
 62
7
  6
CONTINUOUS
 10
1942.2933678746
 20
330.8281154521
 11
1942.2933678746
 21
401.2836039511
  0
LINE
  5
405
100
AcDbEntity
  8
0
100
AcDbLine
 62
7
  6
CONTINUOUS
 10
1868.21017666
 20
84.1728335374
 11
1842.2933678746
 21
39.2836039511
  0
LINE
  5
406
100
AcDbEntity
  8
0
100
AcDbLine
 62
9
  6
CONTINUOUS
 10
1839.2933678746
 20
221.2836039511
 11
1809.2933678746
 21
221.2836039511
  0
LINE
  5
407
100
AcDbEntity
  8
0
100
AcDbLine
 62
9
  6
CONTINUOUS
 10
2157.2933678746
 20
221.2836039511
 11
2187.2933678746
 21
221.2836039511
  0
LINE
  5
408
100
AcDbEntity
  8
0
100
AcDbLine
 62
7
  6
CONTINUOUS
 10
1993.2933678746
 20
441.2836039511
 11
1993.2933678746
 21
435.2836039511
  0
LINE
  5
409
100
AcDbEntity
  8
0
100
AcDbLine
 62
9
  6
CONTINUOUS
 10
1839.2933678746
 20
248.2032660171
 11
1809.2933678746
 21
248.2032660171
  0
LINE
  5
40A
100
AcDbEntity
  8
0
100
AcDbLine
 62
9
  6
CONTINUOUS
 10
2157.2933678746
 20
248.2032660171
 11
2187.2933678746
 21
248.2032660171
  0
LINE
  5
40B
100
AcDbEntity
  8
0
100
AcDbLine
 62
7
  6
CONTINUOUS
 10
2182.2933678746
 20
39.2836039511
 11
2145.5893391163
 21
102.856846603
  0
LINE
  5
40C
100
AcDbEntity
  8
0
100
AcDbLine
 62
7
  6
CONTINUOUS
 10
2082.2933678746
 20
330.8281154521
 11
2082.2933678746
 21
401.2836039511
  0
LINE
  5
40D
100
AcDbEntity
  8
0
100
AcDbLine
 62
7
  6
CONTINUOUS
 10
1919.4355034984
 20
32.2836039511
 11
1912.2933678746
 21
25.1414683274
  0
LINE
  5
40E
100
AcDbEntity
  8
02___PRT_ALL_AXES
100
AcDbLine
 62
7
  6
CONTINUOUS
 10
2112.2933678746
 20
21.2836039511
 11
2112.2933678746
 21
25.1414683274
  0
LINE
  5
40F
100
AcDbEntity
  8
0
100
AcDbLine
 62
7
  6
CONTINUOUS
 10
2123.2933678746
 20
441.2836039511
 11
2123.2933678746
 21
391.7581335765
  0
LINE
  5
410
100
AcDbEntity
  8
0
100
AcDbLine
 62
9
  6
CONTINUOUS
 10
2134.2933678746
 20
89.2836039511
 11
2134.2933678746
 21
85.2836039511
  0
LINE
  5
411
100
AcDbEntity
  8
0
100
AcDbLine
 62
7
  6
CONTINUOUS
 10
2138.2933678746
 20
81.2836039511
 11
2138.2933678746
 21
29.2836039511
  0
LINE
  5
412
100
AcDbEntity
  8
0
100
AcDbLine
 62
3
  6
CONTINUOUS
 10
2142.2933678746
 20
81.2836039511
 11
2142.2933678746
 21
29.2836039511
  0
LINE
  5
413
100
AcDbEntity
  8
0
100
AcDbLine
 62
7
  6
CONTINUOUS
 10
2142.2933678746
 20
89.2836039511
 11
2142.2933678746
 21
104.2836039511
  0
LINE
  5
414
100
AcDbEntity
  8
0
100
AcDbLine
 62
9
  6
CONTINUOUS
 10
2146.2933678746
 20
25.2836039511
 11
2146.2933678746
 21
21.2836039511
  0
LINE
  5
415
100
AcDbEntity
  8
0
100
AcDbLine
 62
7
  6
CONTINUOUS
 10
1942.2933678746
 20
401.2836039511
 11
2082.2933678746
 21
401.2836039511
  0
LINE
  5
416
100
AcDbEntity
  8
0
100
AcDbLine
 62
9
  6
CONTINUOUS
 10
2157.2933678746
 20
221.2836039511
 11
2157.2933678746
 21
248.2032660171
  0
LINE
  5
417
100
AcDbEntity
  8
0
100
AcDbLine
 62
9
  6
CONTINUOUS
 10
2167.2933678746
 20
21.2836039511
 11
2167.2933678746
 21
25.2836039511
  0
LINE
  5
418
100
AcDbEntity
  8
0
100
AcDbLine
 62
7
  6
CONTINUOUS
 10
2182.2933678746
 20
21.2836039511
 11
2182.2933678746
 21
39.2836039511
  0
LINE
  5
419
100
AcDbEntity
  8
0
100
AcDbLine
 62
7
  6
CONTINUOUS
 10
2187.2933678746
 20
221.2836039511
 11
2187.2933678746
 21
248.2032660171
  0
LINE
  5
41A
100
AcDbEntity
  8
0
100
AcDbLine
 62
7
  6
CONTINUOUS
 10
1923.2933678746
 20
426.2836039511
 11
1803.2933678746
 21
426.2836039511
  0
LINE
  5
41B
100
AcDbEntity
  8
0
100
AcDbLine
 62
7
  6
CONTINUOUS
 10
1950.2933678746
 20
431.2836039511
 11
2043.2933648872
 21
431.2836039511
  0
LINE
  5
41C
100
AcDbEntity
  8
0
100
AcDbLine
 62
9
  6
CONTINUOUS
 10
1993.2933678746
 20
435.2836039511
 11
2043.7158498001
 21
435.2836039511
  0
LINE
  5
41D
100
AcDbEntity
  8
0
100
AcDbLine
 62
7
  6
CONTINUOUS
 10
1923.2933678746
 20
441.2836039511
 11
1803.2933678746
 21
441.2836039511
  0
LINE
  5
41E
100
AcDbEntity
  8
02___PRT_ALL_AXES
100
AcDbLine
 62
7
  6
CONTINUOUS
 10
1993.2933678746
 20
441.2836039511
 11
2123.2933678746
 21
441.2836039511
  0
LWPOLYLINE
  5
41F
100
AcDbEntity
  8
0
100
AcDbPolyline
 62
7
  6
CONTINUOUS
 90
3
 70
0
 10
2124.5907046239
 20
388.8099567428
 10
2124.5803029401
 20
388.8194543221
 10
2124.5466856541
 20
388.8507492467
  0
LWPOLYLINE
  5
420
100
AcDbEntity
  8
0
100
AcDbPolyline
 62
7
  6
CONTINUOUS
 90
5
 70
0
 10
2124.5466856541
 20
388.8507492467
 10
2124.4615444798
 20
388.9335152057
 10
2124.3161911961
 20
389.0870685483
 10
2124.163508261
 20
389.2676398054
 10
2124.0181401486
 20
389.4620830337
  0
LWPOLYLINE
  5
421
100
AcDbEntity
  8
0
100
AcDbPolyline
 62
7
  6
CONTINUOUS
 90
5
 70
0
 10
2124.0181401486
 20
389.4620830337
 10
2123.881532926
 20
389.6703788409
 10
2123.7552262554
 20
389.8923214474
 10
2123.6408754745
 20
390.1273814158
 10
2123.6132288875
 20
390.1907408291
  0
LWPOLYLINE
  5
422
100
AcDbEntity
  8
0
100
AcDbPolyline
 62
7
  6
CONTINUOUS
 90
4
 70
0
 10
2123.9644596868
 20
389.5404962349
 10
2123.8357505651
 20
389.7470073828
 10
2123.7172674765
 20
389.9660825526
 10
2123.6286669492
 20
390.1549919221
  0
LINE
  5
423
100
AcDbEntity
  8
0
100
AcDbLine
 62
9
  6
CONTINUOUS
 10
1803.2933678746
 20
451.2836039511
 11
1923.2933678746
 21
451.2836039511
  0
LINE
  5
424
100
AcDbEntity
  8
0
100
AcDbLine
 62
7
  6
CONTINUOUS
 10
1805.2933678746
 20
453.2836039511
 11
1921.2933678746
 21
453.2836039511
  0
LINE
  5
425
100
AcDbEntity
  8
0
100
AcDbLine
 62
9
  6
CONTINUOUS
 10
1812.2933678746
 20
455.2836039511
 11
1914.2933678746
 21
455.2836039511
  0
LINE
  5
426
100
AcDbEntity
  8
0
100
AcDbLine
 62
7
  6
CONTINUOUS
 10
1812.2933713273
 20
468.2836039511
 11
1914.293364422
 21
468.2836039511
  0
LINE
  5
427
100
AcDbEntity
  8
0
100
AcDbLine
 62
7
  6
CONTINUOUS
 10
705.9319945891
 20
-459.9623435053
 11
705.9319945891
 21
-256.5308400562
  0
LINE
  5
428
100
AcDbEntity
  8
0
100
AcDbLine
 62
9
  6
CONTINUOUS
 10
711.7898575634
 20
-474.1044777277
 11
711.7898575634
 21
-242.3887058345
  0
LINE
  5
429
100
AcDbEntity
  8
0
100
AcDbLine
 62
9
  6
CONTINUOUS
 10
720.0741041958
 20
-234.1044575594
 11
720.0741041958
 21
-482.3887260028
  0
LINE
  5
42A
100
AcDbEntity
  8
0
100
AcDbLine
 62
9
  6
CONTINUOUS
 10
734.2162412216
 20
-228.2465917811
 11
734.2162412216
 21
-488.2465917811
  0
LINE
  5
42B
100
AcDbEntity
  8
0
100
AcDbLine
 62
7
  6
CONTINUOUS
 10
711.7898575634
 20
-474.1044777277
 11
720.0741041958
 21
-482.3887260028
  0
LINE
  5
42C
100
AcDbEntity
  8
0
100
AcDbLine
 62
7
  6
CONTINUOUS
 10
775.9319945891
 20
-228.2465917811
 11
775.9319945891
 21
-488.2465917811
  0
LINE
  5
42D
100
AcDbEntity
  8
0
100
AcDbLine
 62
7
  6
CONTINUOUS
 10
711.7898575634
 20
-242.3887058345
 11
720.0741041958
 21
-234.1044575594
  0
LINE
  5
42E
100
AcDbEntity
  8
0
100
AcDbLine
 62
7
  6
CONTINUOUS
 10
775.9319945891
 20
-478.2465917811
 11
785.9319945891
 21
-488.2465917811
  0
LINE
  5
42F
100
AcDbEntity
  8
0
100
AcDbLine
 62
7
  6
CONTINUOUS
 10
785.9319945891
 20
-228.2465917811
 11
785.9319945891
 21
-488.2465917811
  0
LINE
  5
430
100
AcDbEntity
  8
0
100
AcDbLine
 62
7
  6
CONTINUOUS
 10
775.9319945891
 20
-238.2465917811
 11
785.9319945891
 21
-228.2465917811
  0
LINE
  5
431
100
AcDbEntity
  8
0
100
AcDbLine
 62
3
  6
CONTINUOUS
 10
835.9319945891
 20
-203.2465917811
 11
835.9319945891
 21
-228.2465917811
  0
LINE
  5
432
100
AcDbEntity
  8
0
100
AcDbLine
 62
3
  6
CONTINUOUS
 10
835.9319945891
 20
-488.2465917811
 11
835.9319945891
 21
-513.2465917811
  0
LINE
  5
433
100
AcDbEntity
  8
02___PRT_ALL_AXES
100
AcDbLine
 62
3
  6
CONTINUOUS
 10
850.9319945891
 20
-510.7465917811
 11
850.9319945891
 21
-505.7465917811
  0
LINE
  5
434
100
AcDbEntity
  8
02___PRT_ALL_AXES
100
AcDbLine
 62
3
  6
CONTINUOUS
 10
850.9319945891
 20
-210.7465917811
 11
850.9319945891
 21
-205.7465917811
  0
LINE
  5
435
100
AcDbEntity
  8
02___PRT_ALL_AXES
100
AcDbLine
 62
3
  6
CONTINUOUS
 10
862.9319945891
 20
-205.7465917811
 11
862.9319945891
 21
-210.7465917811
  0
LINE
  5
436
100
AcDbEntity
  8
02___PRT_ALL_AXES
100
AcDbLine
 62
3
  6
CONTINUOUS
 10
862.9319945891
 20
-505.7465917811
 11
862.9319945891
 21
-510.7465917811
  0
LINE
  5
437
100
AcDbEntity
  8
0
100
AcDbLine
 62
7
  6
CONTINUOUS
 10
1431.4319945891
 20
-533.2465917811
 11
1251.4319945891
 21
-533.2465917811
  0
LINE
  5
438
100
AcDbEntity
  8
0
100
AcDbLine
 62
3
  6
CONTINUOUS
 10
850.9319945891
 20
-528.2465917811
 11
1040.9319945891
 21
-528.2465917811
  0
LINE
  5
439
100
AcDbEntity
  8
0
100
AcDbLine
 62
7
  6
CONTINUOUS
 10
933.9319945891
 20
-288.2465917811
 11
933.9319945891
 21
-428.2465917811
  0
LINE
  5
43A
100
AcDbEntity
  8
0
100
AcDbLine
 62
7
  6
CONTINUOUS
 10
1220.9319945891
 20
-493.2465917811
 11
1211.9319945891
 21
-493.2465917811
  0
LINE
  5
43B
100
AcDbEntity
  8
0
100
AcDbLine
 62
9
  6
CONTINUOUS
 10
835.9319945891
 20
-492.2465917811
 11
1055.9319945891
 21
-492.2465917811
  0
LINE
  5
43C
100
AcDbEntity
  8
0
100
AcDbLine
 62
7
  6
CONTINUOUS
 10
734.2162412216
 20
-488.2465917811
 11
775.9319945891
 21
-488.2465917811
  0
LINE
  5
43D
100
AcDbEntity
  8
02___PRT_ALL_AXES
100
AcDbLine
 62
7
  6
CONTINUOUS
 10
734.2162412216
 20
-488.2465917811
 11
775.9319945891
 21
-488.2465917811
  0
LINE
  5
43E
100
AcDbEntity
  8
02___PRT_ALL_AXES
100
AcDbLine
 62
7
  6
CONTINUOUS
 10
785.9319945891
 20
-488.2465917811
 11
1103.9319945891
 21
-488.2465917811
  0
LINE
  5
43F
100
AcDbEntity
  8
0
100
AcDbLine
 62
7
  6
CONTINUOUS
 10
785.9319945891
 20
-488.2465917811
 11
1103.9319945891
 21
-488.2465917811
  0
LINE
  5
440
100
AcDbEntity
  8
3_ALL_AXES
100
AcDbLine
 62
7
  6
CONTINUOUS
 10
1220.9319945891
 20
-480.7465917811
 11
1221.4319945891
 21
-480.7465917811
  0
LINE
  5
441
100
AcDbEntity
  8
3_ALL_AXES
100
AcDbLine
 62
7
  6
CONTINUOUS
 10
1136.9319945891
 20
-458.2465917811
 11
1124.9319945891
 21
-458.2465917811
  0
LINE
  5
442
100
AcDbEntity
  8
0
100
AcDbLine
 62
7
  6
CONTINUOUS
 10
1124.9319945891
 20
-458.2465917811
 11
1206.9319945891
 21
-458.2465917811
  0
LINE
  5
443
100
AcDbEntity
  8
0
100
AcDbLine
 62
9
  6
CONTINUOUS
 10
1138.9319945891
 20
-456.2465917811
 11
1209.9319945891
 21
-456.2465917811
  0
LINE
  5
444
100
AcDbEntity
  8
0
100
AcDbLine
 62
9
  6
CONTINUOUS
 10
1209.9319945891
 20
-447.1195751273
 11
1206.9319945891
 21
-447.1195751273
  0
LINE
  5
445
100
AcDbEntity
  8
0
100
AcDbLine
 62
9
  6
CONTINUOUS
 10
1206.9319945891
 20
-440.8745771289
 11
1203.9319945891
 21
-440.8745771289
  0
LINE
  5
446
100
AcDbEntity
  8
0
100
AcDbLine
 62
9
  6
CONTINUOUS
 10
1206.9319945891
 20
-434.9655008485
 11
1203.9319945891
 21
-434.9655008485
  0
LINE
  5
447
100
AcDbEntity
  8
0
100
AcDbLine
 62
7
  6
CONTINUOUS
 10
1471.4319945891
 20
-434.2465917811
 11
1465.4319945891
 21
-434.2465917811
  0
LINE
  5
448
100
AcDbEntity
  8
0
100
AcDbLine
 62
7
  6
CONTINUOUS
 10
933.9319945891
 20
-428.2465917811
 11
1073.9319945891
 21
-428.2465917811
  0
LINE
  5
449
100
AcDbEntity
  8
0
100
AcDbLine
 62
9
  6
CONTINUOUS
 10
1206.9319945891
 20
-428.2465827517
 11
1209.9319945891
 21
-428.2465917811
  0
LINE
  5
44A
100
AcDbEntity
  8
02___PRT_ALL_AXES
100
AcDbLine
 62
3
  6
CONTINUOUS
 10
1028.9319945891
 20
-510.7465917811
 11
1028.9319945891
 21
-505.7465917811
  0
LINE
  5
44B
100
AcDbEntity
  8
02___PRT_ALL_AXES
100
AcDbLine
 62
3
  6
CONTINUOUS
 10
1028.9319945891
 20
-210.7465917811
 11
1028.9319945891
 21
-205.7465917811
  0
LINE
  5
44C
100
AcDbEntity
  8
02___PRT_ALL_AXES
100
AcDbLine
 62
3
  6
CONTINUOUS
 10
1040.9319945891
 20
-205.7465917811
 11
1040.9319945891
 21
-210.7465917811
  0
LINE
  5
44D
100
AcDbEntity
  8
02___PRT_ALL_AXES
100
AcDbLine
 62
3
  6
CONTINUOUS
 10
1040.9319945891
 20
-505.7465917811
 11
1040.9319945891
 21
-510.7465917811
  0
LINE
  5
44E
100
AcDbEntity
  8
0
100
AcDbLine
 62
9
  6
CONTINUOUS
 10
1328.6454354709
 20
-389.2465917811
 11
1324.6678115492
 21
-389.6690734802
  0
LINE
  5
44F
100
AcDbEntity
  8
0
100
AcDbLine
 62
9
  6
CONTINUOUS
 10
1123.9319945891
 20
-418.2465917811
 11
1138.9319945891
 21
-418.2465917811
  0
LINE
  5
450
100
AcDbEntity
  8
0
100
AcDbLine
 62
9
  6
CONTINUOUS
 10
1461.4319945891
 20
-409.2465917811
 11
1471.4319945891
 21
-409.2465917811
  0
LINE
  5
451
100
AcDbEntity
  8
0
100
AcDbLine
 62
7
  6
CONTINUOUS
 10
1482.4319945891
 20
-404.2465917811
 11
1454.2569394276
 21
-404.2465917811
  0
LINE
  5
452
100
AcDbEntity
  8
0
100
AcDbLine
 62
9
  6
CONTINUOUS
 10
1138.9319945891
 20
-404.0532506857
 11
1141.9319945891
 21
-404.0532506857
  0
LINE
  5
453
100
AcDbEntity
  8
0
100
AcDbLine
 62
9
  6
CONTINUOUS
 10
1167.1897706501
 20
-403.037773949
 11
1142.9319945891
 21
-403.037773949
  0
LINE
  5
454
100
AcDbEntity
  8
0
100
AcDbLine
 62
9
  6
CONTINUOUS
 10
1206.9319945891
 20
-402.2465917811
 11
1209.9319945891
 21
-402.2465917811
  0
LINE
  5
455
100
AcDbEntity
  8
0
100
AcDbLine
 62
9
  6
CONTINUOUS
 10
1138.9319945891
 20
-401.2465917811
 11
1136.9319945891
 21
-401.2465917811
  0
LINE
  5
456
100
AcDbEntity
  8
0
100
AcDbLine
 62
9
  6
CONTINUOUS
 10
1167.1897706501
 20
-400.0845091907
 11
1142.9319945891
 21
-400.0845091907
  0
LINE
  5
457
100
AcDbEntity
  8
0
100
AcDbLine
 62
7
  6
CONTINUOUS
 10
1205.9319945891
 20
-398.2465917811
 11
1141.9319945891
 21
-398.2465917811
  0
LINE
  5
458
100
AcDbEntity
  8
0
100
AcDbLine
 62
3
  6
CONTINUOUS
 10
1055.9319945891
 20
-203.2465917811
 11
1055.9319945891
 21
-228.2465917811
  0
LINE
  5
459
100
AcDbEntity
  8
0
100
AcDbLine
 62
3
  6
CONTINUOUS
 10
1055.9319945891
 20
-488.2465917811
 11
1055.9319945891
 21
-513.2465917811
  0
LINE
  5
45A
100
AcDbEntity
  8
0
100
AcDbLine
 62
7
  6
CONTINUOUS
 10
1073.9319945891
 20
-428.2465917811
 11
1073.9319945891
 21
-288.2465917811
  0
LINE
  5
45B
100
AcDbEntity
  8
0
100
AcDbLine
 62
9
  6
CONTINUOUS
 10
1141.9319945891
 20
-396.2465917811
 11
1209.9319945891
 21
-396.2465917811
  0
LINE
  5
45C
100
AcDbEntity
  8
0
100
AcDbLine
 62
7
  6
CONTINUOUS
 10
1486.4319945891
 20
-395.2465917811
 11
1506.4319945891
 21
-395.2465917811
  0
LINE
  5
45D
100
AcDbEntity
  8
0
100
AcDbLine
 62
9
  6
CONTINUOUS
 10
1329.0788152057
 20
-393.1259021259
 11
1431.4319945891
 21
-393.1259021259
  0
LINE
  5
45E
100
AcDbEntity
  8
0
100
AcDbLine
 62
9
  6
CONTINUOUS
 10
1251.4319946027
 20
-393.1258851534
 11
1261.7851739726
 21
-393.1259021259
  0
LINE
  5
45F
100
AcDbEntity
  8
0
100
AcDbLine
 62
9
  6
CONTINUOUS
 10
1484.4319945891
 20
-392.2465917811
 11
1471.4319945891
 21
-392.2465917811
  0
LINE
  5
460
100
AcDbEntity
  8
0
100
AcDbLine
 62
9
  6
CONTINUOUS
 10
1471.4319945891
 20
-389.2465917811
 11
1328.6454354709
 21
-389.2465917811
  0
LINE
  5
461
100
AcDbEntity
  8
0
100
AcDbLine
 62
9
  6
CONTINUOUS
 10
1262.2185537074
 20
-389.2465917811
 11
1251.4319945891
 21
-389.2465887937
  0
LINE
  5
462
100
AcDbEntity
  8
0
100
AcDbLine
 62
9
  6
CONTINUOUS
 10
1262.2185537082
 20
-389.246591734
 11
1266.1961540073
 21
-389.6690709705
  0
LINE
  5
463
100
AcDbEntity
  8
0
100
AcDbLine
 62
7
  6
CONTINUOUS
 10
1103.9319945891
 20
-228.2465917811
 11
1103.9319945891
 21
-488.2465917811
  0
LINE
  5
464
100
AcDbEntity
  8
0
100
AcDbLine
 62
7
  6
CONTINUOUS
 10
1123.9319945891
 20
-248.2465917812
 11
1123.9319945891
 21
-468.2465917811
  0
LINE
  5
465
100
AcDbEntity
  8
0
100
AcDbLine
 62
9
  6
CONTINUOUS
 10
1124.9319945891
 20
-458.2465917811
 11
1124.9319945891
 21
-258.2465917811
  0
LINE
  5
466
100
AcDbEntity
  8
0
100
AcDbLine
 62
9
  6
CONTINUOUS
 10
1136.9319945891
 20
-258.2465917811
 11
1136.9319945891
 21
-315.2465917811
  0
LINE
  5
467
100
AcDbEntity
  8
0
100
AcDbLine
 62
9
  6
CONTINUOUS
 10
1136.9319945891
 20
-401.2465917811
 11
1136.9319945891
 21
-458.2465917811
  0
LINE
  5
468
100
AcDbEntity
  8
0
100
AcDbLine
 62
7
  6
CONTINUOUS
 10
1138.9319945891
 20
-260.2465917811
 11
1138.9319945891
 21
-315.2465917811
  0
LINE
  5
469
100
AcDbEntity
  8
0
100
AcDbLine
 62
7
  6
CONTINUOUS
 10
1138.9319945891
 20
-401.2465917811
 11
1138.9319945891
 21
-456.2465917811
  0
LINE
  5
46A
100
AcDbEntity
  8
0
100
AcDbLine
 62
9
  6
CONTINUOUS
 10
1141.9319945891
 20
-320.2465917811
 11
1209.9319945891
 21
-320.2465917811
  0
LINE
  5
46B
100
AcDbEntity
  8
0
100
AcDbLine
 62
7
  6
CONTINUOUS
 10
1141.9319945891
 20
-318.2465917811
 11
1205.9319945891
 21
-318.2465917811
  0
LINE
  5
46C
100
AcDbEntity
  8
0
100
AcDbLine
 62
9
  6
CONTINUOUS
 10
1142.9319945891
 20
-316.4086743715
 11
1167.1897706501
 21
-316.4086743715
  0
LINE
  5
46D
100
AcDbEntity
  8
0
100
AcDbLine
 62
9
  6
CONTINUOUS
 10
1138.9319945891
 20
-315.2465917811
 11
1136.9319945892
 21
-315.2465917809
  0
LINE
  5
46E
100
AcDbEntity
  8
0
100
AcDbLine
 62
9
  6
CONTINUOUS
 10
1206.9319945891
 20
-314.2465917811
 11
1209.9319945891
 21
-314.2465917811
  0
LINE
  5
46F
100
AcDbEntity
  8
0
100
AcDbLine
 62
9
  6
CONTINUOUS
 10
1142.9319945891
 20
-313.4554096132
 11
1167.1897706501
 21
-313.4554096132
  0
LINE
  5
470
100
AcDbEntity
  8
0
100
AcDbLine
 62
9
  6
CONTINUOUS
 10
1138.9319945891
 20
-312.4399328765
 11
1141.9319945891
 21
-312.4399328765
  0
LINE
  5
471
100
AcDbEntity
  8
0
100
AcDbLine
 62
9
  6
CONTINUOUS
 10
1141.9319945891
 20
-398.2465917811
 11
1141.9319945894
 21
-396.2465917812
  0
LINE
  5
472
100
AcDbEntity
  8
0
100
AcDbLine
 62
9
  6
CONTINUOUS
 10
1141.9319945894
 20
-258.2465917811
 11
1141.9319945891
 21
-312.4399328765
  0
LINE
  5
473
100
AcDbEntity
  8
0
100
AcDbLine
 62
9
  6
CONTINUOUS
 10
1141.9319945891
 20
-318.2465917811
 11
1141.9319945891
 21
-320.2465917811
  0
LINE
  5
474
100
AcDbEntity
  8
0
100
AcDbLine
 62
9
  6
CONTINUOUS
 10
1141.9319945891
 20
-404.0532506857
 11
1141.9319945891
 21
-458.2465917811
  0
LINE
  5
475
100
AcDbEntity
  8
0
100
AcDbLine
 62
9
  6
CONTINUOUS
 10
1142.9319945891
 20
-313.4554096132
 11
1142.9319945891
 21
-318.2465917811
  0
LINE
  5
476
100
AcDbEntity
  8
0
100
AcDbLine
 62
9
  6
CONTINUOUS
 10
1142.9319945891
 20
-398.2465917811
 11
1142.9319945891
 21
-403.037773949
  0
LINE
  5
477
100
AcDbEntity
  8
3_ALL_AXES
100
AcDbLine
 62
7
  6
CONTINUOUS
 10
1149.9319945891
 20
-356.6065244354
 11
1149.9319945891
 21
-359.8866591269
  0
LINE
  5
478
100
AcDbEntity
  8
0
100
AcDbLine
 62
9
  6
CONTINUOUS
 10
1167.1897706501
 20
-318.2465917811
 11
1167.1897706501
 21
-313.4554096132
  0
LINE
  5
479
100
AcDbEntity
  8
0
100
AcDbLine
 62
9
  6
CONTINUOUS
 10
1167.1897706501
 20
-398.2465917811
 11
1167.1897706501
 21
-403.037773949
  0
LINE
  5
47A
100
AcDbEntity
  8
0
100
AcDbLine
 62
9
  6
CONTINUOUS
 10
1471.4319945891
 20
-299.2465917811
 11
1251.4319945891
 21
-299.2465947688
  0
LINE
  5
47B
100
AcDbEntity
  8
0
100
AcDbLine
 62
9
  6
CONTINUOUS
 10
1123.9319945891
 20
-298.2465917811
 11
1138.9319945891
 21
-298.2465917811
  0
LINE
  5
47C
100
AcDbEntity
  8
0
100
AcDbLine
 62
9
  6
CONTINUOUS
 10
1484.4319945891
 20
-296.2465917811
 11
1471.4319945891
 21
-296.2465917811
  0
LINE
  5
47D
100
AcDbEntity
  8
0
100
AcDbLine
 62
9
  6
CONTINUOUS
 10
1251.4319946027
 20
-295.3672984086
 11
1431.4319945891
 21
-295.3672814363
  0
LINE
  5
47E
100
AcDbEntity
  8
0
100
AcDbLine
 62
7
  6
CONTINUOUS
 10
1486.4319945891
 20
-293.2465917811
 11
1506.4319945891
 21
-293.2465917811
  0
LINE
  5
47F
100
AcDbEntity
  8
0
100
AcDbLine
 62
9
  6
CONTINUOUS
 10
1209.9319945891
 20
-288.2465917811
 11
1206.9319945891
 21
-288.2466007737
  0
LINE
  5
480
100
AcDbEntity
  8
0
100
AcDbLine
 62
7
  6
CONTINUOUS
 10
1073.9319945891
 20
-288.2465917811
 11
933.9319945891
 21
-288.2465917811
  0
LINE
  5
481
100
AcDbEntity
  8
0
100
AcDbLine
 62
7
  6
CONTINUOUS
 10
1454.2569394276
 20
-284.2465917811
 11
1482.4319945891
 21
-284.2465917811
  0
LINE
  5
482
100
AcDbEntity
  8
0
100
AcDbLine
 62
9
  6
CONTINUOUS
 10
1206.9319945891
 20
-281.5276827138
 11
1203.9319945891
 21
-281.5276827138
  0
LINE
  5
483
100
AcDbEntity
  8
0
100
AcDbLine
 62
9
  6
CONTINUOUS
 10
1461.4319945891
 20
-279.2465917811
 11
1471.4319945891
 21
-279.2465917811
  0
LINE
  5
484
100
AcDbEntity
  8
0
100
AcDbLine
 62
9
  6
CONTINUOUS
 10
1172.3320715276
 20
-401.9614711081
 11
1172.3320715276
 21
-398.2465917811
  0
LINE
  5
485
100
AcDbEntity
  8
0
100
AcDbLine
 62
9
  6
CONTINUOUS
 10
1172.3320715276
 20
-318.2465917811
 11
1172.3320715276
 21
-314.5317124542
  0
LINE
  5
486
100
AcDbEntity
  8
0
100
AcDbLine
 62
9
  6
CONTINUOUS
 10
1172.3320694965
 20
-401.9614734929
 11
1170.4037086985
 21
-404.2255887085
  0
LINE
  5
487
100
AcDbEntity
  8
0
100
AcDbLine
 62
9
  6
CONTINUOUS
 10
1206.9319945891
 20
-275.6186064333
 11
1203.9319945891
 21
-275.6186064333
  0
LINE
  5
488
100
AcDbEntity
  8
0
100
AcDbLine
 62
9
  6
CONTINUOUS
 10
1209.9319945891
 20
-269.3736084349
 11
1206.9319945891
 21
-269.3736084349
  0
LINE
  5
489
100
AcDbEntity
  8
0
100
AcDbLine
 62
7
  6
CONTINUOUS
 10
1247.4319945891
 20
-269.2465917811
 11
1343.4319945891
 21
-269.2465917811
  0
LINE
  5
48A
100
AcDbEntity
  8
0
100
AcDbLine
 62
9
  6
CONTINUOUS
 10
1247.4319945891
 20
-267.2465917811
 11
1343.4319945891
 21
-267.2465917811
  0
LINE
  5
48B
100
AcDbEntity
  8
0
100
AcDbLine
 62
9
  6
CONTINUOUS
 10
1138.9319945891
 20
-260.2465917811
 11
1209.9319945891
 21
-260.2465917811
  0
LINE
  5
48C
100
AcDbEntity
  8
0
100
AcDbLine
 62
7
  6
CONTINUOUS
 10
1206.9319945891
 20
-258.2465917811
 11
1124.9319945891
 21
-258.2465917811
  0
LINE
  5
48D
100
AcDbEntity
  8
0
100
AcDbLine
 62
9
  6
CONTINUOUS
 10
1237.4319945891
 20
-257.2465917811
 11
1235.4319945891
 21
-257.2465917811
  0
LINE
  5
48E
100
AcDbEntity
  8
0
100
AcDbLine
 62
9
  6
CONTINUOUS
 10
1353.4319945891
 20
-257.2465917811
 11
1355.4319945891
 21
-257.2465917811
  0
LINE
  5
48F
100
AcDbEntity
  8
0
100
AcDbLine
 62
7
  6
CONTINUOUS
 10
1471.4319945891
 20
-254.2465917811
 11
1465.4319945891
 21
-254.2465917811
  0
LINE
  5
490
100
AcDbEntity
  8
02___PRT_ALL_AXES
100
AcDbLine
 62
7
  6
CONTINUOUS
 10
1465.4319945891
 20
-254.2465917811
 11
1471.4319945891
 21
-254.2465917811
  0
LINE
  5
491
100
AcDbEntity
  8
0
100
AcDbLine
 62
7
  6
CONTINUOUS
 10
1123.932005317
 20
-248.2465810541
 11
1103.9320072675
 21
-228.2465791037
  0
LINE
  5
492
100
AcDbEntity
  8
0
100
AcDbLine
 62
9
  6
CONTINUOUS
 10
1172.3320715225
 20
-314.5317124482
 11
1170.4037086985
 21
-312.2675948538
  0
LINE
  5
493
100
AcDbEntity
  8
0
100
AcDbLine
 62
9
  6
CONTINUOUS
 10
1203.9319945891
 20
-440.8745771289
 11
1203.9319945891
 21
-434.9655008485
  0
LINE
  5
494
100
AcDbEntity
  8
0
100
AcDbLine
 62
9
  6
CONTINUOUS
 10
1203.9319945891
 20
-281.5276827138
 11
1203.9319945891
 21
-275.6186064333
  0
LINE
  5
495
100
AcDbEntity
  8
0
100
AcDbLine
 62
9
  6
CONTINUOUS
 10
1204.0742954666
 20
-428.8290092918
 11
1204.0742954666
 21
-398.2465917811
  0
LINE
  5
496
100
AcDbEntity
  8
0
100
AcDbLine
 62
9
  6
CONTINUOUS
 10
1204.0742954666
 20
-318.2465917811
 11
1204.0742954666
 21
-287.6641742704
  0
LINE
  5
497
100
AcDbEntity
  8
0
100
AcDbLine
 62
9
  6
CONTINUOUS
 10
1205.9319945891
 20
-318.2465917811
 11
1205.9319945891
 21
-398.2465917811
  0
LINE
  5
498
100
AcDbEntity
  8
0
100
AcDbLine
 62
7
  6
CONTINUOUS
 10
1206.9319945891
 20
-440.8745771234
 11
1206.9319945891
 21
-398.3739410133
  0
LINE
  5
499
100
AcDbEntity
  8
0
100
AcDbLine
 62
7
  6
CONTINUOUS
 10
1206.9319945891
 20
-318.1192336867
 11
1206.9319945891
 21
-275.6186064387
  0
LINE
  5
49A
100
AcDbEntity
  8
0
100
AcDbLine
 62
9
  6
CONTINUOUS
 10
1206.9319945891
 20
-258.2465917811
 11
1206.9319945891
 21
-269.3736084349
  0
LINE
  5
49B
100
AcDbEntity
  8
0
100
AcDbLine
 62
9
  6
CONTINUOUS
 10
1206.9319945891
 20
-447.1195751273
 11
1206.9319945891
 21
-458.2465917811
  0
LINE
  5
49C
100
AcDbEntity
  8
0
100
AcDbLine
 62
9
  6
CONTINUOUS
 10
1208.4319945878
 20
-428.2465917811
 11
1208.4319850449
 21
-402.2465917811
  0
LINE
  5
49D
100
AcDbEntity
  8
0
100
AcDbLine
 62
9
  6
CONTINUOUS
 10
1208.431985044
 20
-314.2465917811
 11
1208.4319945877
 21
-288.2465917801
  0
LINE
  5
49E
100
AcDbEntity
  8
0
100
AcDbLine
 62
7
  6
CONTINUOUS
 10
1209.9319945891
 20
-491.2465917811
 11
1209.9319945891
 21
-225.2465917811
  0
LINE
  5
49F
100
AcDbEntity
  8
0
100
AcDbLine
 62
9
  6
CONTINUOUS
 10
1211.9319945891
 20
-223.2465917811
 11
1211.9319945891
 21
-493.2465917811
  0
LINE
  5
4A0
100
AcDbEntity
  8
0
100
AcDbLine
 62
7
  6
CONTINUOUS
 10
1220.9319945891
 20
-223.2466669119
 11
1220.9319945891
 21
-493.2465166503
  0
LINE
  5
4A1
100
AcDbEntity
  8
0
100
AcDbLine
 62
7
  6
CONTINUOUS
 10
1221.4319945891
 20
-503.2465917811
 11
1221.4319945891
 21
-185.2465917811
  0
LINE
  5
4A2
100
AcDbEntity
  8
0
100
AcDbLine
 62
7
  6
CONTINUOUS
 10
1123.9320053173
 20
-468.2466025077
 11
1103.9320072679
 21
-488.246604458
  0
LINE
  5
4A3
100
AcDbEntity
  8
3_ALL_AXES
100
AcDbLine
 62
7
  6
CONTINUOUS
 10
1220.9319945891
 20
-235.7465917811
 11
1221.4319945891
 21
-235.7465917811
  0
LINE
  5
4A4
100
AcDbEntity
  8
0
100
AcDbLine
 62
7
  6
CONTINUOUS
 10
734.2162412216
 20
-228.2465917811
 11
775.9319945891
 21
-228.2465917811
  0
LINE
  5
4A5
100
AcDbEntity
  8
02___PRT_ALL_AXES
100
AcDbLine
 62
7
  6
CONTINUOUS
 10
734.2162412216
 20
-228.2465917811
 11
775.9319945891
 21
-228.2465917811
  0
LINE
  5
4A6
100
AcDbEntity
  8
0
100
AcDbLine
 62
7
  6
CONTINUOUS
 10
785.9319945891
 20
-228.2465917811
 11
1103.9319945891
 21
-228.2465917811
  0
LINE
  5
4A7
100
AcDbEntity
  8
02___PRT_ALL_AXES
100
AcDbLine
 62
7
  6
CONTINUOUS
 10
785.9319945891
 20
-228.2465917811
 11
1103.9319945891
 21
-228.2465917811
  0
LINE
  5
4A8
100
AcDbEntity
  8
0
100
AcDbLine
 62
9
  6
CONTINUOUS
 10
835.9319945891
 20
-224.2465917811
 11
1055.9319945891
 21
-224.2465917811
  0
LINE
  5
4A9
100
AcDbEntity
  8
0
100
AcDbLine
 62
7
  6
CONTINUOUS
 10
1220.9319945891
 20
-223.2465917811
 11
1211.9319945891
 21
-223.2465917811
  0
LINE
  5
4AA
100
AcDbEntity
  8
0
100
AcDbLine
 62
9
  6
CONTINUOUS
 10
1204.074293311
 20
-287.6641717169
 11
1202.1459326376
 21
-285.3797674753
  0
LINE
  5
4AB
100
AcDbEntity
  8
0
100
AcDbLine
 62
7
  6
CONTINUOUS
 10
1235.4319945891
 20
-161.2465917811
 11
1235.4319945891
 21
-257.2465917811
  0
LINE
  5
4AC
100
AcDbEntity
  8
0
100
AcDbLine
 62
9
  6
CONTINUOUS
 10
1237.4319945891
 20
-161.2465917811
 11
1237.4319945891
 21
-257.2465917811
  0
LINE
  5
4AD
100
AcDbEntity
  8
0
100
AcDbLine
 62
9
  6
CONTINUOUS
 10
1247.4319945891
 20
-151.2465917811
 11
1247.4319945891
 21
-149.2465917811
  0
LINE
  5
4AE
100
AcDbEntity
  8
0
100
AcDbLine
 62
9
  6
CONTINUOUS
 10
1247.4319945891
 20
-267.2465917811
 11
1247.4319945891
 21
-269.2465917811
  0
LINE
  5
4AF
100
AcDbEntity
  8
0
100
AcDbLine
 62
9
  6
CONTINUOUS
 10
1251.4319945891
 20
-269.2465917811
 11
1251.4319945891
 21
-533.2465917811
  0
LINE
  5
4B0
100
AcDbEntity
  8
0
100
AcDbLine
 62
9
  6
CONTINUOUS
 10
1208.4319945893
 20
-443.9970761283
 11
1206.5569945893
 21
-446.3389503776
  0
LINE
  5
4B1
100
AcDbEntity
  8
0
100
AcDbLine
 62
9
  6
CONTINUOUS
 10
1204.0742954656
 20
-428.8290092931
 11
1202.1459326376
 21
-431.1134160869
  0
LINE
  5
4B2
100
AcDbEntity
  8
0
100
AcDbLine
 62
9
  6
CONTINUOUS
 10
1208.4319945888
 20
-272.4961074344
 11
1206.5569945891
 21
-270.1542331847
  0
LINE
  5
4B3
100
AcDbEntity
  8
0
100
AcDbLine
 62
3
  6
CONTINUOUS
 10
850.9319945891
 20
-188.2465917811
 11
1040.9319945891
 21
-188.2465917811
  0
LINE
  5
4B4
100
AcDbEntity
  8
0
100
AcDbLine
 62
9
  6
CONTINUOUS
 10
1237.4319945891
 20
-161.2465917811
 11
1235.4319945891
 21
-161.2465917811
  0
LINE
  5
4B5
100
AcDbEntity
  8
0
100
AcDbLine
 62
9
  6
CONTINUOUS
 10
1353.4319945891
 20
-161.2465917811
 11
1355.4319945891
 21
-161.2465917811
  0
LINE
  5
4B6
100
AcDbEntity
  8
0
100
AcDbLine
 62
7
  6
CONTINUOUS
 10
1353.8206071816
 20
-155.2465917811
 11
1431.4319945891
 21
-155.2465917811
  0
LINE
  5
4B7
100
AcDbEntity
  8
0
100
AcDbLine
 62
9
  6
CONTINUOUS
 10
1343.4319945891
 20
-151.2465917811
 11
1247.4319945891
 21
-151.2465917811
  0
LINE
  5
4B8
100
AcDbEntity
  8
0
100
AcDbLine
 62
7
  6
CONTINUOUS
 10
1343.4319945891
 20
-149.2465917811
 11
1247.4319945891
 21
-149.2465917811
  0
LINE
  5
4B9
100
AcDbEntity
  8
0
100
AcDbLine
 62
9
  6
CONTINUOUS
 10
1343.4319945891
 20
-151.2465917811
 11
1343.4319945891
 21
-149.2465917811
  0
LINE
  5
4BA
100
AcDbEntity
  8
0
100
AcDbLine
 62
9
  6
CONTINUOUS
 10
1343.4319945891
 20
-267.2465917811
 11
1343.4319945891
 21
-269.2465917811
  0
LINE
  5
4BB
100
AcDbEntity
  8
0
100
AcDbLine
 62
9
  6
CONTINUOUS
 10
1353.4319945891
 20
-257.2465917811
 11
1353.4319945891
 21
-161.2465917811
  0
LINE
  5
4BC
100
AcDbEntity
  8
0
100
AcDbLine
 62
7
  6
CONTINUOUS
 10
1355.4319945891
 20
-257.2465917811
 11
1355.4319945891
 21
-161.2465917811
  0
LINE
  5
4BD
100
AcDbEntity
  8
0
100
AcDbLine
 62
9
  6
CONTINUOUS
 10
1431.4319945891
 20
-155.2465917811
 11
1431.4319945891
 21
-295.3672814363
  0
LINE
  5
4BE
100
AcDbEntity
  8
0
100
AcDbLine
 62
9
  6
CONTINUOUS
 10
1431.4319945891
 20
-393.1259021259
 11
1431.4319945891
 21
-533.2465917811
  0
LINE
  5
4BF
100
AcDbEntity
  8
0
100
AcDbLine
 62
7
  6
CONTINUOUS
 10
1461.4319945891
 20
-284.2465917811
 11
1461.4319945891
 21
-185.2465917811
  0
LINE
  5
4C0
100
AcDbEntity
  8
0
100
AcDbLine
 62
7
  6
CONTINUOUS
 10
1461.4319945891
 20
-404.2465917811
 11
1461.4319945891
 21
-503.2465917811
  0
LINE
  5
4C1
100
AcDbEntity
  8
0
100
AcDbLine
 62
9
  6
CONTINUOUS
 10
1465.4319945891
 20
-254.2465917811
 11
1465.4319945891
 21
-284.2465917811
  0
LINE
  5
4C2
100
AcDbEntity
  8
0
100
AcDbLine
 62
9
  6
CONTINUOUS
 10
1465.4319945891
 20
-404.2465917811
 11
1465.4319945891
 21
-434.2465917811
  0
LINE
  5
4C3
100
AcDbEntity
  8
02___PRT_ALL_AXES
100
AcDbLine
 62
7
  6
CONTINUOUS
 10
1471.4319945891
 20
-254.2465917811
 11
1471.4319945891
 21
-284.2465917811
  0
LINE
  5
4C4
100
AcDbEntity
  8
0
100
AcDbLine
 62
7
  6
CONTINUOUS
 10
1471.4319945891
 20
-284.2465917811
 11
1471.4319945891
 21
-404.2465917811
  0
LINE
  5
4C5
100
AcDbEntity
  8
02___PRT_ALL_AXES
100
AcDbLine
 62
7
  6
CONTINUOUS
 10
1471.4319945891
 20
-404.2465917811
 11
1471.4319945891
 21
-434.2465917811
  0
LINE
  5
4C6
100
AcDbEntity
  8
0
100
AcDbLine
 62
9
  6
CONTINUOUS
 10
1482.4319945891
 20
-284.2465917811
 11
1482.4319945891
 21
-404.2465917811
  0
LINE
  5
4C7
100
AcDbEntity
  8
0
100
AcDbLine
 62
7
  6
CONTINUOUS
 10
1484.4319945891
 20
-286.2465917811
 11
1484.4319945891
 21
-402.2465917811
  0
LINE
  5
4C8
100
AcDbEntity
  8
0
100
AcDbLine
 62
9
  6
CONTINUOUS
 10
1486.4319945891
 20
-293.2465917811
 11
1486.4319945891
 21
-395.2465917811
  0
LINE
  5
4C9
100
AcDbEntity
  8
0
100
AcDbLine
 62
7
  6
CONTINUOUS
 10
1506.4319945891
 20
-293.2465952338
 11
1506.4319945891
 21
-395.2465883285
  0
ARC
  5
4CA
100
AcDbEntity
  8
0
100
AcDbCircle
 62
7
  6
CONTINUOUS
 10
725.9319945891
 20
119.5678522262
 40
20.0
100
AcDbArc
 50
179.999999797
 51
224.999994135
  0
ARC
  5
4CB
100
AcDbEntity
  8
0
100
AcDbCircle
 62
7
  6
CONTINUOUS
 10
734.2162412216
 20
111.2836039511
 40
20.0
100
AcDbArc
 50
224.9999943643
 51
270.0
  0
ARC
  5
4CC
100
AcDbEntity
  8
0
100
AcDbCircle
 62
9
  6
CONTINUOUS
 10
1223.9426484978
 20
-7696.7211099197
 40
7925.7788134199
100
AcDbArc
 50
90.1436292879
 51
90.3730976105
  0
ARC
  5
4CD
100
AcDbEntity
  8
0
100
AcDbCircle
 62
7
  6
CONTINUOUS
 10
1251.4319945891
 20
62.2836039511
 40
30.0
100
AcDbArc
 50
179.9999999417
 51
270.0
  0
ARC
  5
4CE
100
AcDbEntity
  8
0
100
AcDbCircle
 62
7
  6
CONTINUOUS
 10
1205.9319945891
 20
117.2836039511
 40
4.0
100
AcDbArc
 50
0.0
 51
90.0
  0
ARC
  5
4CF
100
AcDbEntity
  8
0
100
AcDbCircle
 62
7
  6
CONTINUOUS
 10
1124.9319945891
 20
124.2836039511
 40
3.0
100
AcDbArc
 50
250.5287793655
 51
270.0
  0
ARC
  5
4D0
100
AcDbEntity
  8
0
100
AcDbCircle
 62
7
  6
CONTINUOUS
 10
1211.9319945891
 20
88.2836039511
 40
2.0
100
AcDbArc
 50
180.0
 51
270.0
  0
ARC
  5
4D1
100
AcDbEntity
  8
0
100
AcDbCircle
 62
7
  6
CONTINUOUS
 10
1136.9319945891
 20
123.2836039511
 40
2.0
100
AcDbArc
 50
270.0
 51
360.0
  0
ARC
  5
4D2
100
AcDbEntity
  8
0
100
AcDbCircle
 62
7
  6
CONTINUOUS
 10
1141.9327170897
 20
134.2836615883
 40
3.0007225011
100
AcDbArc
 50
180.0011005244
 51
189.001436173
  0
ARC
  5
4D3
100
AcDbEntity
  8
0
100
AcDbCircle
 62
7
  6
CONTINUOUS
 10
1141.9319939975
 20
134.2836033595
 40
2.9999994084
100
AcDbArc
 50
179.9999887013
 51
270.0000112987
  0
ARC
  5
4D4
100
AcDbEntity
  8
0
100
AcDbCircle
 62
9
  6
CONTINUOUS
 10
1141.9319945891
 20
213.2836039511
 40
5.0
100
AcDbArc
 50
90.0
 51
180.0
  0
ARC
  5
4D5
100
AcDbEntity
  8
0
100
AcDbCircle
 62
7
  6
CONTINUOUS
 10
1141.9319945891
 20
213.2836039511
 40
3.0
100
AcDbArc
 50
90.0
 51
180.0
  0
ARC
  5
4D6
100
AcDbEntity
  8
0
100
AcDbCircle
 62
9
  6
CONTINUOUS
 10
1212.778472435
 20
144.7997500617
 40
8.8464778462
100
AcDbArc
 50
178.1480263931
 51
180.0004700902
  0
ARC
  5
4D7
100
AcDbEntity
  8
0
100
AcDbCircle
 62
9
  6
CONTINUOUS
 10
1196.9572193806
 20
143.0419149702
 40
8.0075042218
100
AcDbArc
 50
47.614387124
 51
49.5483357646
  0
ARC
  5
4D8
100
AcDbEntity
  8
0
100
AcDbCircle
 62
9
  6
CONTINUOUS
 10
1198.9472593487
 20
145.3140078868
 40
7.9597210103
100
AcDbArc
 50
47.9552407641
 51
49.9000778349
  0
ARC
  5
4D9
100
AcDbEntity
  8
0
100
AcDbCircle
 62
7
  6
CONTINUOUS
 10
1205.9319945891
 20
132.4106206049
 40
4.0
100
AcDbArc
 50
0.0
 51
51.3179876763
  0
ARC
  5
4DA
100
AcDbEntity
  8
0
100
AcDbCircle
 62
7
  6
CONTINUOUS
 10
1210.9319436818
 20
138.6555941481
 40
3.9999490926
100
AcDbArc
 50
180.0
 51
231.3179876942
  0
ARC
  5
4DB
100
AcDbEntity
  8
0
100
AcDbCircle
 62
7
  6
CONTINUOUS
 10
1203.9319945339
 20
134.2836040029
 40
3.0000000693
100
AcDbArc
 50
270.0000004485
 51
359.9999919412
  0
ARC
  5
4DC
100
AcDbEntity
  8
0
100
AcDbCircle
 62
9
  6
CONTINUOUS
 10
1177.6945784807
 20
184.1113919746
 40
10.5581979605
100
AcDbArc
 50
227.2368936971
 51
228.6664716416
  0
ARC
  5
4DD
100
AcDbEntity
  8
0
100
AcDbCircle
 62
7
  6
CONTINUOUS
 10
1203.9319945891
 20
213.2836039511
 40
3.0
100
AcDbArc
 50
0.0
 51
90.0
  0
ARC
  5
4DE
100
AcDbEntity
  8
0
100
AcDbCircle
 62
7
  6
CONTINUOUS
 10
1206.9319945891
 20
213.2836039511
 40
3.0
100
AcDbArc
 50
0.0
 51
90.0
  0
ARC
  5
4DF
100
AcDbEntity
  8
0
100
AcDbCircle
 62
9
  6
CONTINUOUS
 10
1206.5407779712
 20
215.0261578864
 40
1.2591502093
100
AcDbArc
 50
73.0336775363
 51
74.2489304772
  0
ARC
  5
4E0
100
AcDbEntity
  8
0
100
AcDbCircle
 62
7
  6
CONTINUOUS
 10
1431.4319945891
 20
62.2836039511
 40
30.0
100
AcDbArc
 50
270.0
 51
312.6885807019
  0
ARC
  5
4E1
100
AcDbEntity
  8
0
100
AcDbCircle
 62
7
  6
CONTINUOUS
 10
1352.4319945891
 20
36.2836039511
 40
3.0
100
AcDbArc
 50
0.0
 51
90.0
  0
ARC
  5
4E2
100
AcDbEntity
  8
0
100
AcDbCircle
 62
7
  6
CONTINUOUS
 10
1465.4319945891
 20
157.2836039511
 40
4.0
100
AcDbArc
 50
90.0
 51
180.0
  0
ARC
  5
4E3
100
AcDbEntity
  8
0
100
AcDbCircle
 62
7
  6
CONTINUOUS
 10
725.9319945891
 20
322.999355676
 40
20.0
100
AcDbArc
 50
135.000005865
 51
180.000000203
  0
ARC
  5
4E4
100
AcDbEntity
  8
0
100
AcDbCircle
 62
7
  6
CONTINUOUS
 10
734.2162412216
 20
331.2836039511
 40
20.0
100
AcDbArc
 50
90.0
 51
135.0000056357
  0
ARC
  5
4E5
100
AcDbEntity
  8
0
100
AcDbCircle
 62
9
  6
CONTINUOUS
 10
1141.9319945891
 20
229.2836039511
 40
5.0
100
AcDbArc
 50
180.0
 51
270.0
  0
ARC
  5
4E6
100
AcDbEntity
  8
0
100
AcDbCircle
 62
7
  6
CONTINUOUS
 10
1141.9319945891
 20
229.2836039511
 40
3.0
100
AcDbArc
 50
180.0
 51
270.0
  0
ARC
  5
4E7
100
AcDbEntity
  8
0
100
AcDbCircle
 62
7
  6
CONTINUOUS
 10
1141.9327126938
 20
308.2835481799
 40
3.0007181052
100
AcDbArc
 50
170.9985765912
 51
179.9989351027
  0
ARC
  5
4E8
100
AcDbEntity
  8
0
100
AcDbCircle
 62
7
  6
CONTINUOUS
 10
1124.9319945891
 20
318.2836039511
 40
3.0
100
AcDbArc
 50
90.0
 51
109.4712206345
  0
ARC
  5
4E9
100
AcDbEntity
  8
0
100
AcDbCircle
 62
7
  6
CONTINUOUS
 10
1141.9319944592
 20
308.2836040811
 40
2.99999987
100
AcDbArc
 50
89.9999975178
 51
180.0000024822
  0
ARC
  5
4EA
100
AcDbEntity
  8
0
100
AcDbCircle
 62
7
  6
CONTINUOUS
 10
1141.9318557037
 20
308.2849354222
 40
2.9986621882
100
AcDbArc
 50
93.9123904454
 51
99.5825752564
  0
ARC
  5
4EB
100
AcDbEntity
  8
0
100
AcDbCircle
 62
7
  6
CONTINUOUS
 10
1136.9319945891
 20
319.2836039511
 40
2.0
100
AcDbArc
 50
0.0
 51
90.0
  0
ARC
  5
4EC
100
AcDbEntity
  8
0
100
AcDbCircle
 62
9
  6
CONTINUOUS
 10
1177.6892106887
 20
258.4617860492
 40
10.5501700183
100
AcDbArc
 50
131.333052395
 51
132.7636975953
  0
ARC
  5
4ED
100
AcDbEntity
  8
0
100
AcDbCircle
 62
7
  6
CONTINUOUS
 10
1206.9319945891
 20
229.2836039511
 40
3.0
100
AcDbArc
 50
270.0
 51
360.0
  0
ARC
  5
4EE
100
AcDbEntity
  8
0
100
AcDbCircle
 62
7
  6
CONTINUOUS
 10
1203.9319945891
 20
229.2836039511
 40
3.0
100
AcDbArc
 50
270.0
 51
360.0
  0
ARC
  5
4EF
100
AcDbEntity
  8
0
100
AcDbCircle
 62
9
  6
CONTINUOUS
 10
1206.5407779705
 20
227.541050018
 40
1.2591502116
100
AcDbArc
 50
285.7510699031
 51
286.9663224511
  0
ARC
  5
4F0
100
AcDbEntity
  8
0
100
AcDbCircle
 62
9
  6
CONTINUOUS
 10
1212.7641111319
 20
297.7672257788
 40
8.832116548
100
AcDbArc
 50
179.9980237126
 51
181.8534798042
  0
ARC
  5
4F1
100
AcDbEntity
  8
0
100
AcDbCircle
 62
9
  6
CONTINUOUS
 10
1196.9572081548
 20
299.5253056612
 40
8.0075211914
100
AcDbArc
 50
310.4516660215
 51
312.3856108056
  0
ARC
  5
4F2
100
AcDbEntity
  8
0
100
AcDbCircle
 62
9
  6
CONTINUOUS
 10
1198.9472604258
 20
297.2531987794
 40
7.9597193712
100
AcDbArc
 50
310.0999219651
 51
312.0447594365
  0
ARC
  5
4F3
100
AcDbEntity
  8
0
100
AcDbCircle
 62
7
  6
CONTINUOUS
 10
1205.9319945891
 20
310.1565872973
 40
4.0
100
AcDbArc
 50
308.6821874282
 51
360.0
  0
ARC
  5
4F4
100
AcDbEntity
  8
0
100
AcDbCircle
 62
7
  6
CONTINUOUS
 10
1205.9319945891
 20
325.2836039511
 40
4.0
100
AcDbArc
 50
270.0
 51
360.0
  0
ARC
  5
4F5
100
AcDbEntity
  8
0
100
AcDbCircle
 62
7
  6
CONTINUOUS
 10
1210.9319436818
 20
303.9116137541
 40
3.9999490926
100
AcDbArc
 50
128.6820123237
 51
180.0
  0
ARC
  5
4F6
100
AcDbEntity
  8
0
100
AcDbCircle
 62
7
  6
CONTINUOUS
 10
1203.9319980866
 20
308.2836045495
 40
2.9999965026
100
AcDbArc
 50
359.9999885715
 51
89.9999993565
  0
ARC
  5
4F7
100
AcDbEntity
  8
0
100
AcDbCircle
 62
7
  6
CONTINUOUS
 10
1251.4319945891
 20
401.2836039511
 40
30.0
100
AcDbArc
 50
89.9921956921
 51
180.0
  0
ARC
  5
4F8
100
AcDbEntity
  8
0
100
AcDbCircle
 62
7
  6
CONTINUOUS
 10
1237.4319945891
 20
451.2836039511
 40
2.0
100
AcDbArc
 50
90.0
 51
180.0
  0
ARC
  5
4F9
100
AcDbEntity
  8
0
100
AcDbCircle
 62
7
  6
CONTINUOUS
 10
1242.4319945891
 20
455.2836039511
 40
2.0
100
AcDbArc
 50
270.0
 51
360.0
  0
ARC
  5
4FA
100
AcDbEntity
  8
0
100
AcDbCircle
 62
7
  6
CONTINUOUS
 10
1211.9319945891
 20
354.2836039511
 40
2.0
100
AcDbArc
 50
90.0
 51
180.0
  0
ARC
  5
4FB
100
AcDbEntity
  8
0
100
AcDbCircle
 62
7
  6
CONTINUOUS
 10
1465.4319945891
 20
285.2836039511
 40
4.0
100
AcDbArc
 50
180.0
 51
270.0
  0
ARC
  5
4FC
100
AcDbEntity
  8
0
100
AcDbCircle
 62
7
  6
CONTINUOUS
 10
1482.4319945891
 20
313.2836039511
 40
2.0
100
AcDbArc
 50
270.0
 51
360.0
  0
ARC
  5
4FD
100
AcDbEntity
  8
0
100
AcDbCircle
 62
7
  6
CONTINUOUS
 10
1486.4319945891
 20
318.2836039511
 40
2.0
100
AcDbArc
 50
90.0
 51
180.0
  0
ARC
  5
4FE
100
AcDbEntity
  8
0
100
AcDbCircle
 62
9
  6
CONTINUOUS
 10
1328.871869729
 20
434.606418843
 40
3.7956107289
100
AcDbArc
 50
222.3561292734
 51
225.9193115559
  0
ARC
  5
4FF
100
AcDbEntity
  8
0
100
AcDbCircle
 62
7
  6
CONTINUOUS
 10
1353.4319945891
 20
451.2836039511
 40
2.0
100
AcDbArc
 50
0.0
 51
90.0
  0
ARC
  5
500
100
AcDbEntity
  8
0
100
AcDbCircle
 62
7
  6
CONTINUOUS
 10
1348.4319945891
 20
455.2836039511
 40
2.0
100
AcDbArc
 50
180.0
 51
270.0
  0
ARC
  5
501
100
AcDbEntity
  8
0
100
AcDbCircle
 62
7
  6
CONTINUOUS
 10
1482.4319945891
 20
429.2836039511
 40
2.0
100
AcDbArc
 50
0.0
 51
90.0
  0
ARC
  5
502
100
AcDbEntity
  8
0
100
AcDbCircle
 62
7
  6
CONTINUOUS
 10
1486.4319945891
 20
424.2836039511
 40
2.0
100
AcDbArc
 50
180.0
 51
270.0
  0
ARC
  5
503
100
AcDbEntity
  8
0
100
AcDbCircle
 62
9
  6
CONTINUOUS
 10
1223.9426484906
 20
8139.2883162272
 40
7925.7788118252
100
AcDbArc
 50
269.6269023894
 51
269.8563707121
  0
ARC
  5
504
100
AcDbEntity
  8
0
100
AcDbCircle
 62
9
  6
CONTINUOUS
 10
3897.2417278237
 20
-2876.3839182084
 40
4157.7054534077
100
AcDbArc
 50
130.3724238013
 51
130.9435448796
  0
ARC
  5
505
100
AcDbEntity
  8
0
100
AcDbCircle
 62
9
  6
CONTINUOUS
 10
3897.2417225137
 20
3318.9511199278
 40
4157.7054452578
100
AcDbArc
 50
229.0564551198
 51
229.6275761992
  0
ARC
  5
506
100
AcDbEntity
  8
0
100
AcDbCircle
 62
7
  6
CONTINUOUS
 10
211.1840148764
 20
221.2836039511
 40
189.0
100
AcDbArc
 50
180.0
 51
360.0
  0
ARC
  5
507
100
AcDbEntity
  8
0
100
AcDbCircle
 62
9
  6
CONTINUOUS
 10
211.1840148764
 20
221.2836039511
 40
159.0
100
AcDbArc
 50
295.2802965483
 51
360.0
  0
ARC
  5
508
100
AcDbEntity
  8
0
100
AcDbCircle
 62
9
  6
CONTINUOUS
 10
211.1840148764
 20
221.2836039511
 40
159.0
100
AcDbArc
 50
180.0
 51
244.7197033271
  0
ARC
  5
509
100
AcDbEntity
  8
0
100
AcDbCircle
 62
9
  6
CONTINUOUS
 10
146.1840148764
 20
186.2836039511
 40
29.0
100
AcDbArc
 50
180.0
 51
270.0
  0
ARC
  5
50A
100
AcDbEntity
  8
02___PRT_ALL_AXES
100
AcDbCircle
 62
7
  6
CONTINUOUS
 10
146.1840148764
 20
186.2836039511
 40
25.0
100
AcDbArc
 50
180.0
 51
270.0
  0
ARC
  5
50B
100
AcDbEntity
  8
0
100
AcDbCircle
 62
7
  6
CONTINUOUS
 10
30.1840148764
 20
36.2836039511
 40
3.0
100
AcDbArc
 50
90.0
 51
180.0
  0
ARC
  5
50C
100
AcDbEntity
  8
0
100
AcDbCircle
 62
7
  6
CONTINUOUS
 10
211.1840148764
 20
248.2032660171
 40
189.0
100
AcDbArc
 50
0.0
 51
72.9252645838
  0
ARC
  5
50D
100
AcDbEntity
  8
0
100
AcDbCircle
 62
7
  6
CONTINUOUS
 10
211.1840148764
 20
248.2032660171
 40
189.0
100
AcDbArc
 50
107.0743456418
 51
180.0
  0
ARC
  5
50E
100
AcDbEntity
  8
0
100
AcDbCircle
 62
9
  6
CONTINUOUS
 10
211.1840148764
 20
248.2032660171
 40
159.0
100
AcDbArc
 50
0.0
 51
67.8298428365
  0
ARC
  5
50F
100
AcDbEntity
  8
0
100
AcDbCircle
 62
9
  6
CONTINUOUS
 10
211.1840148764
 20
248.2032660171
 40
159.0
100
AcDbArc
 50
112.1701571635
 51
180.0
  0
CIRCLE
  5
510
100
AcDbEntity
  8
0
100
AcDbCircle
 62
9
  6
CONTINUOUS
 10
211.1840148764
 20
371.2836039511
 40
53.0
  0
CIRCLE
  5
511
100
AcDbEntity
  8
0
100
AcDbCircle
 62
7
  6
CONTINUOUS
 10
211.1840148764
 20
371.2836039511
 40
51.0
  0
ARC
  5
512
100
AcDbEntity
  8
0
100
AcDbCircle
 62
2
  6
CONTINUOUS
 10
211.1840148764
 20
371.2836039511
 40
45.5
100
AcDbArc
 50
255.0
 51
195.0
  0
CIRCLE
  5
513
100
AcDbEntity
  8
02___PRT_ALL_AXES
100
AcDbCircle
 62
7
  6
CONTINUOUS
 10
211.1840148764
 20
371.2836039511
 40
44.5
  0
CIRCLE
  5
514
100
AcDbEntity
  8
02___PRT_ALL_AXES
100
AcDbCircle
 62
7
  6
CONTINUOUS
 10
211.1840148764
 20
371.2836039511
 40
42.75
  0
ARC
  5
515
100
AcDbEntity
  8
0
100
AcDbCircle
 62
9
  6
CONTINUOUS
 10
146.1840148764
 20
256.2836039511
 40
29.0
100
AcDbArc
 50
90.0
 51
180.0
  0
ARC
  5
516
100
AcDbEntity
  8
02___PRT_ALL_AXES
100
AcDbCircle
 62
7
  6
CONTINUOUS
 10
146.1840148764
 20
256.2836039511
 40
25.0
100
AcDbArc
 50
90.0
 51
180.0
  0
ARC
  5
517
100
AcDbEntity
  8
0
100
AcDbCircle
 62
9
  6
CONTINUOUS
 10
165.7677317218
 20
417.2977361977
 40
17.9858688216
100
AcDbArc
 50
90.0197468035
 51
105.4075028804
  0
ARC
  5
518
100
AcDbEntity
  8
0
100
AcDbCircle
 62
7
  6
CONTINUOUS
 10
163.1840148764
 20
323.2836039511
 40
12.0
100
AcDbArc
 50
180.0
 51
270.0
  0
ARC
  5
519
100
AcDbEntity
  8
0
100
AcDbCircle
 62
7
  6
CONTINUOUS
 10
163.1840148764
 20
419.2836039511
 40
12.0
100
AcDbArc
 50
90.0
 51
180.0
  0
ARC
  5
51A
100
AcDbEntity
  8
0
100
AcDbCircle
 62
9
  6
CONTINUOUS
 10
163.1840148764
 20
323.2836039511
 40
9.9999999999
100
AcDbArc
 50
180.0
 51
270.0
  0
ARC
  5
51B
100
AcDbEntity
  8
0
100
AcDbCircle
 62
9
  6
CONTINUOUS
 10
163.1840148764
 20
419.2836039511
 40
9.9999999999
100
AcDbArc
 50
90.0
 51
180.0
  0
ARC
  5
51C
100
AcDbEntity
  8
0
100
AcDbCircle
 62
7
  6
CONTINUOUS
 10
82.1842091406
 20
391.7583209378
 40
3.9999338483
100
AcDbArc
 50
336.9216342387
 51
359.9973161166
  0
ARC
  5
51D
100
AcDbEntity
  8
0
100
AcDbCircle
 62
7
  6
CONTINUOUS
 10
82.1842091406
 20
391.7583209378
 40
3.9999338483
100
AcDbArc
 50
311.9393534304
 51
336.3707069555
  0
ARC
  5
51E
100
AcDbEntity
  8
0
100
AcDbCircle
 62
9
  6
CONTINUOUS
 10
276.1840148764
 20
186.2836039511
 40
29.0
100
AcDbArc
 50
270.0
 51
360.0
  0
ARC
  5
51F
100
AcDbEntity
  8
02___PRT_ALL_AXES
100
AcDbCircle
 62
7
  6
CONTINUOUS
 10
276.1840148764
 20
186.2836039511
 40
25.0
100
AcDbArc
 50
270.0
 51
360.0
  0
ARC
  5
520
100
AcDbEntity
  8
0
100
AcDbCircle
 62
7
  6
CONTINUOUS
 10
364.1840148764
 20
36.2836039511
 40
3.0
100
AcDbArc
 50
0.0
 51
90.0
  0
ARC
  5
521
100
AcDbEntity
  8
0
100
AcDbCircle
 62
9
  6
CONTINUOUS
 10
276.1840148764
 20
256.2836039511
 40
29.0
100
AcDbArc
 50
0.0
 51
90.0
  0
ARC
  5
522
100
AcDbEntity
  8
02___PRT_ALL_AXES
100
AcDbCircle
 62
7
  6
CONTINUOUS
 10
276.1840148764
 20
256.2836039511
 40
25.0
100
AcDbArc
 50
0.0
 51
90.0
  0
ARC
  5
523
100
AcDbEntity
  8
0
100
AcDbCircle
 62
7
  6
CONTINUOUS
 10
259.1840148764
 20
323.2836039511
 40
12.0
100
AcDbArc
 50
270.0
 51
360.0
  0
ARC
  5
524
100
AcDbEntity
  8
0
100
AcDbCircle
 62
7
  6
CONTINUOUS
 10
259.1840148764
 20
419.2836039511
 40
12.0
100
AcDbArc
 50
0.0
 51
90.0
  0
ARC
  5
525
100
AcDbEntity
  8
0
100
AcDbCircle
 62
9
  6
CONTINUOUS
 10
259.1840148764
 20
419.2836039511
 40
9.9999999999
100
AcDbArc
 50
0.0
 51
90.0
  0
ARC
  5
526
100
AcDbEntity
  8
0
100
AcDbCircle
 62
9
  6
CONTINUOUS
 10
259.1840148764
 20
323.2836039511
 40
9.9999999999
100
AcDbArc
 50
270.0
 51
360.0
  0
ARC
  5
527
100
AcDbEntity
  8
0
100
AcDbCircle
 62
7
  6
CONTINUOUS
 10
220.1838349858
 20
435.2836039511
 40
3.9999260768
100
AcDbArc
 50
180.0
 51
270.0025767425
  0
ARC
  5
528
100
AcDbEntity
  8
0
100
AcDbCircle
 62
7
  6
CONTINUOUS
 10
293.1840148764
 20
455.2836039511
 40
2.0
100
AcDbArc
 50
270.0000000003
 51
360.0
  0
ARC
  5
529
100
AcDbEntity
  8
0
100
AcDbCircle
 62
7
  6
CONTINUOUS
 10
399.1840148764
 20
455.2836039511
 40
2.0
100
AcDbArc
 50
180.0
 51
269.9999999997
  0
ARC
  5
52A
100
AcDbEntity
  8
0
100
AcDbCircle
 62
7
  6
CONTINUOUS
 10
288.1840148764
 20
451.2836039511
 40
2.0
100
AcDbArc
 50
90.0
 51
180.0
  0
ARC
  5
52B
100
AcDbEntity
  8
0
100
AcDbCircle
 62
7
  6
CONTINUOUS
 10
404.1840148764
 20
451.2836039511
 40
2.0
100
AcDbArc
 50
0.0
 51
90.0
  0
ARC
  5
52C
100
AcDbEntity
  8
0
100
AcDbCircle
 62
9
  6
CONTINUOUS
 10
-3431.4429667804
 20
-2876.3839120174
 40
4157.705445247
100
AcDbArc
 50
49.0564551198
 51
49.6275761992
  0
ARC
  5
52D
100
AcDbEntity
  8
0
100
AcDbCircle
 62
9
  6
CONTINUOUS
 10
-3431.4429720974
 20
3318.9511261106
 40
4157.7054534077
100
AcDbArc
 50
310.3724238013
 51
310.9435448796
  0
ARC
  5
52E
100
AcDbEntity
  8
0
100
AcDbCircle
 62
9
  6
CONTINUOUS
 10
-758.1438927644
 20
-7696.7211083347
 40
7925.7788118349
100
AcDbArc
 50
89.6269023894
 51
89.8563707121
  0
ARC
  5
52F
100
AcDbEntity
  8
0
100
AcDbCircle
 62
7
  6
CONTINUOUS
 10
-965.6332388629
 20
62.2836039511
 40
30.0
100
AcDbArc
 50
227.3114192981
 51
270.0
  0
ARC
  5
530
100
AcDbEntity
  8
0
100
AcDbCircle
 62
7
  6
CONTINUOUS
 10
-886.6332388629
 20
36.2836039511
 40
3.0
100
AcDbArc
 50
90.0
 51
180.0
  0
ARC
  5
531
100
AcDbEntity
  8
0
100
AcDbCircle
 62
7
  6
CONTINUOUS
 10
-999.6332388629
 20
157.2836039511
 40
4.0
100
AcDbArc
 50
0.0
 51
90.0
  0
ARC
  5
532
100
AcDbEntity
  8
0
100
AcDbCircle
 62
7
  6
CONTINUOUS
 10
-785.6332388629
 20
62.2836039511
 40
30.0
100
AcDbArc
 50
270.0
 51
0.0000000583
  0
ARC
  5
533
100
AcDbEntity
  8
0
100
AcDbCircle
 62
7
  6
CONTINUOUS
 10
-740.1332388629
 20
117.2836039511
 40
4.0
100
AcDbArc
 50
90.0
 51
180.0
  0
ARC
  5
534
100
AcDbEntity
  8
0
100
AcDbCircle
 62
7
  6
CONTINUOUS
 10
-659.1332388629
 20
124.2836039511
 40
3.0
100
AcDbArc
 50
270.0
 51
289.4712206345
  0
ARC
  5
535
100
AcDbEntity
  8
0
100
AcDbCircle
 62
7
  6
CONTINUOUS
 10
-746.1332388629
 20
88.2836039511
 40
2.0
100
AcDbArc
 50
270.0
 51
360.0
  0
ARC
  5
536
100
AcDbEntity
  8
0
100
AcDbCircle
 62
7
  6
CONTINUOUS
 10
-671.1332388629
 20
123.2836039511
 40
2.0
100
AcDbArc
 50
180.0
 51
270.0
  0
ARC
  5
537
100
AcDbEntity
  8
0
100
AcDbCircle
 62
9
  6
CONTINUOUS
 10
-711.8904549627
 20
184.1054218533
 40
10.5501700187
100
AcDbArc
 50
311.3330523951
 51
312.7636975953
  0
ARC
  5
538
100
AcDbEntity
  8
0
100
AcDbCircle
 62
9
  6
CONTINUOUS
 10
-746.9653554063
 20
144.7999821234
 40
8.8321165486
100
AcDbArc
 50
359.9980237126
 51
1.8534798041
  0
ARC
  5
539
100
AcDbEntity
  8
0
100
AcDbCircle
 62
9
  6
CONTINUOUS
 10
-731.1584524285
 20
143.0419022409
 40
8.0075211915
100
AcDbArc
 50
130.4516660215
 51
132.3856108056
  0
ARC
  5
53A
100
AcDbEntity
  8
0
100
AcDbCircle
 62
9
  6
CONTINUOUS
 10
-733.1485047002
 20
145.3140091235
 40
7.9597193702
100
AcDbArc
 50
130.099921965
 51
132.0447594366
  0
ARC
  5
53B
100
AcDbEntity
  8
0
100
AcDbCircle
 62
9
  6
CONTINUOUS
 10
-676.1332388629
 20
213.2836039511
 40
5.0
100
AcDbArc
 50
0.0
 51
90.0
  0
ARC
  5
53C
100
AcDbEntity
  8
0
100
AcDbCircle
 62
7
  6
CONTINUOUS
 10
-740.1332388629
 20
132.4106206049
 40
4.0
100
AcDbArc
 50
128.6821874282
 51
180.0
  0
ARC
  5
53D
100
AcDbEntity
  8
0
100
AcDbCircle
 62
7
  6
CONTINUOUS
 10
-745.1331879607
 20
138.6555941506
 40
3.9999490979
100
AcDbArc
 50
308.6820123237
 51
360.0
  0
ARC
  5
53E
100
AcDbEntity
  8
0
100
AcDbCircle
 62
7
  6
CONTINUOUS
 10
-676.1339569676
 20
134.2836597223
 40
3.0007181052
100
AcDbArc
 50
350.9985765911
 51
359.9989351027
  0
ARC
  5
53F
100
AcDbEntity
  8
0
100
AcDbCircle
 62
7
  6
CONTINUOUS
 10
-676.1332388629
 20
213.2836039511
 40
3.0
100
AcDbArc
 50
0.0
 51
90.0
  0
ARC
  5
540
100
AcDbEntity
  8
0
100
AcDbCircle
 62
7
  6
CONTINUOUS
 10
-738.1332388629
 20
213.2836039511
 40
3.0
100
AcDbArc
 50
90.0
 51
180.0
  0
ARC
  5
541
100
AcDbEntity
  8
0
100
AcDbCircle
 62
7
  6
CONTINUOUS
 10
-741.1332388629
 20
213.2836039511
 40
3.0
100
AcDbArc
 50
90.0
 51
180.0
  0
ARC
  5
542
100
AcDbEntity
  8
0
100
AcDbCircle
 62
7
  6
CONTINUOUS
 10
-676.1332387329
 20
134.2836038211
 40
2.99999987
100
AcDbArc
 50
269.9999975178
 51
0.0000024822
  0
ARC
  5
543
100
AcDbEntity
  8
0
100
AcDbCircle
 62
7
  6
CONTINUOUS
 10
-738.1332423603
 20
134.2836033527
 40
2.9999965026
100
AcDbArc
 50
179.9999885715
 51
269.9999993565
  0
ARC
  5
544
100
AcDbEntity
  8
0
100
AcDbCircle
 62
7
  6
CONTINUOUS
 10
-676.1330999775
 20
134.28227248
 40
2.9986621882
100
AcDbArc
 50
273.9123904454
 51
279.5825752563
  0
ARC
  5
545
100
AcDbEntity
  8
0
100
AcDbCircle
 62
9
  6
CONTINUOUS
 10
-740.7420222443
 20
215.0261578844
 40
1.2591502115
100
AcDbArc
 50
105.7510699031
 51
106.9663224513
  0
ARC
  5
546
100
AcDbEntity
  8
0
100
AcDbCircle
 62
7
  6
CONTINUOUS
 10
-260.1332388629
 20
119.5678522262
 40
20.0
100
AcDbArc
 50
315.000005865
 51
0.000000203
  0
ARC
  5
547
100
AcDbEntity
  8
0
100
AcDbCircle
 62
7
  6
CONTINUOUS
 10
-268.4174854954
 20
111.2836039511
 40
20.0
100
AcDbArc
 50
270.0
 51
315.0000056357
  0
ARC
  5
548
100
AcDbEntity
  8
0
100
AcDbCircle
 62
7
  6
CONTINUOUS
 10
-999.6332388629
 20
285.2836039511
 40
4.0
100
AcDbArc
 50
270.0
 51
360.0
  0
ARC
  5
549
100
AcDbEntity
  8
0
100
AcDbCircle
 62
7
  6
CONTINUOUS
 10
-1016.6332388629
 20
313.2836039511
 40
2.0
100
AcDbArc
 50
180.0
 51
270.0
  0
ARC
  5
54A
100
AcDbEntity
  8
0
100
AcDbCircle
 62
7
  6
CONTINUOUS
 10
-1020.6332388629
 20
318.2836039511
 40
2.0
100
AcDbArc
 50
0.0
 51
90.0
  0
ARC
  5
54B
100
AcDbEntity
  8
0
100
AcDbCircle
 62
7
  6
CONTINUOUS
 10
-1016.6332388629
 20
429.2836039511
 40
2.0
100
AcDbArc
 50
90.0
 51
180.0
  0
ARC
  5
54C
100
AcDbEntity
  8
0
100
AcDbCircle
 62
7
  6
CONTINUOUS
 10
-1020.6332388629
 20
424.2836039511
 40
2.0
100
AcDbArc
 50
270.0
 51
360.0
  0
ARC
  5
54D
100
AcDbEntity
  8
0
100
AcDbCircle
 62
7
  6
CONTINUOUS
 10
-887.6332388629
 20
451.2836039511
 40
2.0
100
AcDbArc
 50
90.0
 51
180.0
  0
ARC
  5
54E
100
AcDbEntity
  8
0
100
AcDbCircle
 62
7
  6
CONTINUOUS
 10
-882.6332388629
 20
455.2836039511
 40
2.0
100
AcDbArc
 50
270.0
 51
360.0
  0
ARC
  5
54F
100
AcDbEntity
  8
0
100
AcDbCircle
 62
9
  6
CONTINUOUS
 10
-711.8957977424
 20
258.4558436592
 40
10.5581606185
100
AcDbArc
 50
47.2368911689
 51
48.6664741698
  0
ARC
  5
550
100
AcDbEntity
  8
0
100
AcDbCircle
 62
7
  6
CONTINUOUS
 10
-741.1332388629
 20
229.2836039511
 40
3.0
100
AcDbArc
 50
180.0
 51
270.0
  0
ARC
  5
551
100
AcDbEntity
  8
0
100
AcDbCircle
 62
7
  6
CONTINUOUS
 10
-738.1332388629
 20
229.2836039511
 40
3.0
100
AcDbArc
 50
180.0
 51
270.0
  0
ARC
  5
552
100
AcDbEntity
  8
0
100
AcDbCircle
 62
9
  6
CONTINUOUS
 10
-740.7420222448
 20
227.5410500162
 40
1.2591502098
100
AcDbArc
 50
253.0336775365
 51
254.2489304769
  0
ARC
  5
553
100
AcDbEntity
  8
0
100
AcDbCircle
 62
9
  6
CONTINUOUS
 10
-746.9797167088
 20
297.7674578405
 40
8.8464778462
100
AcDbArc
 50
358.1480263931
 51
0.0004700902
  0
ARC
  5
554
100
AcDbEntity
  8
0
100
AcDbCircle
 62
9
  6
CONTINUOUS
 10
-731.1584597914
 20
299.5252973108
 40
8.0075100601
100
AcDbArc
 50
227.614387829
 51
229.5483350595
  0
ARC
  5
555
100
AcDbEntity
  8
0
100
AcDbCircle
 62
9
  6
CONTINUOUS
 10
-733.1484990981
 20
297.2532052068
 40
7.9597278956
100
AcDbArc
 50
227.9552416054
 51
229.9000769937
  0
ARC
  5
556
100
AcDbEntity
  8
0
100
AcDbCircle
 62
7
  6
CONTINUOUS
 10
-740.1332388629
 20
310.1565872973
 40
4.0
100
AcDbArc
 50
180.0
 51
231.3179876942
  0
ARC
  5
557
100
AcDbEntity
  8
0
100
AcDbCircle
 62
7
  6
CONTINUOUS
 10
-740.1332388629
 20
325.2836039511
 40
4.0
100
AcDbArc
 50
180.0
 51
270.0
  0
ARC
  5
558
100
AcDbEntity
  8
0
100
AcDbCircle
 62
7
  6
CONTINUOUS
 10
-745.1331879555
 20
303.9116137541
 40
3.9999490926
100
AcDbArc
 50
0.0
 51
51.3179876942
  0
ARC
  5
559
100
AcDbEntity
  8
0
100
AcDbCircle
 62
7
  6
CONTINUOUS
 10
-738.1332388077
 20
308.2836038993
 40
3.0000000693
100
AcDbArc
 50
90.0000004485
 51
179.9999919412
  0
ARC
  5
55A
100
AcDbEntity
  8
0
100
AcDbCircle
 62
9
  6
CONTINUOUS
 10
-676.1332388629
 20
229.2836039511
 40
5.0
100
AcDbArc
 50
270.0
 51
360.0
  0
ARC
  5
55B
100
AcDbEntity
  8
0
100
AcDbCircle
 62
7
  6
CONTINUOUS
 10
-676.1332388629
 20
229.2836039511
 40
3.0
100
AcDbArc
 50
270.0
 51
360.0
  0
ARC
  5
55C
100
AcDbEntity
  8
0
100
AcDbCircle
 62
7
  6
CONTINUOUS
 10
-676.1417143831
 20
308.2824402571
 40
3.0085530931
100
AcDbArc
 50
8.9991394989
 51
9.5433290822
  0
ARC
  5
55D
100
AcDbEntity
  8
0
100
AcDbCircle
 62
7
  6
CONTINUOUS
 10
-676.1339613636
 20
308.2835463139
 40
3.0007225012
100
AcDbArc
 50
0.0011005245
 51
9.0014361727
  0
ARC
  5
55E
100
AcDbEntity
  8
0
100
AcDbCircle
 62
7
  6
CONTINUOUS
 10
-676.1333142616
 20
308.2831065454
 40
3.0005013524
100
AcDbArc
 50
80.4122201983
 51
86.0859102689
  0
ARC
  5
55F
100
AcDbEntity
  8
0
100
AcDbCircle
 62
7
  6
CONTINUOUS
 10
-659.1332388629
 20
318.2836039511
 40
3.0
100
AcDbArc
 50
70.5287793655
 51
90.0
  0
ARC
  5
560
100
AcDbEntity
  8
0
100
AcDbCircle
 62
7
  6
CONTINUOUS
 10
-676.1332382713
 20
308.2836045427
 40
2.9999994084
100
AcDbArc
 50
359.9999887013
 51
90.0000112987
  0
ARC
  5
561
100
AcDbEntity
  8
0
100
AcDbCircle
 62
7
  6
CONTINUOUS
 10
-671.1332388629
 20
319.2836039511
 40
2.0
100
AcDbArc
 50
90.0
 51
180.0
  0
ARC
  5
562
100
AcDbEntity
  8
0
100
AcDbCircle
 62
7
  6
CONTINUOUS
 10
-785.6332388629
 20
401.2836039511
 40
30.0
100
AcDbArc
 50
0.0
 51
57.6970645465
  0
ARC
  5
563
100
AcDbEntity
  8
0
100
AcDbCircle
 62
7
  6
CONTINUOUS
 10
-771.6332388629
 20
451.2836039511
 40
2.0
100
AcDbArc
 50
0.0
 51
90.0
  0
ARC
  5
564
100
AcDbEntity
  8
0
100
AcDbCircle
 62
7
  6
CONTINUOUS
 10
-776.6332388629
 20
455.2836039511
 40
2.0
100
AcDbArc
 50
180.0
 51
270.0
  0
ARC
  5
565
100
AcDbEntity
  8
0
100
AcDbCircle
 62
7
  6
CONTINUOUS
 10
-746.1332388629
 20
354.2836039511
 40
2.0
100
AcDbArc
 50
0.0
 51
90.0
  0
ARC
  5
566
100
AcDbEntity
  8
0
100
AcDbCircle
 62
9
  6
CONTINUOUS
 10
-758.1438927713
 20
8139.2883177618
 40
7925.7788133598
100
AcDbArc
 50
270.1436292879
 51
270.3730976105
  0
ARC
  5
567
100
AcDbEntity
  8
0
100
AcDbCircle
 62
7
  6
CONTINUOUS
 10
-260.1332388629
 20
322.999355676
 40
20.0
100
AcDbArc
 50
359.999999797
 51
44.999994135
  0
ARC
  5
568
100
AcDbEntity
  8
0
100
AcDbCircle
 62
7
  6
CONTINUOUS
 10
-268.4174854954
 20
331.2836039511
 40
20.0
100
AcDbArc
 50
44.9999943643
 51
90.0
  0
ARC
  5
569
100
AcDbEntity
  8
0
100
AcDbCircle
 62
7
  6
CONTINUOUS
 10
1878.2933678746
 20
29.2836039511
 40
8.0
100
AcDbArc
 50
270.0
 51
360.0
  0
ARC
  5
56A
100
AcDbEntity
  8
0
100
AcDbCircle
 62
3
  6
CONTINUOUS
 10
1890.2933678746
 20
81.2836039511
 40
8.0
100
AcDbArc
 50
90.0
 51
180.0
  0
ARC
  5
56B
100
AcDbEntity
  8
3_ALL_AXES
100
AcDbCircle
 62
7
  6
CONTINUOUS
 10
1896.8084263107
 20
173.4481749055
 40
5.5
100
AcDbArc
 50
172.2140392775
 51
230.4968713939
  0
ARC
  5
56C
100
AcDbEntity
  8
0
100
AcDbCircle
 62
7
  6
CONTINUOUS
 10
1890.2933678746
 20
81.2836039511
 40
4.0
100
AcDbArc
 50
90.0
 51
180.0
  0
ARC
  5
56D
100
AcDbEntity
  8
0
100
AcDbCircle
 62
3
  6
CONTINUOUS
 10
1878.2933678746
 20
29.2836039511
 40
4.0
100
AcDbArc
 50
270.0
 51
360.0
  0
ARC
  5
56E
100
AcDbEntity
  8
0
100
AcDbCircle
 62
7
  6
CONTINUOUS
 10
1953.2933678746
 20
416.2836039511
 40
15.0
100
AcDbArc
 50
89.9999885881
 51
104.9881673697
  0
ARC
  5
56F
100
AcDbEntity
  8
0
100
AcDbCircle
 62
7
  6
CONTINUOUS
 10
1950.2933678746
 20
419.2836039511
 40
12.0
100
AcDbArc
 50
90.0
 51
127.8499863954
  0
ARC
  5
570
100
AcDbEntity
  8
3_ALL_AXES
100
AcDbCircle
 62
7
  6
CONTINUOUS
 10
1896.8084263107
 20
269.1190329967
 40
5.5
100
AcDbArc
 50
129.3846007652
 51
188.403464439
  0
ARC
  5
571
100
AcDbEntity
  8
0
100
AcDbCircle
 62
7
  6
CONTINUOUS
 10
1916.2933678746
 20
455.2836039511
 40
2.0
100
AcDbArc
 50
180.0
 51
269.9999999997
  0
ARC
  5
572
100
AcDbEntity
  8
0
100
AcDbCircle
 62
7
  6
CONTINUOUS
 10
1810.2933678746
 20
455.2836039511
 40
2.0
100
AcDbArc
 50
270.0000000003
 51
360.0
  0
ARC
  5
573
100
AcDbEntity
  8
0
100
AcDbCircle
 62
7
  6
CONTINUOUS
 10
1921.2933678746
 20
451.2836039511
 40
2.0
100
AcDbArc
 50
0.0
 51
90.0
  0
ARC
  5
574
100
AcDbEntity
  8
0
100
AcDbCircle
 62
7
  6
CONTINUOUS
 10
1805.2933678746
 20
451.2836039511
 40
2.0
100
AcDbArc
 50
90.0
 51
180.0
  0
ARC
  5
575
100
AcDbEntity
  8
0
100
AcDbCircle
 62
7
  6
CONTINUOUS
 10
1998.2933678746
 20
221.2836039511
 40
189.0
100
AcDbArc
 50
233.5513099275
 51
313.9636401824
  0
ARC
  5
576
100
AcDbEntity
  8
0
100
AcDbCircle
 62
7
  6
CONTINUOUS
 10
1998.2933678746
 20
221.2836039511
 40
189.0
100
AcDbArc
 50
319.6627031329
 51
360.0
  0
ARC
  5
577
100
AcDbEntity
  8
0
100
AcDbCircle
 62
7
  6
CONTINUOUS
 10
1998.2933678746
 20
221.2836039511
 40
189.0
100
AcDbArc
 50
180.0
 51
232.1052081002
  0
ARC
  5
578
100
AcDbEntity
  8
0
100
AcDbCircle
 62
9
  6
CONTINUOUS
 10
1998.2933678746
 20
221.2836039511
 40
158.9999998922
100
AcDbArc
 50
180.0
 51
227.4243976258
  0
ARC
  5
579
100
AcDbEntity
  8
0
100
AcDbCircle
 62
9
  6
CONTINUOUS
 10
1998.2933678746
 20
221.2836039511
 40
158.9999998922
100
AcDbArc
 50
238.8055588663
 51
301.1957605989
  0
ARC
  5
57A
100
AcDbEntity
  8
0
100
AcDbCircle
 62
9
  6
CONTINUOUS
 10
1998.2933678746
 20
221.2836039511
 40
158.9999998922
100
AcDbArc
 50
312.5754508464
 51
360.0
  0
ARC
  5
57B
100
AcDbEntity
  8
0
100
AcDbCircle
 62
7
  6
CONTINUOUS
 10
2012.2933678746
 20
221.2836039511
 40
135.0
100
AcDbArc
 50
121.2455795379
 51
240.133964357
  0
ARC
  5
57C
100
AcDbEntity
  8
0
100
AcDbCircle
 62
7
  6
CONTINUOUS
 10
2012.2933678746
 20
221.2836039511
 40
135.0
100
AcDbArc
 50
299.866035643
 51
58.7544204621
  0
ARC
  5
57D
100
AcDbEntity
  8
0
100
AcDbCircle
 62
9
  6
CONTINUOUS
 10
2012.2933678746
 20
221.2836039511
 40
133.0
100
AcDbArc
 50
121.7616627414
 51
241.6280456692
  0
ARC
  5
57E
100
AcDbEntity
  8
0
100
AcDbCircle
 62
9
  6
CONTINUOUS
 10
2012.2933678746
 20
221.2836039511
 40
133.0
100
AcDbArc
 50
298.3719542882
 51
58.2383372421
  0
CIRCLE
  5
57F
100
AcDbEntity
  8
0
100
AcDbCircle
 62
7
  6
CONTINUOUS
 10
2012.2933678746
 20
221.2836039511
 40
130.0
  0
CIRCLE
  5
580
100
AcDbEntity
  8
0
100
AcDbCircle
 62
9
  6
CONTINUOUS
 10
2012.2933678746
 20
221.2836039511
 40
124.142132737
  0
CIRCLE
  5
581
100
AcDbEntity
  8
0
100
AcDbCircle
 62
9
  6
CONTINUOUS
 10
2012.2933678746
 20
221.2836039511
 40
115.8578858013
  0
CIRCLE
  5
582
100
AcDbEntity
  8
0
100
AcDbCircle
 62
9
  6
CONTINUOUS
 10
2012.2933678746
 20
221.2836039511
 40
101.7157515143
  0
ARC
  5
583
100
AcDbEntity
  8
0
100
AcDbCircle
 62
7
  6
CONTINUOUS
 10
2146.2933678746
 20
29.2836039511
 40
8.0
100
AcDbArc
 50
180.0
 51
270.0
  0
ARC
  5
584
100
AcDbEntity
  8
0
100
AcDbCircle
 62
3
  6
CONTINUOUS
 10
2134.2933678746
 20
81.2836039511
 40
8.0
100
AcDbArc
 50
0.0
 51
90.0
  0
ARC
  5
585
100
AcDbEntity
  8
0
100
AcDbCircle
 62
7
  6
CONTINUOUS
 10
2134.2933678746
 20
81.2836039511
 40
4.0
100
AcDbArc
 50
0.0
 51
90.0
  0
ARC
  5
586
100
AcDbEntity
  8
0
100
AcDbCircle
 62
3
  6
CONTINUOUS
 10
2146.2933678746
 20
29.2836039511
 40
4.0
100
AcDbArc
 50
180.0
 51
270.0
  0
ARC
  5
587
100
AcDbEntity
  8
3_ALL_AXES
100
AcDbCircle
 62
7
  6
CONTINUOUS
 10
2127.7783094385
 20
173.4481749055
 40
5.5
100
AcDbArc
 50
309.3846007652
 51
8.4034644597
  0
ARC
  5
588
100
AcDbEntity
  8
0
100
AcDbCircle
 62
7
  6
CONTINUOUS
 10
1998.2933678746
 20
248.2032660171
 40
189.0
100
AcDbArc
 50
104.9882344823
 51
180.0
  0
ARC
  5
589
100
AcDbEntity
  8
0
100
AcDbCircle
 62
7
  6
CONTINUOUS
 10
1998.2933678746
 20
248.2032660171
 40
189.0
100
AcDbArc
 50
0.0
 51
75.0117708442
  0
ARC
  5
58A
100
AcDbEntity
  8
0
100
AcDbCircle
 62
9
  6
CONTINUOUS
 10
1998.2933678746
 20
248.2032660171
 40
159.0
100
AcDbArc
 50
110.6262766595
 51
180.0
  0
ARC
  5
58B
100
AcDbEntity
  8
0
100
AcDbCircle
 62
9
  6
CONTINUOUS
 10
1998.2933678746
 20
248.2032660171
 40
159.0
100
AcDbArc
 50
0.0
 51
58.0799061932
  0
ARC
  5
58C
100
AcDbEntity
  8
0
100
AcDbCircle
 62
9
  6
CONTINUOUS
 10
2043.7096561795
 20
417.2977742219
 40
17.9858307956
100
AcDbArc
 50
74.5924807546
 51
89.9802695615
  0
ARC
  5
58D
100
AcDbEntity
  8
0
100
AcDbCircle
 62
7
  6
CONTINUOUS
 10
2043.2933678746
 20
416.2836039511
 40
15.0
100
AcDbArc
 50
75.0117655177
 51
90.0000114111
  0
ARC
  5
58E
100
AcDbEntity
  8
3_ALL_AXES
100
AcDbCircle
 62
7
  6
CONTINUOUS
 10
2127.7783094385
 20
269.1190329967
 40
5.5
100
AcDbArc
 50
352.2140394306
 51
50.4968713939
  0
ARC
  5
58F
100
AcDbEntity
  8
0
100
AcDbCircle
 62
7
  6
CONTINUOUS
 10
2127.2931736104
 20
391.7583209378
 40
3.9999338483
100
AcDbArc
 50
180.0026838834
 51
203.073001208
  0
ARC
  5
590
100
AcDbEntity
  8
0
100
AcDbCircle
 62
7
  6
CONTINUOUS
 10
2127.2931736104
 20
391.7583209378
 40
3.9999338483
100
AcDbArc
 50
203.6307865349
 51
228.0606465696
  0
ARC
  5
591
100
AcDbEntity
  8
0
100
AcDbCircle
 62
7
  6
CONTINUOUS
 10
1989.2935477652
 20
435.2836039511
 40
3.9999260768
100
AcDbArc
 50
269.9974232575
 51
360.0
  0
ARC
  5
592
100
AcDbEntity
  8
0
100
AcDbCircle
 62
7
  6
CONTINUOUS
 10
734.2162412216
 20
-468.2465917811
 40
20.0
100
AcDbArc
 50
224.9999943197
 51
270.0
  0
ARC
  5
593
100
AcDbEntity
  8
0
100
AcDbCircle
 62
7
  6
CONTINUOUS
 10
725.9319945891
 20
-459.962343506
 40
20.0
100
AcDbArc
 50
180.0
 51
224.9999943197
  0
ARC
  5
594
100
AcDbEntity
  8
0
100
AcDbCircle
 62
3
  6
CONTINUOUS
 10
1040.9319945891
 20
-513.2465917811
 40
15.0
100
AcDbArc
 50
270.0
 51
360.0
  0
ARC
  5
595
100
AcDbEntity
  8
0
100
AcDbCircle
 62
3
  6
CONTINUOUS
 10
850.9319945891
 20
-513.2465917811
 40
15.0
100
AcDbArc
 50
180.0
 51
270.0
  0
ARC
  5
596
100
AcDbEntity
  8
02___PRT_ALL_AXES
100
AcDbCircle
 62
3
  6
CONTINUOUS
 10
1034.9319945891
 20
-510.7465917811
 40
6.0
100
AcDbArc
 50
180.0
 51
360.0
  0
ARC
  5
597
100
AcDbEntity
  8
02___PRT_ALL_AXES
100
AcDbCircle
 62
3
  6
CONTINUOUS
 10
1034.9319945891
 20
-505.7465917811
 40
6.0
100
AcDbArc
 50
0.0
 51
180.0
  0
ARC
  5
598
100
AcDbEntity
  8
02___PRT_ALL_AXES
100
AcDbCircle
 62
3
  6
CONTINUOUS
 10
856.9319945891
 20
-510.7465917811
 40
6.0
100
AcDbArc
 50
180.0
 51
360.0
  0
ARC
  5
599
100
AcDbEntity
  8
02___PRT_ALL_AXES
100
AcDbCircle
 62
3
  6
CONTINUOUS
 10
856.9319945891
 20
-505.7465917811
 40
6.0
100
AcDbArc
 50
0.0
 51
180.0
  0
ARC
  5
59A
100
AcDbEntity
  8
0
100
AcDbCircle
 62
7
  6
CONTINUOUS
 10
1431.4319945891
 20
-503.2465917811
 40
30.0
100
AcDbArc
 50
270.0
 51
360.0
  0
ARC
  5
59B
100
AcDbEntity
  8
0
100
AcDbCircle
 62
7
  6
CONTINUOUS
 10
1251.4319945891
 20
-503.2465917811
 40
30.0
100
AcDbArc
 50
180.0
 51
270.0
  0
ARC
  5
59C
100
AcDbEntity
  8
0
100
AcDbCircle
 62
7
  6
CONTINUOUS
 10
1206.9319945891
 20
-461.2465917811
 40
3.0
100
AcDbArc
 50
0.0
 51
90.0
  0
ARC
  5
59D
100
AcDbEntity
  8
0
100
AcDbCircle
 62
7
  6
CONTINUOUS
 10
1124.9319945891
 20
-455.2465917811
 40
3.0
100
AcDbArc
 50
250.5287793655
 51
270.0
  0
ARC
  5
59E
100
AcDbEntity
  8
0
100
AcDbCircle
 62
7
  6
CONTINUOUS
 10
1211.9319945891
 20
-491.2465917811
 40
2.0
100
AcDbArc
 50
180.0
 51
270.0
  0
ARC
  5
59F
100
AcDbEntity
  8
0
100
AcDbCircle
 62
7
  6
CONTINUOUS
 10
1136.9319945891
 20
-456.2465917811
 40
2.0
100
AcDbArc
 50
270.0
 51
360.0
  0
ARC
  5
5A0
100
AcDbEntity
  8
0
100
AcDbCircle
 62
9
  6
CONTINUOUS
 10
1210.9319945891
 20
-440.8745771289
 40
7.0
100
AcDbArc
 50
180.0
 51
231.3178125465
  0
ARC
  5
5A1
100
AcDbEntity
  8
0
100
AcDbCircle
 62
7
  6
CONTINUOUS
 10
1205.9319945891
 20
-447.1195751273
 40
4.0
100
AcDbArc
 50
0.0
 51
51.3178125719
  0
ARC
  5
5A2
100
AcDbEntity
  8
0
100
AcDbCircle
 62
7
  6
CONTINUOUS
 10
1210.9319945891
 20
-440.8745771195
 40
4.0
100
AcDbArc
 50
180.0000000571
 51
231.3178126055
  0
ARC
  5
5A3
100
AcDbEntity
  8
0
100
AcDbCircle
 62
9
  6
CONTINUOUS
 10
1205.9319945891
 20
-447.1195751273
 40
1.0
100
AcDbArc
 50
0.0
 51
51.3178125465
  0
ARC
  5
5A4
100
AcDbEntity
  8
0
100
AcDbCircle
 62
9
  6
CONTINUOUS
 10
1241.9727427649
 20
-400.893152106
 40
87.4516896824
100
AcDbArc
 50
5.0955886594
 51
7.6532222137
  0
ARC
  5
5A5
100
AcDbEntity
  8
0
100
AcDbCircle
 62
9
  6
CONTINUOUS
 10
1167.1884635186
 20
-408.0703814364
 40
7.9859094114
100
AcDbArc
 50
49.9031399537
 51
89.9906217986
  0
ARC
  5
5A6
100
AcDbEntity
  8
0
100
AcDbCircle
 62
9
  6
CONTINUOUS
 10
1141.9319945891
 20
-401.2465917811
 40
5.0
100
AcDbArc
 50
90.0
 51
180.0
  0
ARC
  5
5A7
100
AcDbEntity
  8
0
100
AcDbCircle
 62
7
  6
CONTINUOUS
 10
1205.9319945891
 20
-402.2465917811
 40
4.0
100
AcDbArc
 50
0.0
 51
90.0
  0
ARC
  5
5A8
100
AcDbEntity
  8
0
100
AcDbCircle
 62
7
  6
CONTINUOUS
 10
1141.9319945891
 20
-401.2465917811
 40
3.0
100
AcDbArc
 50
90.0
 51
180.0
  0
ARC
  5
5A9
100
AcDbEntity
  8
0
100
AcDbCircle
 62
9
  6
CONTINUOUS
 10
1209.5871871394
 20
-396.8545415304
 40
2.6692627896
100
AcDbArc
 50
229.5005707199
 51
238.4838985373
  0
ARC
  5
5AA
100
AcDbEntity
  8
0
100
AcDbCircle
 62
9
  6
CONTINUOUS
 10
1209.5688474531
 20
-396.877064958
 40
2.6402252487
100
AcDbArc
 50
228.7788664407
 51
229.4857727436
  0
ARC
  5
5AB
100
AcDbEntity
  8
0
100
AcDbCircle
 62
9
  6
CONTINUOUS
 10
1209.5660984781
 20
-396.8802925828
 40
2.6359860371
100
AcDbArc
 50
221.4000896358
 51
228.777579749
  0
ARC
  5
5AC
100
AcDbEntity
  8
0
100
AcDbCircle
 62
9
  6
CONTINUOUS
 10
1209.557885845
 20
-396.8879289537
 40
2.6247756437
100
AcDbArc
 50
220.8356643306
 51
221.3936065368
  0
ARC
  5
5AD
100
AcDbEntity
  8
0
100
AcDbCircle
 62
9
  6
CONTINUOUS
 10
1207.6627012001
 20
-399.2834794999
 40
0.5674494643
100
AcDbArc
 50
47.7642369327
 51
51.245436104
  0
ARC
  5
5AE
100
AcDbEntity
  8
0
100
AcDbCircle
 62
7
  6
CONTINUOUS
 10
1465.4319945891
 20
-438.2465917811
 40
4.0
100
AcDbArc
 50
90.0
 51
180.0
  0
ARC
  5
5AF
100
AcDbEntity
  8
0
100
AcDbCircle
 62
9
  6
CONTINUOUS
 10
1348.7197001675
 20
-400.8739877031
 40
87.2791193519
100
AcDbArc
 50
172.3442488584
 51
174.9069402684
  0
ARC
  5
5B0
100
AcDbEntity
  8
0
100
AcDbCircle
 62
7
  6
CONTINUOUS
 10
1486.4319945891
 20
-397.2465917811
 40
2.0
100
AcDbArc
 50
90.0
 51
179.9999999997
  0
ARC
  5
5B1
100
AcDbEntity
  8
0
100
AcDbCircle
 62
7
  6
CONTINUOUS
 10
1482.4319945891
 20
-402.2465917811
 40
2.0
100
AcDbArc
 50
270.0
 51
360.0
  0
ARC
  5
5B2
100
AcDbEntity
  8
0
100
AcDbCircle
 62
7
  6
CONTINUOUS
 10
734.2162412216
 20
-248.2465917811
 40
20.0
100
AcDbArc
 50
90.0
 51
135.0000056803
  0
ARC
  5
5B3
100
AcDbEntity
  8
0
100
AcDbCircle
 62
7
  6
CONTINUOUS
 10
725.9319945891
 20
-256.5308400562
 40
20.0
100
AcDbArc
 50
135.0000056803
 51
180.0
  0
ARC
  5
5B4
100
AcDbEntity
  8
0
100
AcDbCircle
 62
3
  6
CONTINUOUS
 10
1040.9319945891
 20
-203.2465917811
 40
15.0
100
AcDbArc
 50
0.0
 51
90.0
  0
ARC
  5
5B5
100
AcDbEntity
  8
0
100
AcDbCircle
 62
3
  6
CONTINUOUS
 10
850.9319945891
 20
-203.2465917811
 40
15.0
100
AcDbArc
 50
90.0
 51
180.0
  0
ARC
  5
5B6
100
AcDbEntity
  8
02___PRT_ALL_AXES
100
AcDbCircle
 62
3
  6
CONTINUOUS
 10
856.9319945891
 20
-205.7465917811
 40
6.0
100
AcDbArc
 50
0.0
 51
180.0
  0
ARC
  5
5B7
100
AcDbEntity
  8
02___PRT_ALL_AXES
100
AcDbCircle
 62
3
  6
CONTINUOUS
 10
856.9319945891
 20
-210.7465917811
 40
6.0
100
AcDbArc
 50
180.0
 51
360.0
  0
ARC
  5
5B8
100
AcDbEntity
  8
02___PRT_ALL_AXES
100
AcDbCircle
 62
3
  6
CONTINUOUS
 10
1034.9319945891
 20
-205.7465917811
 40
6.0
100
AcDbArc
 50
0.0
 51
180.0
  0
ARC
  5
5B9
100
AcDbEntity
  8
02___PRT_ALL_AXES
100
AcDbCircle
 62
3
  6
CONTINUOUS
 10
1034.9319945891
 20
-210.7465917811
 40
6.0
100
AcDbArc
 50
180.0
 51
360.0
  0
ARC
  5
5BA
100
AcDbEntity
  8
0
100
AcDbCircle
 62
9
  6
CONTINUOUS
 10
1167.1884635483
 20
-308.4228022069
 40
7.9859094111
100
AcDbArc
 50
270.0093779881
 51
310.096860258
  0
ARC
  5
5BB
100
AcDbEntity
  8
0
100
AcDbCircle
 62
9
  6
CONTINUOUS
 10
1210.9319945891
 20
-275.6186064333
 40
7.0
100
AcDbArc
 50
128.6821874535
 51
180.0
  0
CIRCLE
  5
5BC
100
AcDbEntity
  8
3_ALL_AXES
100
AcDbCircle
 62
7
  6
CONTINUOUS
 10
1147.4319945891
 20
-358.2465917811
 40
5.875
  0
ARC
  5
5BD
100
AcDbEntity
  8
0
100
AcDbCircle
 62
9
  6
CONTINUOUS
 10
1141.9319945891
 20
-315.2465917811
 40
5.0
100
AcDbArc
 50
180.0
 51
270.0
  0
ARC
  5
5BE
100
AcDbEntity
  8
0
100
AcDbCircle
 62
7
  6
CONTINUOUS
 10
1205.9319945891
 20
-269.3736084349
 40
4.0
100
AcDbArc
 50
308.6821874281
 51
360.0
  0
ARC
  5
5BF
100
AcDbEntity
  8
0
100
AcDbCircle
 62
7
  6
CONTINUOUS
 10
1205.9319945891
 20
-314.2465917811
 40
4.0
100
AcDbArc
 50
270.0
 51
360.0
  0
ARC
  5
5C0
100
AcDbEntity
  8
0
100
AcDbCircle
 62
7
  6
CONTINUOUS
 10
1210.9319945891
 20
-275.6186064333
 40
4.0
100
AcDbArc
 50
128.6821874788
 51
180.0000000771
  0
CIRCLE
  5
5C1
100
AcDbEntity
  8
3_ALL_AXES
100
AcDbCircle
 62
7
  6
CONTINUOUS
 10
1147.4319945891
 20
-358.2465917811
 40
3.0
  0
ARC
  5
5C2
100
AcDbEntity
  8
0
100
AcDbCircle
 62
7
  6
CONTINUOUS
 10
1141.9319945891
 20
-315.2465917811
 40
3.0
100
AcDbArc
 50
180.0
 51
270.0
  0
ARC
  5
5C3
100
AcDbEntity
  8
0
100
AcDbCircle
 62
7
  6
CONTINUOUS
 10
1124.9319945891
 20
-261.2465917811
 40
3.0
100
AcDbArc
 50
90.0
 51
109.4712206345
  0
ARC
  5
5C4
100
AcDbEntity
  8
0
100
AcDbCircle
 62
9
  6
CONTINUOUS
 10
1209.5803161432
 20
-319.6325258531
 40
2.6604583961
100
AcDbArc
 50
121.4588113029
 51
130.4699096225
  0
ARC
  5
5C5
100
AcDbEntity
  8
0
100
AcDbCircle
 62
9
  6
CONTINUOUS
 10
1209.5626531068
 20
-319.6108037797
 40
2.6324693093
100
AcDbArc
 50
130.4843089497
 51
131.1883229149
  0
ARC
  5
5C6
100
AcDbEntity
  8
0
100
AcDbCircle
 62
9
  6
CONTINUOUS
 10
1209.5605979309
 20
-319.6083327782
 40
2.6292563529
100
AcDbArc
 50
131.1900798185
 51
138.6155755876
  0
ARC
  5
5C7
100
AcDbEntity
  8
0
100
AcDbCircle
 62
9
  6
CONTINUOUS
 10
1209.5530800693
 20
-319.6013331694
 40
2.6189882886
100
AcDbArc
 50
138.6217367009
 51
139.1821758002
  0
ARC
  5
5C8
100
AcDbEntity
  8
0
100
AcDbCircle
 62
7
  6
CONTINUOUS
 10
1486.4319945891
 20
-291.2465917811
 40
2.0
100
AcDbArc
 50
180.0000000003
 51
270.0
  0
ARC
  5
5C9
100
AcDbEntity
  8
0
100
AcDbCircle
 62
7
  6
CONTINUOUS
 10
1482.4319945891
 20
-286.2465917811
 40
2.0
100
AcDbArc
 50
0.0
 51
90.0
  0
ARC
  5
5CA
100
AcDbEntity
  8
0
100
AcDbCircle
 62
7
  6
CONTINUOUS
 10
1136.9319945891
 20
-260.2465917811
 40
2.0
100
AcDbArc
 50
0.0
 51
90.0
  0
ARC
  5
5CB
100
AcDbEntity
  8
0
100
AcDbCircle
 62
9
  6
CONTINUOUS
 10
1205.9319945891
 20
-269.3736084349
 40
1.0
100
AcDbArc
 50
308.6821874535
 51
360.0
  0
ARC
  5
5CC
100
AcDbEntity
  8
0
100
AcDbCircle
 62
9
  6
CONTINUOUS
 10
1207.6672604922
 20
-317.2146845183
 40
0.5607645242
100
AcDbArc
 50
309.0171425934
 51
312.2939938134
  0
CIRCLE
  5
5CD
100
AcDbEntity
  8
0
100
AcDbCircle
 62
9
  6
CONTINUOUS
 10
1295.4319945891
 20
-209.2465917811
 40
53.0
  0
CIRCLE
  5
5CE
100
AcDbEntity
  8
0
100
AcDbCircle
 62
7
  6
CONTINUOUS
 10
1295.4319945891
 20
-209.2465917811
 40
51.0
  0
ARC
  5
5CF
100
AcDbEntity
  8
0
100
AcDbCircle
 62
2
  6
CONTINUOUS
 10
1295.4319945891
 20
-209.2465917811
 40
45.5
100
AcDbArc
 50
255.0
 51
195.0
  0
CIRCLE
  5
5D0
100
AcDbEntity
  8
02___PRT_ALL_AXES
100
AcDbCircle
 62
7
  6
CONTINUOUS
 10
1295.4319945891
 20
-209.2465917811
 40
44.5
  0
CIRCLE
  5
5D1
100
AcDbEntity
  8
02___PRT_ALL_AXES
100
AcDbCircle
 62
7
  6
CONTINUOUS
 10
1295.4319945891
 20
-209.2465917811
 40
42.75
  0
ARC
  5
5D2
100
AcDbEntity
  8
0
100
AcDbCircle
 62
7
  6
CONTINUOUS
 10
1431.4319945891
 20
-185.2465917811
 40
30.0
100
AcDbArc
 50
0.0
 51
90.0
  0
ARC
  5
5D3
100
AcDbEntity
  8
0
100
AcDbCircle
 62
7
  6
CONTINUOUS
 10
1251.4319945891
 20
-185.2465917811
 40
30.0
100
AcDbArc
 50
122.3229429424
 51
180.0
  0
ARC
  5
5D4
100
AcDbEntity
  8
0
100
AcDbCircle
 62
7
  6
CONTINUOUS
 10
1343.4319945891
 20
-257.2465917811
 40
12.0
100
AcDbArc
 50
270.0
 51
360.0
  0
ARC
  5
5D5
100
AcDbEntity
  8
0
100
AcDbCircle
 62
7
  6
CONTINUOUS
 10
1343.4319945891
 20
-161.2465917811
 40
12.0
100
AcDbArc
 50
0.0
 51
90.0
  0
ARC
  5
5D6
100
AcDbEntity
  8
0
100
AcDbCircle
 62
7
  6
CONTINUOUS
 10
1247.4319945891
 20
-161.2465917811
 40
12.0
100
AcDbArc
 50
90.0
 51
180.0
  0
ARC
  5
5D7
100
AcDbEntity
  8
0
100
AcDbCircle
 62
7
  6
CONTINUOUS
 10
1247.4319945891
 20
-257.2465917811
 40
12.0
100
AcDbArc
 50
180.0
 51
270.0
  0
ARC
  5
5D8
100
AcDbEntity
  8
0
100
AcDbCircle
 62
9
  6
CONTINUOUS
 10
1343.4319945891
 20
-257.2465917811
 40
9.9999999999
100
AcDbArc
 50
270.0
 51
360.0
  0
ARC
  5
5D9
100
AcDbEntity
  8
0
100
AcDbCircle
 62
9
  6
CONTINUOUS
 10
1247.4319945891
 20
-257.2465917811
 40
9.9999999999
100
AcDbArc
 50
180.0
 51
270.0
  0
ARC
  5
5DA
100
AcDbEntity
  8
0
100
AcDbCircle
 62
9
  6
CONTINUOUS
 10
1247.4319945891
 20
-161.2465917811
 40
9.9999999999
100
AcDbArc
 50
90.0
 51
180.0
  0
ARC
  5
5DB
100
AcDbEntity
  8
0
100
AcDbCircle
 62
9
  6
CONTINUOUS
 10
1343.4319945891
 20
-161.2465917811
 40
9.9999999999
100
AcDbArc
 50
0.0
 51
90.0
  0
ARC
  5
5DC
100
AcDbEntity
  8
0
100
AcDbCircle
 62
7
  6
CONTINUOUS
 10
1465.4319945891
 20
-250.2465917811
 40
4.0
100
AcDbArc
 50
180.0
 51
270.0
  0
ARC
  5
5DD
100
AcDbEntity
  8
0
100
AcDbCircle
 62
7
  6
CONTINUOUS
 10
1206.9319945891
 20
-255.2465917811
 40
3.0
100
AcDbArc
 50
270.0
 51
360.0
  0
ARC
  5
5DE
100
AcDbEntity
  8
0
100
AcDbCircle
 62
7
  6
CONTINUOUS
 10
1211.9319945891
 20
-225.2465917811
 40
2.0
100
AcDbArc
 50
90.0
 51
180.0
  0
ARC
  5
5DF
100
AcDbEntity
  8
0
100
AcDbCircle
 62
9
  6
CONTINUOUS
 10
8468.7996387932
 20
-8902.6423615074
 40
11269.1651634245
100
AcDbArc
 50
130.1398246213
 51
130.3512626273
  0
ARC
  5
5E0
100
AcDbEntity
  8
0
100
AcDbCircle
 62
9
  6
CONTINUOUS
 10
7620.7475821677
 20
-7894.9924772059
 40
9955.1319794086
100
AcDbArc
 50
130.1471621004
 51
130.3865844811
  0
ARC
  5
5E1
100
AcDbEntity
  8
0
100
AcDbCircle
 62
9
  6
CONTINUOUS
 10
8468.7996401542
 20
8186.1491795531
 40
11269.165165531
100
AcDbArc
 50
229.6487373727
 51
229.8601753787
  0
ARC
  5
5E2
100
AcDbEntity
  8
0
100
AcDbCircle
 62
9
  6
CONTINUOUS
 10
7620.7475834417
 20
7178.4992951477
 40
9955.1319813797
100
AcDbArc
 50
229.6134155189
 51
229.8528378996
  0
SPLINE
  5
5E3
100
AcDbEntity
  8
0
100
AcDbSpline
 62
9
  6
CONTINUOUS
 70
0
 71
3
 72
11
 73
7
 74
0
 42
0.0000001
 43
0.0000001
 44
0.0000000001
 40
0.0
 40
0.0
 40
0.0
 40
0.0
 40
0.25010499
 40
0.5001155131
 40
0.750066086
 40
1.0
 40
1.0
 40
1.0
 40
1.0
 10
1204.2779716199
 20
291.3421370615
 30
0.0
 10
1204.6940120094
 20
291.7171611364
 30
0.0
 10
1205.4493122641
 20
292.5573175375
 30
0.0
 10
1206.2931846433
 20
294.0234981545
 30
0.0
 10
1206.8145502828
 20
295.6323912359
 30
0.0
 10
1206.9319957008
 20
296.7553819045
 30
0.0
 10
1206.9319945891
 20
297.3151172103
 30
0.0
  0
SPLINE
  5
5E4
100
AcDbEntity
  8
0
100
AcDbSpline
 62
9
  6
CONTINUOUS
 70
0
 71
3
 72
18
 73
14
 74
0
 42
0.0000001
 43
0.0000001
 44
0.0000000001
 40
0.0
 40
0.0
 40
0.0
 40
0.0
 40
0.2211891953
 40
0.4185471354
 40
0.5897315298
 40
0.732782403
 40
0.8460628906
 40
0.9283603823
 40
0.957663703
 40
0.9790629538
 40
0.9868557248
 40
0.9927982091
 40
1.0
 40
1.0
 40
1.0
 40
1.0
 10
1204.0742954666
 20
213.5344074482
 30
0.0
 10
1204.2866575765
 20
213.5267325776
 30
0.0
 10
1204.6884518402
 20
213.5107673434
 30
0.0
 10
1205.2543553532
 20
213.4831536078
 30
0.0
 10
1205.7449722569
 20
213.4535629488
 30
0.0
 10
1206.1545609661
 20
213.4226802765
 30
0.0
 10
1206.4783409753
 20
213.3907141113
 30
0.0
 10
1206.6926059689
 20
213.3623555136
 30
0.0
 10
1206.8180481239
 20
213.3372725034
 30
0.0
 10
1206.8722695671
 20
213.3228783543
 30
0.0
 10
1206.9039465093
 20
213.3101382253
 30
0.0
 10
1206.9211128984
 20
213.3010569293
 30
0.0
 10
1206.9319917603
 20
213.2905228507
 30
0.0
 10
1206.9319945891
 20
213.2836039511
 30
0.0
  0
SPLINE
  5
5E5
100
AcDbEntity
  8
0
100
AcDbSpline
 62
9
  6
CONTINUOUS
 70
0
 71
3
 72
11
 73
7
 74
0
 42
0.0000001
 43
0.0000001
 44
0.0000000001
 40
0.0
 40
0.0
 40
0.0
 40
0.0
 40
0.2499339307
 40
0.4998844931
 40
0.7498950141
 40
1.0
 40
1.0
 40
1.0
 40
1.0
 10
1206.9319945891
 20
145.2520906919
 30
0.0
 10
1206.9319948794
 20
145.811826037
 30
0.0
 10
1206.8145507143
 20
146.9348167303
 30
0.0
 10
1206.2931845394
 20
148.5437098163
 30
0.0
 10
1205.4493123048
 20
150.0098903946
 30
0.0
 10
1204.6940120352
 20
150.8500468053
 30
0.0
 10
1204.2779716199
 20
151.2250708407
 30
0.0
  0
LINE
  5
5E6
100
AcDbEntity
  8
0
100
AcDbLine
 62
9
  6
CONTINUOUS
 10
1208.4319945926
 20
291.2836039519
 11
1208.4319945924
 21
307.0340882901
  0
LINE
  5
5E7
100
AcDbEntity
  8
0
100
AcDbLine
 62
9
  6
CONTINUOUS
 10
1208.4319945926
 20
135.5331196124
 11
1208.4319945925
 21
151.2836039511
  0
LINE
  5
5E8
100
AcDbEntity
  8
0
100
AcDbLine
 62
9
  6
CONTINUOUS
 10
1172.3320715276
 20
263.8993050475
 11
1172.634669463
 21
264.1623742107
  0
LINE
  5
5E9
100
AcDbEntity
  8
0
100
AcDbLine
 62
9
  6
CONTINUOUS
 10
1172.634669463
 20
178.4048336915
 11
1172.3320715276
 21
178.6679028665
  0
SPLINE
  5
5EA
100
AcDbEntity
  8
0
100
AcDbSpline
 62
9
  6
CONTINUOUS
 70
0
 71
3
 72
11
 73
7
 74
0
 42
0.0000001
 43
0.0000001
 44
0.0000000001
 40
0.0
 40
0.0
 40
0.0
 40
0.0
 40
0.2518297471
 40
0.5014044018
 40
0.7501893398
 40
1.0
 40
1.0
 40
1.0
 40
1.0
 10
1205.9319945891
 20
129.5899867111
 30
0.0
 10
1206.1981093739
 20
129.7244956167
 30
0.0
 10
1206.6864023316
 20
130.0798538395
 30
0.0
 10
1207.250944508
 20
130.7745724925
 30
0.0
 10
1207.664355177
 20
131.5632571608
 30
0.0
 10
1207.8533802549
 20
132.1248806215
 30
0.0
 10
1207.9298158789
 20
132.4106206049
 30
0.0
  0
SPLINE
  5
5EB
100
AcDbEntity
  8
0
100
AcDbSpline
 62
9
  6
CONTINUOUS
 70
0
 71
3
 72
11
 73
7
 74
0
 42
0.0000001
 43
0.0000001
 44
0.0000000001
 40
0.0
 40
0.0
 40
0.0
 40
0.0
 40
0.2499922568
 40
0.4999916916
 40
0.7499953028
 40
1.0
 40
1.0
 40
1.0
 40
1.0
 10
1202.3552136093
 20
293.6107530371
 30
0.0
 10
1202.6149473578
 20
293.8575525946
 30
0.0
 10
1203.0829048852
 20
294.4086673965
 30
0.0
 10
1203.5944160052
 20
295.3627988711
 30
0.0
 10
1203.8958390947
 20
296.4025304736
 30
0.0
 10
1203.9482170851
 20
297.1234427555
 30
0.0
 10
1203.9366154924
 20
297.4815625978
 30
0.0
  0
SPLINE
  5
5EC
100
AcDbEntity
  8
0
100
AcDbSpline
 62
9
  6
CONTINUOUS
 70
0
 71
3
 72
10
 73
6
 74
0
 42
0.0000001
 43
0.0000001
 44
0.0000000001
 40
0.0
 40
0.0
 40
0.0
 40
0.0
 40
0.2499999497
 40
0.5000000093
 40
1.0
 40
1.0
 40
1.0
 40
1.0
 10
1170.7215097624
 20
266.3837322253
 30
0.0
 10
1173.3243477671
 20
268.6567101604
 30
0.0
 10
1178.5428501657
 20
273.1879863468
 30
0.0
 10
1189.0138529559
 20
282.2111636805
 30
0.0
 10
1196.8934043311
 20
288.9479489685
 30
0.0
 10
1202.152538741
 20
293.4319538963
 30
0.0
  0
SPLINE
  5
5ED
100
AcDbEntity
  8
0
100
AcDbSpline
 62
9
  6
CONTINUOUS
 70
0
 71
3
 72
11
 73
7
 74
0
 42
0.0000001
 43
0.0000001
 44
0.0000000001
 40
0.0
 40
0.0
 40
0.0
 40
0.0
 40
0.249986353
 40
0.4999790986
 40
0.7499828792
 40
1.0
 40
1.0
 40
1.0
 40
1.0
 10
1167.1897706501
 20
264.8869295123
 30
0.0
 10
1167.4953763369
 20
264.8869294025
 30
0.0
 10
1168.1081710807
 20
264.9454454326
 30
0.0
 10
1168.9930314844
 20
265.2048841194
 30
0.0
 10
1169.8140805118
 20
265.6243526554
 30
0.0
 10
1170.3015089869
 20
265.9997715141
 30
0.0
 10
1170.5258955043
 20
266.207301073
 30
0.0
  0
SPLINE
  5
5EE
100
AcDbEntity
  8
0
100
AcDbSpline
 62
9
  6
CONTINUOUS
 70
0
 71
3
 72
15
 73
11
 74
0
 42
0.0000001
 43
0.0000001
 44
0.0000000001
 40
0.0
 40
0.0
 40
0.0
 40
0.0
 40
0.125006382
 40
0.2500346131
 40
0.3750465783
 40
0.5000554918
 40
0.6250754523
 40
0.7500595886
 40
0.875032936
 40
1.0
 40
1.0
 40
1.0
 40
1.0
 10
1141.8831339566
 20
266.4686693232
 30
0.0
 10
1141.8499621634
 20
266.3822837497
 30
0.0
 10
1141.8037553932
 20
266.2009364116
 30
0.0
 10
1141.8010534964
 20
265.9207405611
 30
0.0
 10
1141.8642674995
 20
265.6478614075
 30
0.0
 10
1141.9872963278
 20
265.3961488189
 30
0.0
 10
1142.1673659861
 20
265.1812816644
 30
0.0
 10
1142.3935118783
 20
265.0155432898
 30
0.0
 10
1142.6536190214
 20
264.910858621
 30
0.0
 10
1142.8394881055
 20
264.8869299401
 30
0.0
 10
1142.9319945891
 20
264.8869295123
 30
0.0
  0
SPLINE
  5
5EF
100
AcDbEntity
  8
0
100
AcDbSpline
 62
9
  6
CONTINUOUS
 70
0
 71
3
 72
11
 73
7
 74
0
 42
0.0000001
 43
0.0000001
 44
0.0000000001
 40
0.0
 40
0.0
 40
0.0
 40
0.0
 40
0.2498447431
 40
0.4986303534
 40
0.7481823148
 40
1.0
 40
1.0
 40
1.0
 40
1.0
 10
1207.929816026
 20
310.1565872973
 30
0.0
 10
1207.8539757615
 20
310.4426400409
 30
0.0
 10
1207.6659437895
 20
311.0048939652
 30
0.0
 10
1207.2531282566
 20
311.7943446817
 30
0.0
 10
1206.6879394766
 20
312.4890709857
 30
0.0
 10
1206.1985686577
 20
312.8434126374
 30
0.0
 10
1205.9319945891
 20
312.9772214308
 30
0.0
  0
SPLINE
  5
5F0
100
AcDbEntity
  8
0
100
AcDbSpline
 62
9
  6
CONTINUOUS
 70
0
 71
3
 72
9
 73
5
 74
0
 42
0.0000001
 43
0.0000001
 44
0.0000000001
 40
0.0
 40
0.0
 40
0.0
 40
0.0
 40
0.4996362299
 40
1.0
 40
1.0
 40
1.0
 40
1.0
 10
1141.9319945891
 20
266.6956067697
 30
0.0
 10
1141.9319951024
 20
266.6567746274
 30
0.0
 10
1141.921957969
 20
266.5788593232
 30
0.0
 10
1141.8970592254
 20
266.5049793341
 30
0.0
 10
1141.8831339566
 20
266.4686693232
 30
0.0
  0
SPLINE
  5
5F1
100
AcDbEntity
  8
0
100
AcDbSpline
 62
9
  6
CONTINUOUS
 70
0
 71
3
 72
26
 73
22
 74
0
 42
0.0000001
 43
0.0000001
 44
0.0000000001
 40
0.0
 40
0.0
 40
0.0
 40
0.0
 40
0.000262404
 40
0.0010504725
 40
0.0023654235
 40
0.0042082119
 40
0.0094803035
 40
0.0168706783
 40
0.0263800533
 40
0.0380059255
 40
0.0517425554
 40
0.0675809665
 40
0.1055109984
 40
0.1516598511
 40
0.20584038
 40
0.2678153495
 40
0.3372984684
 40
0.4139554088
 40
0.5872180932
 40
0.7840043199
 40
1.0
 40
1.0
 40
1.0
 40
1.0
 10
1208.4319850449
 20
307.0340806566
 30
0.0
 10
1208.4318091332
 20
307.0341158465
 30
0.0
 10
1208.4320080941
 20
307.0351623359
 30
0.0
 10
1208.4313613307
 20
307.0364170371
 30
0.0
 10
1208.4310263422
 20
307.0392514115
 30
0.0
 10
1208.4298111348
 20
307.0447939864
 30
0.0
 10
1208.4280407641
 20
307.0546209762
 30
0.0
 10
1208.4252326193
 20
307.0694832734
 30
0.0
 10
1208.4217754553
 20
307.0886896883
 30
0.0
 10
1208.4176263567
 20
307.112161902
 30
0.0
 10
1208.4128504392
 20
307.1399235037
 30
0.0
 10
1208.4052082103
 20
307.1854367617
 30
0.0
 10
1208.3943215682
 20
307.2528750512
 30
0.0
 10
1208.3799529703
 20
307.3463006179
 30
0.0
 10
1208.3638755219
 20
307.4560928567
 30
0.0
 10
1208.3463658108
 20
307.5817951977
 30
0.0
 10
1208.3277082657
 20
307.722849179
 30
0.0
 10
1208.300566653
 20
307.9395224344
 30
0.0
 10
1208.2658838032
 20
308.2429562972
 30
0.0
 10
1208.2262007736
 20
308.6416598188
 30
0.0
 10
1208.202796294
 20
308.9229102206
 30
0.0
 10
1208.1918616308
 20
309.0701739469
 30
0.0
  0
SPLINE
  5
5F2
100
AcDbEntity
  8
0
100
AcDbSpline
 62
9
  6
CONTINUOUS
 70
0
 71
3
 72
9
 73
5
 74
0
 42
0.0000001
 43
0.0000001
 44
0.0000000001
 40
0.0
 40
0.0
 40
0.0
 40
0.0
 40
0.2457070417
 40
1.0
 40
1.0
 40
1.0
 40
1.0
 10
1208.1918616308
 20
309.0701739469
 30
0.0
 10
1208.1850667292
 20
309.1616872678
 30
0.0
 10
1208.1438574761
 20
309.5328464142
 30
0.0
 10
1208.0431914188
 20
309.8986998479
 30
0.0
 10
1207.9298160167
 20
310.1565873196
 30
0.0
  0
SPLINE
  5
5F3
100
AcDbEntity
  8
0
100
AcDbSpline
 62
9
  6
CONTINUOUS
 70
0
 71
3
 72
26
 73
22
 74
0
 42
0.0000001
 43
0.0000001
 44
0.0000000001
 40
0.0
 40
0.0
 40
0.0
 40
0.0
 40
0.2158186368
 40
0.4124940168
 40
0.5857231352
 40
0.6623897961
 40
0.7318971924
 40
0.7939078478
 40
0.8481319189
 40
0.8943283627
 40
0.9323060897
 40
0.9481671377
 40
0.9619249371
 40
0.9735700186
 40
0.9830961566
 40
0.9905003691
 40
0.9957829041
 40
0.9976294971
 40
0.998947234
 40
0.9997370134
 40
1.0
 40
1.0
 40
1.0
 40
1.0
 10
1208.1918615223
 20
133.497034023
 30
0.0
 10
1208.2032465296
 20
133.6441347165
 30
0.0
 10
1208.2273180052
 20
133.9251143604
 30
0.0
 10
1208.2674520078
 20
134.3235293765
 30
0.0
 10
1208.3021549624
 20
134.6268510729
 30
0.0
 10
1208.3291544843
 20
134.843531033
 30
0.0
 10
1208.3476603521
 20
134.9846456153
 30
0.0
 10
1208.3649831093
 20
135.110438668
 30
0.0
 10
1208.3808537592
 20
135.2203427923
 30
0.0
 10
1208.3950102765
 20
135.3138917875
 30
0.0
 10
1208.4057176461
 20
135.3814367962
 30
0.0
 10
1208.4132249097
 20
135.4270335443
 30
0.0
 10
1208.4179133561
 20
135.4548522391
 30
0.0
 10
1208.4219838328
 20
135.4783767547
 30
0.0
 10
1208.4253728295
 20
135.4976285322
 30
0.0
 10
1208.4281250603
 20
135.5125299089
 30
0.0
 10
1208.4298566074
 20
135.5223810117
 30
0.0
 10
1208.4310485823
 20
135.5279425804
 30
0.0
 10
1208.4313719075
 20
135.5307800183
 30
0.0
 10
1208.4320124888
 20
135.5320479366
 30
0.0
 10
1208.4318096062
 20
135.5330879442
 30
0.0
 10
1208.431985044
 20
135.5331272463
 30
0.0
  0
SPLINE
  5
5F4
100
AcDbEntity
  8
0
100
AcDbSpline
 62
9
  6
CONTINUOUS
 70
0
 71
3
 72
9
 73
5
 74
0
 42
0.0000001
 43
0.0000001
 44
0.0000000001
 40
0.0
 40
0.0
 40
0.0
 40
0.0
 40
0.2545525327
 40
1.0
 40
1.0
 40
1.0
 40
1.0
 10
1207.9298158723
 20
132.4106205892
 30
0.0
 10
1207.9683793702
 20
132.4975535307
 30
0.0
 10
1208.1021324146
 20
132.8469217836
 30
0.0
 10
1208.1703712316
 20
133.2193604062
 30
0.0
 10
1208.1918615223
 20
133.497034023
 30
0.0
  0
SPLINE
  5
5F5
100
AcDbEntity
  8
0
100
AcDbSpline
 62
9
  6
CONTINUOUS
 70
0
 71
3
 72
17
 73
13
 74
0
 42
0.0000001
 43
0.0000001
 44
0.0000000001
 40
0.0
 40
0.0
 40
0.0
 40
0.0
 40
0.069366526
 40
0.1375361153
 40
0.2040343917
 40
0.2689775419
 40
0.3951913977
 40
0.5184692822
 40
0.6400027041
 40
0.7604906685
 40
0.88038269
 40
1.0
 40
1.0
 40
1.0
 40
1.0
 10
1141.9319945891
 20
313.2836039511
 30
0.0
 10
1141.7845879788
 20
313.2836114814
 30
0.0
 10
1141.4911383807
 20
313.2469532922
 30
0.0
 10
1141.0819140839
 20
313.0943438784
 30
0.0
 10
1140.718966694
 20
312.8704687852
 30
0.0
 10
1140.3030547019
 20
312.5117240308
 30
0.0
 10
1139.8851963006
 20
311.9828605479
 30
0.0
 10
1139.5129180351
 20
311.2847250583
 30
0.0
 10
1139.2439246299
 20
310.5543804567
 30
0.0
 10
1139.0613531303
 20
309.8058229044
 30
0.0
 10
1138.9552239653
 20
309.0470747374
 30
0.0
 10
1138.9320065232
 20
308.5377954641
 30
0.0
 10
1138.9319945891
 20
308.2836039511
 30
0.0
  0
SPLINE
  5
5F6
100
AcDbEntity
  8
0
100
AcDbSpline
 62
9
  6
CONTINUOUS
 70
0
 71
3
 72
15
 73
11
 74
0
 42
0.0000001
 43
0.0000001
 44
0.0000000001
 40
0.0
 40
0.0
 40
0.0
 40
0.0
 40
0.1264284906
 40
0.2526386529
 40
0.3784454449
 40
0.503725861
 40
0.6284362689
 40
0.7526238941
 40
0.876414318
 40
1.0
 40
1.0
 40
1.0
 40
1.0
 10
1142.9319945891
 20
180.5552229324
 30
0.0
 10
1142.6703496847
 20
180.5552230548
 30
0.0
 10
1142.1461143996
 20
180.5046903596
 30
0.0
 10
1141.390935585
 20
180.280163449
 30
0.0
 10
1140.6948078335
 20
179.9156359214
 30
0.0
 10
1140.0848601819
 20
179.4251805116
 30
0.0
 10
1139.5843568183
 20
178.8277409987
 30
0.0
 10
1139.2125149065
 20
178.1461481398
 30
0.0
 10
1138.9835423669
 20
177.4069566637
 30
0.0
 10
1138.931995518
 20
176.8935371648
 30
0.0
 10
1138.9319945891
 20
176.6377754786
 30
0.0
  0
SPLINE
  5
5F7
100
AcDbEntity
  8
0
100
AcDbSpline
 62
9
  6
CONTINUOUS
 70
0
 71
3
 72
19
 73
15
 74
0
 42
0.0000001
 43
0.0000001
 44
0.0000000001
 40
0.0
 40
0.0
 40
0.0
 40
0.0
 40
0.0090305996
 40
0.0159561434
 40
0.0249171024
 40
0.0493289352
 40
0.0825321479
 40
0.1243939994
 40
0.1745789897
 40
0.2980882706
 40
0.4485028555
 40
0.6201073757
 40
0.8063261773
 40
1.0
 40
1.0
 40
1.0
 40
1.0
 10
1205.1080121566
 20
131.5237157865
 30
0.0
 10
1205.1138810114
 20
131.5262165677
 30
0.0
 10
1205.1265625448
 20
131.5222089206
 30
0.0
 10
1205.1399412052
 20
131.5113667778
 30
0.0
 10
1205.159932472
 20
131.4907531458
 30
0.0
 10
1205.1872585005
 20
131.4524168245
 30
0.0
 10
1205.2236385479
 20
131.3922308968
 30
0.0
 10
1205.2652907751
 20
131.3141405423
 30
0.0
 10
1205.3323174518
 20
131.1773880605
 30
0.0
 10
1205.4248712838
 20
130.9678886767
 30
0.0
 10
1205.5433804464
 20
130.6762946857
 30
0.0
 10
1205.6709187346
 20
130.3406477175
 30
0.0
 10
1205.8025241698
 20
129.9739388488
 30
0.0
 10
1205.8889658202
 20
129.7198604698
 30
0.0
 10
1205.9319945891
 20
129.5899867111
 30
0.0
  0
SPLINE
  5
5F8
100
AcDbEntity
  8
0
100
AcDbSpline
 62
9
  6
CONTINUOUS
 70
0
 71
3
 72
15
 73
11
 74
0
 42
0.0000001
 43
0.0000001
 44
0.0000000001
 40
0.0
 40
0.0
 40
0.0
 40
0.0
 40
0.0314452609
 40
0.0566793922
 40
0.0891336618
 40
0.1761052156
 40
0.2919615575
 40
0.43499023
 40
0.6027193643
 40
1.0
 40
1.0
 40
1.0
 40
1.0
 10
1206.7613457605
 20
133.2862214019
 30
0.0
 10
1206.7561933234
 20
133.2716050907
 30
0.0
 10
1206.7683753512
 20
133.2415610278
 30
0.0
 10
1206.7930137649
 20
133.2067138036
 30
0.0
 10
1206.8407276007
 20
133.1527962613
 30
0.0
 10
1206.9270189474
 20
133.0755536617
 30
0.0
 10
1207.0614078811
 20
132.9703639361
 30
0.0
 10
1207.232807064
 20
132.8485711156
 30
0.0
 10
1207.5235426301
 20
132.6554797737
 30
0.0
 10
1207.7612550553
 20
132.5102458375
 30
0.0
 10
1207.9298158789
 20
132.4106206049
 30
0.0
  0
SPLINE
  5
5F9
100
AcDbEntity
  8
0
100
AcDbSpline
 62
9
  6
CONTINUOUS
 70
0
 71
3
 72
13
 73
9
 74
0
 42
0.0000001
 43
0.0000001
 44
0.0000000001
 40
0.0
 40
0.0
 40
0.0
 40
0.0
 40
0.1325627091
 40
0.2266627795
 40
0.3419355428
 40
0.4782948565
 40
0.634644537
 40
1.0
 40
1.0
 40
1.0
 40
1.0
 10
1206.9319945891
 20
134.2836039511
 30
0.0
 10
1206.9319945891
 20
134.2157766829
 30
0.0
 10
1206.9995169085
 20
134.1059841565
 30
0.0
 10
1207.1279225671
 20
133.9905107939
 30
0.0
 10
1207.2745476889
 20
133.8893665749
 30
0.0
 10
1207.4571409552
 20
133.7882983403
 30
0.0
 10
1207.7627227796
 20
133.6461773269
 30
0.0
 10
1208.0140774244
 20
133.5548162545
 30
0.0
 10
1208.1918615223
 20
133.497034023
 30
0.0
  0
SPLINE
  5
5FA
100
AcDbEntity
  8
0
100
AcDbSpline
 62
9
  6
CONTINUOUS
 70
0
 71
3
 72
17
 73
13
 74
0
 42
0.0000001
 43
0.0000001
 44
0.0000000001
 40
0.0
 40
0.0
 40
0.0
 40
0.0
 40
0.0310016494
 40
0.0572432913
 40
0.0916106178
 40
0.1341244559
 40
0.184564568
 40
0.2425531017
 40
0.3076036255
 40
0.4565145226
 40
0.6258725101
 40
1.0
 40
1.0
 40
1.0
 40
1.0
 10
1138.9319945891
 20
213.2836039511
 30
0.0
 10
1138.932003856
 20
213.325916358
 30
0.0
 10
1139.0041137764
 20
213.3883283316
 30
0.0
 10
1139.1122790577
 20
213.43999086
 30
0.0
 10
1139.2466859068
 20
213.4882382301
 30
0.0
 10
1139.413916435
 20
213.5333710729
 30
0.0
 10
1139.6155186026
 20
213.5771663351
 30
0.0
 10
1139.8486706829
 20
213.6182585143
 30
0.0
 10
1140.2160632775
 20
213.6715778992
 30
0.0
 10
1140.7364795806
 20
213.7268466093
 30
0.0
 10
1141.6793016306
 20
213.7928545759
 30
0.0
 10
1142.4213690171
 20
213.8110817041
 30
0.0
 10
1142.9319945891
 20
213.8110764786
 30
0.0
  0
SPLINE
  5
5FB
100
AcDbEntity
  8
0
100
AcDbSpline
 62
9
  6
CONTINUOUS
 70
0
 71
3
 72
15
 73
11
 74
0
 42
0.0000001
 43
0.0000001
 44
0.0000000001
 40
0.0
 40
0.0
 40
0.0
 40
0.0
 40
0.1235858319
 40
0.2473764065
 40
0.3715641129
 40
0.4962744733
 40
0.62155484
 40
0.7473615942
 40
0.8735716456
 40
1.0
 40
1.0
 40
1.0
 40
1.0
 10
1138.9319945891
 20
265.9294324236
 30
0.0
 10
1138.931993687
 20
265.6736704286
 30
0.0
 10
1138.9835432962
 20
265.1602502943
 30
0.0
 10
1139.2125153574
 20
264.4210581706
 30
0.0
 10
1139.5843580012
 20
263.739465105
 30
0.0
 10
1140.0848617599
 20
263.1420260366
 30
0.0
 10
1140.6948093847
 20
262.6515710497
 30
0.0
 10
1141.3909369089
 20
262.2870439898
 30
0.0
 10
1142.1461152013
 20
262.0625174485
 30
0.0
 10
1142.6703499679
 20
262.0119848529
 30
0.0
 10
1142.9319945891
 20
262.0119849698
 30
0.0
  0
SPLINE
  5
5FC
100
AcDbEntity
  8
0
100
AcDbSpline
 62
9
  6
CONTINUOUS
 70
0
 71
3
 72
13
 73
9
 74
0
 42
0.0000001
 43
0.0000001
 44
0.0000000001
 40
0.0
 40
0.0
 40
0.0
 40
0.0
 40
0.1335070145
 40
0.2277281045
 40
0.3429602201
 40
0.4791619811
 40
0.6352712054
 40
1.0
 40
1.0
 40
1.0
 40
1.0
 10
1206.9319945891
 20
308.2836039511
 30
0.0
 10
1206.9319945891
 20
308.3519646374
 30
0.0
 10
1206.9990859433
 20
308.4626725312
 30
0.0
 10
1207.1278128269
 20
308.5789121815
 30
0.0
 10
1207.2744280075
 20
308.6801969433
 30
0.0
 10
1207.4570462484
 20
308.7811092863
 30
0.0
 10
1207.7626261731
 20
308.9225783932
 30
0.0
 10
1208.0140449715
 20
309.013089022
 30
0.0
 10
1208.1918616308
 20
309.0701739469
 30
0.0
  0
SPLINE
  5
5FD
100
AcDbEntity
  8
0
100
AcDbSpline
 62
9
  6
CONTINUOUS
 70
0
 71
3
 72
15
 73
11
 74
0
 42
0.0000001
 43
0.0000001
 44
0.0000000001
 40
0.0
 40
0.0
 40
0.0
 40
0.0
 40
0.0320784689
 40
0.0574739942
 40
0.0900243171
 40
0.1770538395
 40
0.2928471668
 40
0.4357274718
 40
0.6032469669
 40
1.0
 40
1.0
 40
1.0
 40
1.0
 10
1206.7613457876
 20
309.2809864233
 30
0.0
 10
1206.7560856606
 20
309.2959082282
 30
0.0
 10
1206.7677830211
 20
309.3264872712
 30
0.0
 10
1206.7924345773
 20
309.3620001427
 30
0.0
 10
1206.8398973952
 20
309.4163713677
 30
0.0
 10
1206.9260861412
 20
309.4939961316
 30
0.0
 10
1207.0604290063
 20
309.5993100966
 30
0.0
 10
1207.2319033757
 20
309.7209278614
 30
0.0
 10
1207.5228836404
 20
309.9133319902
 30
0.0
 10
1207.7609632365
 20
310.0576822487
 30
0.0
 10
1207.929816026
 20
310.1565872973
 30
0.0
  0
SPLINE
  5
5FE
100
AcDbEntity
  8
0
100
AcDbSpline
 62
9
  6
CONTINUOUS
 70
0
 71
3
 72
19
 73
15
 74
0
 42
0.0000001
 43
0.0000001
 44
0.0000000001
 40
0.0
 40
0.0
 40
0.0
 40
0.0
 40
0.0091889145
 40
0.0161570263
 40
0.0251457512
 40
0.0495863898
 40
0.0827986511
 40
0.1246579078
 40
0.1748326683
 40
0.2983065553
 40
0.4486739301
 40
0.6202244766
 40
0.8063855634
 40
1.0
 40
1.0
 40
1.0
 40
1.0
 10
1205.1080121058
 20
311.0434921373
 30
0.0
 10
1205.1139859538
 20
311.0409466176
 30
0.0
 10
1205.1268423508
 20
311.0447754003
 30
0.0
 10
1205.1404915547
 20
311.0555922649
 30
0.0
 10
1205.1606994987
 20
311.0760922449
 30
0.0
 10
1205.1882789081
 20
311.1143443704
 30
0.0
 10
1205.2248862633
 20
311.1744463974
 30
0.0
 10
1205.2667228876
 20
311.2524744107
 30
0.0
 10
1205.3339361692
 20
311.3891572182
 30
0.0
 10
1205.4265670948
 20
311.5986438329
 30
0.0
 10
1205.5449605323
 20
311.8903015175
 30
0.0
 10
1205.6721744518
 20
312.2260885441
 30
0.0
 10
1205.803256361
 20
312.5930033489
 30
0.0
 10
1205.8892305955
 20
312.8472536182
 30
0.0
 10
1205.9319945891
 20
312.9772214308
 30
0.0
  0
SPLINE
  5
5FF
100
AcDbEntity
  8
0
100
AcDbSpline
 62
9
  6
CONTINUOUS
 70
0
 71
3
 72
17
 73
13
 74
0
 42
0.0000001
 43
0.0000001
 44
0.0000000001
 40
0.0
 40
0.0
 40
0.0
 40
0.0
 40
0.3741274899
 40
0.5434854774
 40
0.6923963745
 40
0.7574468983
 40
0.815435432
 40
0.8658755442
 40
0.9083893822
 40
0.9427567087
 40
0.9689983507
 40
1.0
 40
1.0
 40
1.0
 40
1.0
 10
1142.9319945891
 20
228.7561314236
 30
0.0
 10
1142.4213690171
 20
228.756126198
 30
0.0
 10
1141.6793016306
 20
228.7743533263
 30
0.0
 10
1140.7364795806
 20
228.8403612929
 30
0.0
 10
1140.2160632775
 20
228.8956300031
 30
0.0
 10
1139.8486706828
 20
228.9489493878
 30
0.0
 10
1139.6155186026
 20
228.990041567
 30
0.0
 10
1139.4139164351
 20
229.0338368297
 30
0.0
 10
1139.2466859068
 20
229.0789696719
 30
0.0
 10
1139.1122790574
 20
229.1272170415
 30
0.0
 10
1139.0041137768
 20
229.1788795715
 30
0.0
 10
1138.9320038564
 20
229.2412915444
 30
0.0
 10
1138.9319945891
 20
229.2836039511
 30
0.0
  0
SPLINE
  5
600
100
AcDbEntity
  8
0
100
AcDbSpline
 62
9
  6
CONTINUOUS
 70
0
 71
3
 72
11
 73
7
 74
0
 42
0.0000001
 43
0.0000001
 44
0.0000000001
 40
0.0
 40
0.0
 40
0.0
 40
0.0
 40
0.2497151642
 40
0.4996562495
 40
0.7497779283
 40
1.0
 40
1.0
 40
1.0
 40
1.0
 10
1172.3320715276
 20
178.6679028665
 30
0.0
 10
1171.9772073606
 20
178.9681957899
 30
0.0
 10
1171.213071648
 20
179.5082884718
 30
0.0
 10
1169.9439873248
 20
180.1058240664
 30
0.0
 10
1168.5890923351
 20
180.4727771539
 30
0.0
 10
1167.6555846328
 20
180.5552227031
 30
0.0
 10
1167.1897706501
 20
180.5552229324
 30
0.0
  0
SPLINE
  5
601
100
AcDbEntity
  8
0
100
AcDbSpline
 62
9
  6
CONTINUOUS
 70
0
 71
3
 72
9
 73
5
 74
0
 42
0.0000001
 43
0.0000001
 44
0.0000000001
 40
0.0
 40
0.0
 40
0.0
 40
0.0
 40
0.5321958061
 40
1.0
 40
1.0
 40
1.0
 40
1.0
 10
1167.1897706501
 20
213.8110764786
 30
0.0
 10
1168.1024047357
 20
213.811079382
 30
0.0
 10
1169.8172967547
 20
213.7899205854
 30
0.0
 10
1171.5312224889
 20
213.7242925752
 30
0.0
 10
1172.3320715276
 20
213.677543402
 30
0.0
  0
SPLINE
  5
602
100
AcDbEntity
  8
0
100
AcDbSpline
 62
9
  6
CONTINUOUS
 70
0
 71
3
 72
11
 73
7
 74
0
 42
0.0000001
 43
0.0000001
 44
0.0000000001
 40
0.0
 40
0.0
 40
0.0
 40
0.0
 40
0.2502221255
 40
0.5003438214
 40
0.7502849025
 40
1.0
 40
1.0
 40
1.0
 40
1.0
 10
1167.1897706501
 20
262.0119849698
 30
0.0
 10
1167.6555847304
 20
262.0119851565
 30
0.0
 10
1168.5890924417
 20
262.0944310889
 30
0.0
 10
1169.9439880188
 20
262.4613834506
 30
0.0
 10
1171.2130706113
 20
263.0589211458
 30
0.0
 10
1171.9772098463
 20
263.5990093831
 30
0.0
 10
1172.3320715276
 20
263.8993050475
 30
0.0
  0
SPLINE
  5
603
100
AcDbEntity
  8
0
100
AcDbSpline
 62
9
  6
CONTINUOUS
 70
0
 71
3
 72
9
 73
5
 74
0
 42
0.0000001
 43
0.0000001
 44
0.0000000001
 40
0.0
 40
0.0
 40
0.0
 40
0.0
 40
0.4678041939
 40
1.0
 40
1.0
 40
1.0
 40
1.0
 10
1172.3320715276
 20
228.8896645002
 30
0.0
 10
1171.5312224884
 20
228.8429153352
 30
0.0
 10
1169.817296755
 20
228.7772873119
 30
0.0
 10
1168.1024047357
 20
228.7561285204
 30
0.0
 10
1167.1897706501
 20
228.7561314236
 30
0.0
  0
SPLINE
  5
604
100
AcDbEntity
  8
0
100
AcDbSpline
 62
9
  6
CONTINUOUS
 70
0
 71
3
 72
17
 73
13
 74
0
 42
0.0000001
 43
0.0000001
 44
0.0000000001
 40
0.0
 40
0.0
 40
0.0
 40
0.0
 40
0.1196168409
 40
0.2395081303
 40
0.3599957248
 40
0.4815289086
 40
0.6048071179
 40
0.7310216175
 40
0.795965457
 40
0.8624655729
 40
0.9306353425
 40
1.0
 40
1.0
 40
1.0
 40
1.0
 10
1138.9319945891
 20
134.2836039511
 30
0.0
 10
1138.9320058864
 20
134.0294134239
 30
0.0
 10
1138.9552237204
 20
133.5201366389
 30
0.0
 10
1139.0613524508
 20
132.7613918742
 30
0.0
 10
1139.2439206268
 20
132.012836384
 30
0.0
 10
1139.5129137707
 20
131.2824922706
 30
0.0
 10
1139.8851911502
 20
130.5843545457
 30
0.0
 10
1140.3030509098
 20
130.0554875924
 30
0.0
 10
1140.7189672869
 20
129.6967374558
 30
0.0
 10
1141.0819205265
 20
129.4728604828
 30
0.0
 10
1141.4911459865
 20
129.320253145
 30
0.0
 10
1141.7845919432
 20
129.2835964215
 30
0.0
 10
1141.9319945891
 20
129.2836039511
 30
0.0
  0
SPLINE
  5
605
100
AcDbEntity
  8
0
100
AcDbSpline
 62
9
  6
CONTINUOUS
 70
0
 71
3
 72
13
 73
9
 74
0
 42
0.0000001
 43
0.0000001
 44
0.0000000001
 40
0.0
 40
0.0
 40
0.0
 40
0.0
 40
0.2962097236
 40
0.5645084469
 40
0.6850584478
 40
0.7963874562
 40
0.9002904222
 40
1.0
 40
1.0
 40
1.0
 40
1.0
 10
1172.3320715225
 20
213.677543401
 30
0.0
 10
1172.3022960586
 20
214.0242234912
 30
0.0
 10
1172.1708300927
 20
214.6811609964
 30
0.0
 10
1171.8100903842
 20
215.4154776583
 30
0.0
 10
1171.4208066464
 20
215.8599129911
 30
0.0
 10
1171.1038460059
 20
216.1001012102
 30
0.0
 10
1170.7612198549
 20
216.2494606574
 30
0.0
 10
1170.5208371516
 20
216.2836039517
 30
0.0
 10
1170.4037086985
 20
216.2836039522
 30
0.0
  0
SPLINE
  5
606
100
AcDbEntity
  8
0
100
AcDbSpline
 62
9
  6
CONTINUOUS
 70
0
 71
3
 72
13
 73
9
 74
0
 42
0.0000001
 43
0.0000001
 44
0.0000000001
 40
0.0
 40
0.0
 40
0.0
 40
0.0
 40
0.2966487467
 40
0.5661206587
 40
0.6869145348
 40
0.7980339789
 40
0.901263824
 40
1.0
 40
1.0
 40
1.0
 40
1.0
 10
1204.074293311
 20
213.5344071679
 30
0.0
 10
1204.054737315
 20
213.8957792733
 30
0.0
 10
1203.9375468673
 20
214.5838366729
 30
0.0
 10
1203.5826430837
 20
215.3585979801
 30
0.0
 10
1203.1888824107
 20
215.8312077872
 30
0.0
 10
1202.8656377754
 20
216.087247483
 30
0.0
 10
1202.5140967854
 20
216.2469803748
 30
0.0
 10
1202.266387242
 20
216.2836037875
 30
0.0
 10
1202.1459326376
 20
216.2836039511
 30
0.0
  0
SPLINE
  5
607
100
AcDbEntity
  8
0
100
AcDbSpline
 62
9
  6
CONTINUOUS
 70
0
 71
3
 72
13
 73
9
 74
0
 42
0.0000001
 43
0.0000001
 44
0.0000000001
 40
0.0
 40
0.0
 40
0.0
 40
0.0
 40
0.2907347026
 40
0.5612889991
 40
0.6844884193
 40
0.7982183271
 40
0.9028324914
 40
1.0
 40
1.0
 40
1.0
 40
1.0
 10
1208.4319945888
 20
213.2836039511
 30
0.0
 10
1208.4319945888
 20
213.6243686406
 30
0.0
 10
1208.3627986248
 20
214.2841968895
 30
0.0
 10
1208.1003486904
 20
215.0522600454
 30
0.0
 10
1207.7906079109
 20
215.5626112766
 30
0.0
 10
1207.5278594505
 20
215.8675628544
 30
0.0
 10
1207.2346141431
 20
216.0971287274
 30
0.0
 10
1207.0171421192
 20
216.1972740049
 30
0.0
 10
1206.9082100318
 20
216.2305053987
 30
0.0
  0
SPLINE
  5
608
100
AcDbEntity
  8
0
100
AcDbSpline
 62
9
  6
CONTINUOUS
 70
0
 71
3
 72
9
 73
5
 74
0
 42
0.0000001
 43
0.0000001
 44
0.0000000001
 40
0.0
 40
0.0
 40
0.0
 40
0.0
 40
0.2529322865
 40
1.0
 40
1.0
 40
1.0
 40
1.0
 10
1206.8825848921
 20
216.2380272187
 30
0.0
 10
1206.8558599282
 20
216.2455643568
 30
0.0
 10
1206.7492464454
 20
216.2718572596
 30
0.0
 10
1206.6390093345
 20
216.2836039511
 30
0.0
 10
1206.5569945891
 20
216.2836039511
 30
0.0
  0
SPLINE
  5
609
100
AcDbEntity
  8
0
100
AcDbSpline
 62
9
  6
CONTINUOUS
 70
0
 71
3
 72
13
 73
9
 74
0
 42
0.0000001
 43
0.0000001
 44
0.0000000001
 40
0.0
 40
0.0
 40
0.0
 40
0.0
 40
0.2907347026
 40
0.5612889992
 40
0.6844884193
 40
0.7982183271
 40
0.9028324914
 40
1.0
 40
1.0
 40
1.0
 40
1.0
 10
1208.4319945893
 20
229.2836039511
 30
0.0
 10
1208.4319945893
 20
228.9428392615
 30
0.0
 10
1208.3627986246
 20
228.2830110126
 30
0.0
 10
1208.1003486904
 20
227.5149478565
 30
0.0
 10
1207.7906079107
 20
227.0045966254
 30
0.0
 10
1207.5278594503
 20
226.6996450476
 30
0.0
 10
1207.2346141429
 20
226.4700791747
 30
0.0
 10
1207.0171421189
 20
226.3699338972
 30
0.0
 10
1206.9082100315
 20
226.3367025034
 30
0.0
  0
SPLINE
  5
60A
100
AcDbEntity
  8
0
100
AcDbSpline
 62
9
  6
CONTINUOUS
 70
0
 71
3
 72
9
 73
5
 74
0
 42
0.0000001
 43
0.0000001
 44
0.0000000001
 40
0.0
 40
0.0
 40
0.0
 40
0.0
 40
0.2529322867
 40
1.0
 40
1.0
 40
1.0
 40
1.0
 10
1206.8825849001
 20
226.3291806858
 30
0.0
 10
1206.8558599355
 20
226.3216435473
 30
0.0
 10
1206.7492464503
 20
226.2953506432
 30
0.0
 10
1206.6390093366
 20
226.2836039511
 30
0.0
 10
1206.5569945893
 20
226.2836039511
 30
0.0
  0
SPLINE
  5
60B
100
AcDbEntity
  8
0
100
AcDbSpline
 62
9
  6
CONTINUOUS
 70
0
 71
3
 72
9
 73
5
 74
0
 42
0.0000001
 43
0.0000001
 44
0.0000000001
 40
0.0
 40
0.0
 40
0.0
 40
0.0
 40
0.5003743843
 40
1.0
 40
1.0
 40
1.0
 40
1.0
 10
1141.8831339566
 20
176.098538579
 30
0.0
 10
1141.8970684942
 20
176.0622311003
 30
0.0
 10
1141.9219621027
 20
175.9883477872
 30
0.0
 10
1141.9319945743
 20
175.9104325806
 30
0.0
 10
1141.9319945891
 20
175.8716011325
 30
0.0
  0
SPLINE
  5
60C
100
AcDbEntity
  8
0
100
AcDbSpline
 62
9
  6
CONTINUOUS
 70
0
 71
3
 72
13
 73
9
 74
0
 42
0.0000001
 43
0.0000001
 44
0.0000000001
 40
0.0
 40
0.0
 40
0.0
 40
0.0
 40
0.2966487855
 40
0.5661206922
 40
0.6869145523
 40
0.7980339794
 40
0.9012638156
 40
1.0
 40
1.0
 40
1.0
 40
1.0
 10
1204.0742954656
 20
229.0328004541
 30
0.0
 10
1204.0547394342
 20
228.6714281322
 30
0.0
 10
1203.9375488111
 20
227.9833703732
 30
0.0
 10
1203.582644515
 20
227.2086088016
 30
0.0
 10
1203.1888833439
 20
226.7359990828
 30
0.0
 10
1202.8656383508
 20
226.4799595965
 30
0.0
 10
1202.514097021
 20
226.3202270471
 30
0.0
 10
1202.266387309
 20
226.283603951
 30
0.0
 10
1202.1459326376
 20
226.2836039509
 30
0.0
  0
SPLINE
  5
60D
100
AcDbEntity
  8
0
100
AcDbSpline
 62
9
  6
CONTINUOUS
 70
0
 71
3
 72
15
 73
11
 74
0
 42
0.0000001
 43
0.0000001
 44
0.0000000001
 40
0.0
 40
0.0
 40
0.0
 40
0.0
 40
0.1249672695
 40
0.2499407784
 40
0.374924957
 40
0.4999450458
 40
0.6249539309
 40
0.749965811
 40
0.874993857
 40
1.0
 40
1.0
 40
1.0
 40
1.0
 10
1142.9319945891
 20
177.6802783899
 30
0.0
 10
1142.8394879394
 20
177.6802779953
 30
0.0
 10
1142.6536185744
 20
177.6563491411
 30
0.0
 10
1142.3935110678
 20
177.5516643418
 30
0.0
 10
1142.167365284
 20
177.3859254615
 30
0.0
 10
1141.9872945263
 20
177.1710590909
 30
0.0
 10
1141.8642679601
 20
176.9193443481
 30
0.0
 10
1141.8010548454
 20
176.6464684794
 30
0.0
 10
1141.8037409071
 20
176.3662649692
 30
0.0
 10
1141.8499967214
 20
176.1849372402
 30
0.0
 10
1141.8831339566
 20
176.098538579
 30
0.0
  0
SPLINE
  5
60E
100
AcDbEntity
  8
0
100
AcDbSpline
 62
9
  6
CONTINUOUS
 70
0
 71
3
 72
9
 73
5
 74
0
 42
0.0000001
 43
0.0000001
 44
0.0000000001
 40
0.0
 40
0.0
 40
0.0
 40
0.0
 40
0.4999371973
 40
1.0
 40
1.0
 40
1.0
 40
1.0
 10
1205.9319945891
 20
312.9772214308
 30
0.0
 10
1205.6106901994
 20
313.0829411399
 30
0.0
 10
1204.9479932012
 20
313.2370096926
 30
0.0
 10
1204.2703297275
 20
313.2836283213
 30
0.0
 10
1203.9319945891
 20
313.2836284514
 30
0.0
  0
LINE
  5
60F
100
AcDbEntity
  8
0
100
AcDbLine
 62
9
  6
CONTINUOUS
 10
1203.9319945891
 20
313.2836284514
 11
1141.9319945891
 21
313.2836039511
  0
SPLINE
  5
610
100
AcDbEntity
  8
0
100
AcDbSpline
 62
9
  6
CONTINUOUS
 70
0
 71
3
 72
11
 73
7
 74
0
 42
0.0000001
 43
0.0000001
 44
0.0000000001
 40
0.0
 40
0.0
 40
0.0
 40
0.0
 40
0.2500171156
 40
0.5000209093
 40
0.7500136561
 40
1.0
 40
1.0
 40
1.0
 40
1.0
 10
1170.5258925088
 20
176.3599091739
 30
0.0
 10
1170.3015080045
 20
176.5674404402
 30
0.0
 10
1169.814078229
 20
176.9428573765
 30
0.0
 10
1168.9930294673
 20
177.362323571
 30
0.0
 10
1168.108170172
 20
177.6217627254
 30
0.0
 10
1167.4953760138
 20
177.6802784955
 30
0.0
 10
1167.1897706501
 20
177.6802783899
 30
0.0
  0
SPLINE
  5
611
100
AcDbEntity
  8
0
100
AcDbSpline
 62
9
  6
CONTINUOUS
 70
0
 71
3
 72
10
 73
6
 74
0
 42
0.0000001
 43
0.0000001
 44
0.0000000001
 40
0.0
 40
0.0
 40
0.0
 40
0.0
 40
0.4999999908
 40
0.7500000501
 40
1.0
 40
1.0
 40
1.0
 40
1.0
 10
1202.1525387668
 20
149.135253984
 30
0.0
 10
1196.8934045661
 20
153.6192591682
 30
0.0
 10
1189.0138529273
 20
160.3560441565
 30
0.0
 10
1178.5428501786
 20
169.3792215562
 30
0.0
 10
1173.3243477568
 20
173.9104977223
 30
0.0
 10
1170.7215097624
 20
176.1834756769
 30
0.0
  0
SPLINE
  5
612
100
AcDbEntity
  8
0
100
AcDbSpline
 62
9
  6
CONTINUOUS
 70
0
 71
3
 72
11
 73
7
 74
0
 42
0.0000001
 43
0.0000001
 44
0.0000000001
 40
0.0
 40
0.0
 40
0.0
 40
0.0
 40
0.2500047086
 40
0.5000083309
 40
0.7500077669
 40
1.0
 40
1.0
 40
1.0
 40
1.0
 10
1203.9366154924
 20
145.0856453044
 30
0.0
 10
1203.9482157608
 20
145.4437652309
 30
0.0
 10
1203.8958409487
 20
146.164677583
 30
0.0
 10
1203.5944167959
 20
147.2044094795
 30
0.0
 10
1203.0829043586
 20
148.1585400872
 30
0.0
 10
1202.6149473269
 20
148.709655288
 30
0.0
 10
1202.3552136093
 20
148.9564548651
 30
0.0
  0
LINE
  5
613
100
AcDbEntity
  8
0
100
AcDbLine
 62
9
  6
CONTINUOUS
 10
1141.9319945891
 20
129.2836039511
 11
1203.9319945891
 21
129.2835794548
  0
SPLINE
  5
614
100
AcDbEntity
  8
0
100
AcDbSpline
 62
9
  6
CONTINUOUS
 70
0
 71
3
 72
9
 73
5
 74
0
 42
0.0000001
 43
0.0000001
 44
0.0000000001
 40
0.0
 40
0.0
 40
0.0
 40
0.0
 40
0.500072959
 40
1.0
 40
1.0
 40
1.0
 40
1.0
 10
1203.9319945891
 20
129.2835794548
 30
0.0
 10
1204.2703506508
 20
129.2835795813
 30
0.0
 10
1204.9480510122
 20
129.3294868138
 30
0.0
 10
1205.6109010672
 20
129.4836054509
 30
0.0
 10
1205.9319945891
 20
129.5899867111
 30
0.0
  0
SPLINE
  5
615
100
AcDbEntity
  8
0
100
AcDbSpline
 62
9
  6
CONTINUOUS
 70
0
 71
3
 72
13
 73
9
 74
0
 42
0.0000001
 43
0.0000001
 44
0.0000000001
 40
0.0
 40
0.0
 40
0.0
 40
0.0
 40
0.2962096918
 40
0.564508425
 40
0.685058441
 40
0.7963874635
 40
0.9002904343
 40
1.0
 40
1.0
 40
1.0
 40
1.0
 10
1172.3320694965
 20
228.8896649151
 30
0.0
 10
1172.3022940759
 20
228.5429850078
 30
0.0
 10
1172.1708282868
 20
227.8860477989
 30
0.0
 10
1171.8100890646
 20
227.1517313279
 30
0.0
 10
1171.4208057851
 20
226.7072958771
 30
0.0
 10
1171.1038454736
 20
226.4671074486
 30
0.0
 10
1170.7612196344
 20
226.3177476797
 30
0.0
 10
1170.5208370874
 20
226.2836040987
 30
0.0
 10
1170.4037086985
 20
226.2836039511
 30
0.0
  0
SPLINE
  5
616
100
AcDbEntity
  8
0
100
AcDbSpline
 62
9
  6
CONTINUOUS
 70
0
 71
3
 72
18
 73
14
 74
0
 42
0.0000001
 43
0.0000001
 44
0.0000000001
 40
0.0
 40
0.0
 40
0.0
 40
0.0
 40
0.0072017908
 40
0.0131442752
 40
0.0209370462
 40
0.042336297
 40
0.0716396177
 40
0.1539371094
 40
0.267217597
 40
0.4102684702
 40
0.5814528646
 40
0.7788108047
 40
1.0
 40
1.0
 40
1.0
 40
1.0
 10
1206.9319945891
 20
229.2836039511
 30
0.0
 10
1206.9319917603
 20
229.2766850515
 30
0.0
 10
1206.9211128984
 20
229.2661509729
 30
0.0
 10
1206.9039465093
 20
229.2570696769
 30
0.0
 10
1206.8722695672
 20
229.2443295478
 30
0.0
 10
1206.8180481239
 20
229.2299353987
 30
0.0
 10
1206.6926059689
 20
229.2048523887
 30
0.0
 10
1206.4783409753
 20
229.1764937908
 30
0.0
 10
1206.1545609661
 20
229.1445276259
 30
0.0
 10
1205.7449722569
 20
229.1136449533
 30
0.0
 10
1205.2543553532
 20
229.0840542942
 30
0.0
 10
1204.6884518402
 20
229.0564405594
 30
0.0
 10
1204.2866575765
 20
229.040475324
 30
0.0
 10
1204.0742954666
 20
229.032800454
 30
0.0
  0
SPLINE
  5
617
100
AcDbEntity
  8
0
100
AcDbSpline
 62
7
  6
CONTINUOUS
 70
0
 71
3
 72
9
 73
5
 74
0
 42
0.0000001
 43
0.0000001
 44
0.0000000001
 40
0.0
 40
0.0
 40
0.0
 40
0.0
 40
0.2438573022
 40
1.0
 40
1.0
 40
1.0
 40
1.0
 10
1461.4319945891
 20
77.5111198511
 30
0.0
 10
1461.4319931093
 20
77.0559583777
 30
0.0
 10
1461.3849885402
 20
75.1894451795
 30
0.0
 10
1461.1699298668
 20
73.3296531269
 30
0.0
 10
1460.9437584704
 20
71.9365472481
 30
0.0
  0
SPLINE
  5
618
100
AcDbEntity
  8
0
100
AcDbSpline
 62
9
  6
CONTINUOUS
 70
0
 71
3
 72
20
 73
16
 74
0
 42
0.0000001
 43
0.0000001
 44
0.0000000001
 40
0.0
 40
0.0
 40
0.0
 40
0.0
 40
0.0716950367
 40
0.1566342235
 40
0.2555223201
 40
0.3687342949
 40
0.4968451821
 40
0.5669066079
 40
0.6413841189
 40
0.7208542978
 40
0.8062579551
 40
0.8516780355
 40
0.8991682144
 40
0.9488035513
 40
1.0
 40
1.0
 40
1.0
 40
1.0
 10
1265.4319071376
 20
431.6353277284
 30
0.0
 10
1265.432430298
 20
430.3675088932
 30
0.0
 10
1265.7527825526
 20
427.5981951502
 30
0.0
 10
1266.9082972527
 20
423.2211201045
 30
0.0
 10
1268.7836256904
 20
418.3051560426
 30
0.0
 10
1271.4296397274
 20
412.8943119135
 30
0.0
 10
1274.2831181145
 20
408.1741079829
 30
0.0
 10
1277.0869857979
 20
404.2491837085
 30
0.0
 10
1279.5876218684
 20
401.1726608744
 30
0.0
 10
1282.5073575274
 20
398.1019833366
 30
0.0
 10
1285.3494413405
 20
395.6845255117
 30
0.0
 10
1287.9845611603
 20
393.9447038876
 30
0.0
 10
1290.2361747041
 20
392.7957902831
 30
0.0
 10
1292.7379938354
 20
391.9659478421
 30
0.0
 10
1294.5266626219
 20
391.7588239128
 30
0.0
 10
1295.4319945891
 20
391.7581335765
 30
0.0
  0
SPLINE
  5
619
100
AcDbEntity
  8
0
100
AcDbSpline
 62
9
  6
CONTINUOUS
 70
0
 71
3
 72
8
 73
4
 74
0
 42
0.0000001
 43
0.0000001
 44
0.0000000001
 40
0.0
 40
0.0
 40
0.0
 40
0.0
 40
1.0
 40
1.0
 40
1.0
 40
1.0
 10
1329.0788152059
 20
430.7732553746
 30
0.0
 10
1328.5562238529
 20
430.7640546141
 30
0.0
 10
1328.0221539567
 20
430.8579031646
 30
0.0
 10
1327.5348706434
 20
431.0469569897
 30
0.0
  0
SPLINE
  5
61A
100
AcDbEntity
  8
0
100
AcDbSpline
 62
9
  6
CONTINUOUS
 70
0
 71
3
 72
9
 73
5
 74
0
 42
0.0000001
 43
0.0000001
 44
0.0000000001
 40
0.0
 40
0.0
 40
0.0
 40
0.0
 40
0.2522170055
 40
1.0
 40
1.0
 40
1.0
 40
1.0
 10
1327.5348706434
 20
431.0469569897
 30
0.0
 10
1327.4131768982
 20
431.0941711409
 30
0.0
 10
1326.9402587496
 20
431.3051487376
 30
0.0
 10
1326.5093892263
 20
431.6105773268
 30
0.0
 10
1326.2313745091
 20
431.8798008281
 30
0.0
  0
SPLINE
  5
61B
100
AcDbEntity
  8
0
100
AcDbSpline
 62
9
  6
CONTINUOUS
 70
0
 71
3
 72
8
 73
4
 74
0
 42
0.0000001
 43
0.0000001
 44
0.0000000001
 40
0.0
 40
0.0
 40
0.0
 40
0.0
 40
1.0
 40
1.0
 40
1.0
 40
1.0
 10
1326.0670218418
 20
432.0491763564
 30
0.0
 10
1325.7995054824
 20
432.3425931066
 30
0.0
 10
1325.5755085972
 20
432.6825148424
 30
0.0
 10
1325.4131979965
 20
433.0448871107
 30
0.0
  0
SPLINE
  5
61C
100
AcDbEntity
  8
0
100
AcDbSpline
 62
7
  6
CONTINUOUS
 70
0
 71
3
 72
11
 73
7
 74
0
 42
0.0000001
 43
0.0000001
 44
0.0000000001
 40
0.0
 40
0.0
 40
0.0
 40
0.0
 40
0.2292914029
 40
0.4716559799
 40
0.7292998827
 40
1.0
 40
1.0
 40
1.0
 40
1.0
 10
1431.4319945891
 20
430.7732882558
 30
0.0
 10
1433.50033457
 20
430.3790793127
 30
0.0
 10
1437.6781071332
 20
429.1192721143
 30
0.0
 10
1443.6566640866
 20
426.0301001016
 30
0.0
 10
1449.3339222205
 20
421.7527389577
 30
0.0
 10
1452.7001600106
 20
418.22158396
 30
0.0
 10
1454.2569394276
 20
416.2836039511
 30
0.0
  0
SPLINE
  5
61D
100
AcDbEntity
  8
0
100
AcDbSpline
 62
7
  6
CONTINUOUS
 70
0
 71
3
 72
11
 73
7
 74
0
 42
0.0000001
 43
0.0000001
 44
0.0000000001
 40
0.0
 40
0.0
 40
0.0
 40
0.0
 40
0.24995396
 40
0.4999364544
 40
0.7499692308
 40
1.0
 40
1.0
 40
1.0
 40
1.0
 10
1454.2569394276
 20
416.2836039511
 30
0.0
 10
1455.4275644936
 20
414.8263339288
 30
0.0
 10
1457.5105598516
 20
411.6938147703
 30
0.0
 10
1459.7695021163
 20
406.5316101172
 30
0.0
 10
1461.1311426113
 20
401.064539168
 30
0.0
 10
1461.4319945891
 20
397.3177588802
 30
0.0
 10
1461.4319945891
 20
395.4479603188
 30
0.0
  0
SPLINE
  5
61E
100
AcDbEntity
  8
0
100
AcDbSpline
 62
9
  6
CONTINUOUS
 70
0
 71
3
 72
8
 73
4
 74
0
 42
0.0000001
 43
0.0000001
 44
0.0000000001
 40
0.0
 40
0.0
 40
0.0
 40
0.0
 40
1.0
 40
1.0
 40
1.0
 40
1.0
 10
1261.7851739726
 20
430.7732742399
 30
0.0
 10
1262.307764079
 20
430.7640799949
 30
0.0
 10
1262.8418310545
 20
430.8579327128
 30
0.0
 10
1263.3291121462
 20
431.0469885012
 30
0.0
  0
SPLINE
  5
61F
100
AcDbEntity
  8
0
100
AcDbSpline
 62
9
  6
CONTINUOUS
 70
0
 71
3
 72
9
 73
5
 74
0
 42
0.0000001
 43
0.0000001
 44
0.0000000001
 40
0.0
 40
0.0
 40
0.0
 40
0.0
 40
0.2526411073
 40
1.0
 40
1.0
 40
1.0
 40
1.0
 10
1263.3291121462
 20
431.0469885012
 30
0.0
 10
1263.4695486192
 20
431.1014751796
 30
0.0
 10
1264.0126738648
 20
431.3486198202
 30
0.0
 10
1264.4986734368
 20
431.7216034253
 30
0.0
 10
1264.7986764635
 20
432.0510962862
 30
0.0
  0
SPLINE
  5
620
100
AcDbEntity
  8
0
100
AcDbSpline
 62
9
  6
CONTINUOUS
 70
0
 71
3
 72
8
 73
4
 74
0
 42
0.0000001
 43
0.0000001
 44
0.0000000001
 40
0.0
 40
0.0
 40
0.0
 40
0.0
 40
1.0
 40
1.0
 40
1.0
 40
1.0
 10
1264.7986764635
 20
432.0510962862
 30
0.0
 10
1265.065432382
 20
432.3440738995
 30
0.0
 10
1265.2888186805
 20
432.6833202611
 30
0.0
 10
1265.4507866202
 20
433.0449291499
 30
0.0
  0
SPLINE
  5
621
100
AcDbEntity
  8
0
100
AcDbSpline
 62
9
  6
CONTINUOUS
 70
0
 71
3
 72
11
 73
7
 74
0
 42
0.0000001
 43
0.0000001
 44
0.0000000001
 40
0.0
 40
0.0
 40
0.0
 40
0.0
 40
0.3391355384
 40
0.6066415067
 40
0.8169678175
 40
1.0
 40
1.0
 40
1.0
 40
1.0
 10
1329.0788152057
 20
430.7732882558
 30
0.0
 10
1329.0534767832
 20
430.8493724476
 30
0.0
 10
1329.0013378706
 20
430.9835807383
 30
0.0
 10
1328.9010129012
 20
431.1501779078
 30
0.0
 10
1328.7830432181
 20
431.2583729371
 30
0.0
 10
1328.6887155312
 20
431.2835682105
 30
0.0
 10
1328.6454354709
 20
431.2836039511
 30
0.0
  0
SPLINE
  5
622
100
AcDbEntity
  8
0
100
AcDbSpline
 62
9
  6
CONTINUOUS
 70
0
 71
3
 72
20
 73
16
 74
0
 42
0.0000001
 43
0.0000001
 44
0.0000000001
 40
0.0
 40
0.0
 40
0.0
 40
0.0
 40
0.05119541
 40
0.1008313218
 40
0.1483219748
 40
0.193742237
 40
0.2791467317
 40
0.3586174512
 40
0.4330953684
 40
0.503157092
 40
0.6312683165
 40
0.7444802414
 40
0.8433679265
 40
0.9283063026
 40
1.0
 40
1.0
 40
1.0
 40
1.0
 10
1295.4319945891
 20
391.7581335765
 30
0.0
 10
1296.3373160128
 20
391.7587829249
 30
0.0
 10
1298.126014404
 20
391.9658377248
 30
0.0
 10
1300.6277956904
 20
392.7958790337
 30
0.0
 10
1302.8794454462
 20
393.9447960769
 30
0.0
 10
1305.5146439491
 20
395.6846013048
 30
0.0
 10
1308.3567597749
 20
398.1021172333
 30
0.0
 10
1311.2765337912
 20
401.1728509148
 30
0.0
 10
1313.7771915043
 20
404.2494291406
 30
0.0
 10
1316.5810717489
 20
408.1744178858
 30
0.0
 10
1319.4345606916
 20
412.8946834128
 30
0.0
 10
1322.0805537575
 20
418.3055934679
 30
0.0
 10
1323.9558479716
 20
423.2215955332
 30
0.0
 10
1325.1113012907
 20
427.5986808306
 30
0.0
 10
1325.4315933645
 20
430.3679896979
 30
0.0
 10
1325.4320773575
 20
431.6357957815
 30
0.0
  0
SPLINE
  5
623
100
AcDbEntity
  8
0
100
AcDbSpline
 62
9
  6
CONTINUOUS
 70
0
 71
3
 72
15
 73
11
 74
0
 42
0.0000001
 43
0.0000001
 44
0.0000000001
 40
0.0
 40
0.0
 40
0.0
 40
0.0
 40
0.1262169934
 40
0.2522627114
 40
0.3779875639
 40
0.5032807187
 40
0.628086916
 40
0.7524145678
 40
0.8763406641
 40
1.0
 40
1.0
 40
1.0
 40
1.0
 10
1251.4361874578
 20
430.7732955628
 30
0.0
 10
1249.4736107886
 20
430.7733054665
 30
0.0
 10
1245.5404879712
 20
430.3930193088
 30
0.0
 10
1239.8752735713
 20
428.7003618584
 30
0.0
 10
1234.6534474294
 20
425.9527781439
 30
0.0
 10
1230.0784846083
 20
422.2572895121
 30
0.0
 10
1226.3248650436
 20
417.7577515081
 30
0.0
 10
1223.536310898
 20
412.6274638537
 30
0.0
 10
1221.8186615754
 20
407.0671448264
 30
0.0
 10
1221.4326831134
 20
403.2064109045
 30
0.0
 10
1221.4319945891
 20
401.2836039543
 30
0.0
  0
SPLINE
  5
624
100
AcDbEntity
  8
0
100
AcDbSpline
 62
9
  6
CONTINUOUS
 70
0
 71
3
 72
14
 73
10
 74
0
 42
0.0000001
 43
0.0000001
 44
0.0000000001
 40
0.0
 40
0.0
 40
0.0
 40
0.0
 40
0.0613322704
 40
0.1377205034
 40
0.23587083
 40
0.3565212333
 40
0.4976590293
 40
0.6555030282
 40
1.0
 40
1.0
 40
1.0
 40
1.0
 10
1461.4320021172
 20
77.511119851
 30
0.0
 10
1461.4319954329
 20
77.4200741701
 30
0.0
 10
1461.5013469222
 20
77.2154097287
 30
0.0
 10
1461.7523230795
 20
76.9624501137
 30
0.0
 10
1462.130743607
 20
76.7364597871
 30
0.0
 10
1462.6290298124
 20
76.5391487476
 30
0.0
 10
1463.2315742199
 20
76.3770897433
 30
0.0
 10
1464.1731221498
 20
76.2113036874
 30
0.0
 10
1464.9206004871
 20
76.1651569741
 30
0.0
 10
1465.4319945904
 20
76.1651558397
 30
0.0
  0
SPLINE
  5
625
100
AcDbEntity
  8
0
100
AcDbSpline
 62
9
  6
CONTINUOUS
 70
0
 71
3
 72
28
 73
24
 74
0
 42
0.0000001
 43
0.0000001
 44
0.0000000001
 40
0.0
 40
0.0
 40
0.0
 40
0.0
 40
0.1515271373
 40
0.2906981663
 40
0.5186708148
 40
0.6092824269
 40
0.6868268841
 40
0.7530353168
 40
0.8093407585
 40
0.8568927623
 40
0.8966008905
 40
0.9291766711
 40
0.9551693029
 40
0.9658307646
 40
0.9749936259
 40
0.9826903021
 40
0.9889509235
 40
0.9937974863
 40
0.9972463913
 40
0.9984516332
 40
0.9993121121
 40
0.999828133
 40
1.0
 40
1.0
 40
1.0
 40
1.0
 10
1464.8786603213
 20
71.2836039511
 30
0.0
 10
1464.5427586779
 20
69.7137751077
 30
0.0
 10
1463.6605678226
 20
66.7539993401
 30
0.0
 10
1461.7232611997
 20
61.6120654703
 30
0.0
 10
1459.8799531153
 20
57.1255593658
 30
0.0
 10
1458.3424587303
 20
53.2204915377
 30
0.0
 10
1457.4637095724
 20
50.8980895712
 30
0.0
 10
1456.7463347148
 20
48.9035410934
 30
0.0
 10
1456.1666300869
 20
47.1974692823
 30
0.0
 10
1455.7030850137
 20
45.7487289958
 30
0.0
 10
1455.3369365605
 20
44.5330012037
 30
0.0
 10
1455.0523778497
 20
43.5314096164
 30
0.0
 10
1454.8616180173
 20
42.8231576275
 30
0.0
 10
1454.7397087009
 20
42.3533202493
 30
0.0
 10
1454.6678316572
 20
42.0707050519
 30
0.0
 10
1454.6086463353
 20
41.8331275072
 30
0.0
 10
1454.5608736606
 20
41.6394112736
 30
0.0
 10
1454.5251655868
 20
41.4901723897
 30
0.0
 10
1454.500360907
 20
41.3909905501
 30
0.0
 10
1454.488575802
 20
41.3359078486
 30
0.0
 10
1454.4792966247
 20
41.3064392365
 30
0.0
 10
1454.4806732965
 20
41.295532975
 30
0.0
 10
1454.4736321561
 20
41.2832137003
 30
0.0
 10
1454.4754142443
 20
41.2835874319
 30
0.0
  0
SPLINE
  5
626
100
AcDbEntity
  8
0
100
AcDbSpline
 62
9
  6
CONTINUOUS
 70
0
 71
3
 72
9
 73
5
 74
0
 42
0.0000001
 43
0.0000001
 44
0.0000000001
 40
0.0
 40
0.0
 40
0.0
 40
0.0
 40
0.2435708625
 40
1.0
 40
1.0
 40
1.0
 40
1.0
 10
1465.4319945891
 20
76.1651807005
 30
0.0
 10
1465.4319681068
 20
75.7658659382
 30
0.0
 10
1465.3815532307
 20
74.1264270238
 30
0.0
 10
1465.1379794065
 20
72.4962921942
 30
0.0
 10
1464.8786603213
 20
71.2836039511
 30
0.0
  0
SPLINE
  5
627
100
AcDbEntity
  8
0
100
AcDbSpline
 62
9
  6
CONTINUOUS
 70
0
 71
3
 72
19
 73
15
 74
0
 42
0.0000001
 43
0.0000001
 44
0.0000000001
 40
0.0
 40
0.0
 40
0.0
 40
0.0
 40
0.0633951502
 40
0.1003681559
 40
0.1412887608
 40
0.2355484885
 40
0.3468809333
 40
0.4757146027
 40
0.6234201432
 40
0.7056920293
 40
0.7950670347
 40
0.8932763265
 40
0.945921716
 40
1.0
 40
1.0
 40
1.0
 40
1.0
 10
1261.7851739726
 20
430.7732882558
 30
0.0
 10
1261.4637522897
 20
429.5770087901
 30
0.0
 10
1261.3481873343
 20
427.5781499024
 30
0.0
 10
1261.655273726
 20
424.83592096
 30
0.0
 10
1262.3500332857
 20
421.5384965679
 30
0.0
 10
1263.9097095525
 20
416.9649614715
 30
0.0
 10
1266.7247030565
 20
411.0542983961
 30
0.0
 10
1270.7172167698
 20
404.595077503
 30
0.0
 10
1275.1538650047
 20
399.1251191705
 30
0.0
 10
1279.7356488607
 20
394.870552754
 30
0.0
 10
1284.0566952392
 20
391.8145591158
 30
0.0
 10
1288.3746389071
 20
389.8589405701
 30
0.0
 10
1292.2863572001
 20
388.9474957688
 30
0.0
 10
1294.3753342364
 20
388.7840335023
 30
0.0
 10
1295.4319945891
 20
388.7829031608
 30
0.0
  0
SPLINE
  5
628
100
AcDbEntity
  8
0
100
AcDbSpline
 62
9
  6
CONTINUOUS
 70
0
 71
3
 72
19
 73
15
 74
0
 42
0.0000001
 43
0.0000001
 44
0.0000000001
 40
0.0
 40
0.0
 40
0.0
 40
0.0
 40
0.054077699
 40
0.1067220601
 40
0.2049320056
 40
0.2943078203
 40
0.3765800638
 40
0.5242859227
 40
0.6531197254
 40
0.7644522351
 40
0.8587119364
 40
0.8996324756
 40
0.9366052482
 40
1.0
 40
1.0
 40
1.0
 40
1.0
 10
1295.4319945891
 20
388.7829031608
 30
0.0
 10
1296.4886432163
 20
388.7839320211
 30
0.0
 10
1298.5776169921
 20
388.9473091482
 30
0.0
 10
1302.4892136086
 20
389.8591635504
 30
0.0
 10
1306.8072306497
 20
391.8145444044
 30
0.0
 10
1311.1283158471
 20
394.8705807313
 30
0.0
 10
1315.7101377041
 20
399.1251348774
 30
0.0
 10
1320.1467958078
 20
404.5951093809
 30
0.0
 10
1324.1393032603
 20
411.0543405773
 30
0.0
 10
1326.9543027553
 20
416.9650021635
 30
0.0
 10
1328.5139703624
 20
421.5385381504
 30
0.0
 10
1329.2087206952
 20
424.8359567876
 30
0.0
 10
1329.5157995449
 20
427.5781714408
 30
0.0
 10
1329.4002375866
 20
429.5770175208
 30
0.0
 10
1329.0788152057
 20
430.7732882558
 30
0.0
  0
SPLINE
  5
629
100
AcDbEntity
  8
0
100
AcDbSpline
 62
9
  6
CONTINUOUS
 70
0
 71
3
 72
11
 73
7
 74
0
 42
0.0000001
 43
0.0000001
 44
0.0000000001
 40
0.0
 40
0.0
 40
0.0
 40
0.0
 40
0.1830323306
 40
0.3933586936
 40
0.660864553
 40
1.0
 40
1.0
 40
1.0
 40
1.0
 10
1262.2185537074
 20
431.2836039511
 30
0.0
 10
1262.1752736065
 20
431.2835682658
 30
0.0
 10
1262.0809458251
 20
431.2583730303
 30
0.0
 10
1261.9629761152
 20
431.1501779441
 30
0.0
 10
1261.8626513136
 20
430.9835806815
 30
0.0
 10
1261.8105124398
 20
430.8493724208
 30
0.0
 10
1261.7851739726
 20
430.7732882558
 30
0.0
  0
SPLINE
  5
62A
100
AcDbEntity
  8
0
100
AcDbSpline
 62
9
  6
CONTINUOUS
 70
0
 71
3
 72
19
 73
15
 74
0
 42
0.0000001
 43
0.0000001
 44
0.0000000001
 40
0.0
 40
0.0
 40
0.0
 40
0.0
 40
0.1517304336
 40
0.2899605151
 40
0.5162040499
 40
0.6840333309
 40
0.8070623462
 40
0.8951206283
 40
0.9280932956
 40
0.9544431331
 40
0.9745658249
 40
0.9887492049
 40
0.9971892243
 40
1.0
 40
1.0
 40
1.0
 40
1.0
 10
1460.9437584704
 20
71.9365472481
 30
0.0
 10
1460.6762558527
 20
70.2869160434
 30
0.0
 10
1459.9934283509
 20
67.1618874645
 30
0.0
 10
1458.4252130801
 20
61.695429808
 30
0.0
 10
1456.5428027508
 20
56.1415027356
 30
0.0
 10
1454.7008537924
 20
50.7523405747
 30
0.0
 10
1453.4439089328
 20
46.7720297862
 30
0.0
 10
1452.7150884852
 20
44.1840926781
 30
0.0
 10
1452.3132723352
 20
42.6113076204
 30
0.0
 10
1452.1070902087
 20
41.7608733431
 30
0.0
 10
1451.9583054115
 20
41.1096298833
 30
0.0
 10
1451.8538014917
 20
40.650436392
 30
0.0
 10
1451.7994259472
 20
40.3757579852
 30
0.0
 10
1451.7688837648
 20
40.2554015064
 30
0.0
 10
1451.7644240612
 20
40.2247661501
 30
0.0
  0
SPLINE
  5
62B
100
AcDbEntity
  8
0
100
AcDbSpline
 62
9
  6
CONTINUOUS
 70
0
 71
3
 72
9
 73
5
 74
0
 42
0.0000001
 43
0.0000001
 44
0.0000000001
 40
0.0
 40
0.0
 40
0.0
 40
0.0
 40
0.501727741
 40
1.0
 40
1.0
 40
1.0
 40
1.0
 10
143.2835523175
 20
77.5111198511
 30
0.0
 10
142.9768484993
 20
76.6161076707
 30
0.0
 10
142.5274604946
 20
74.7717218948
 30
0.0
 10
142.4397621384
 20
72.8750764923
 30
0.0
 10
142.484368793
 20
71.9365472481
 30
0.0
  0
SPLINE
  5
62C
100
AcDbEntity
  8
0
100
AcDbSpline
 62
9
  6
CONTINUOUS
 70
0
 71
3
 72
29
 73
25
 74
0
 42
0.0000001
 43
0.0000001
 44
0.0000000001
 40
0.0
 40
0.0
 40
0.0
 40
0.0
 40
0.0308550294
 40
0.0614406769
 40
0.0920742971
 40
0.1228863239
 40
0.1538936627
 40
0.1850676962
 40
0.2477297361
 40
0.3106703213
 40
0.3737378915
 40
0.4368590968
 40
0.4999996618
 40
0.5631405743
 40
0.6262624004
 40
0.689330442
 40
0.7522712173
 40
0.8149333884
 40
0.8461076903
 40
0.8771152613
 40
0.9079272076
 40
0.9385608246
 40
0.9691460025
 40
1.0
 40
1.0
 40
1.0
 40
1.0
 10
142.484368793
 20
71.9365472481
 30
0.0
 10
142.5646861877
 20
70.2674103102
 30
0.0
 10
143.2917744949
 20
66.9535109429
 30
0.0
 10
145.6928428676
 20
62.5315525012
 30
0.0
 10
148.9428112413
 20
58.7170319338
 30
0.0
 10
152.7530986539
 20
55.4457398404
 30
0.0
 10
156.9425533903
 20
52.6338951981
 30
0.0
 10
162.8905868637
 20
49.4033392829
 30
0.0
 10
170.7880226053
 20
46.2122885334
 30
0.0
 10
180.6389966587
 20
43.4436900417
 30
0.0
 10
190.7195611058
 20
41.5603530686
 30
0.0
 10
200.9239862396
 20
40.4646648297
 30
0.0
 10
211.1839809565
 20
40.1047982453
 30
0.0
 10
221.4440093832
 20
40.4646631928
 30
0.0
 10
231.6485125364
 20
41.5603572314
 30
0.0
 10
241.7291443883
 20
43.4437133145
 30
0.0
 10
251.5801563877
 20
46.2123366982
 30
0.0
 10
259.4776150659
 20
49.4034165159
 30
0.0
 10
265.4256699939
 20
52.6340055422
 30
0.0
 10
269.6151281289
 20
55.445886514
 30
0.0
 10
273.4253998278
 20
58.7172105939
 30
0.0
 10
276.6753205683
 20
62.5317279874
 30
0.0
 10
279.0763172441
 20
66.9536488536
 30
0.0
 10
279.8032889724
 20
70.2674688881
 30
0.0
 10
279.8836609598
 20
71.9365472481
 30
0.0
  0
SPLINE
  5
62D
100
AcDbEntity
  8
0
100
AcDbSpline
 62
9
  6
CONTINUOUS
 70
0
 71
3
 72
9
 73
5
 74
0
 42
0.0000001
 43
0.0000001
 44
0.0000000001
 40
0.0
 40
0.0
 40
0.0
 40
0.0
 40
0.4982708083
 40
1.0
 40
1.0
 40
1.0
 40
1.0
 10
279.8836609598
 20
71.9365472481
 30
0.0
 10
279.928276593
 20
72.8750731827
 30
0.0
 10
279.8405522919
 20
74.7717167307
 30
0.0
 10
279.3911896724
 20
76.6161078173
 30
0.0
 10
279.0844774353
 20
77.5111198511
 30
0.0
  0
SPLINE
  5
62E
100
AcDbEntity
  8
0
100
AcDbSpline
 62
9
  6
CONTINUOUS
 70
0
 71
3
 72
14
 73
10
 74
0
 42
0.0000001
 43
0.0000001
 44
0.0000000001
 40
0.0
 40
0.0
 40
0.0
 40
0.0
 40
0.0277383077
 40
0.0870051585
 40
0.1797965323
 40
0.3031282388
 40
0.4527667438
 40
0.6232668692
 40
1.0
 40
1.0
 40
1.0
 40
1.0
 10
166.1840148764
 20
431.2836031521
 30
0.0
 10
166.1464380351
 20
431.2836033779
 30
0.0
 10
166.0684398148
 20
431.407458225
 30
0.0
 10
166.0101071492
 20
431.6251140966
 30
0.0
 10
165.9369073937
 20
432.0008788402
 30
0.0
 10
165.87863609
 20
432.4893297481
 30
0.0
 10
165.8274679059
 20
433.0893431145
 30
0.0
 10
165.77589119
 20
434.0315174284
 30
0.0
 10
165.7615332096
 20
434.7732468951
 30
0.0
 10
165.7615331773
 20
435.2836039511
 30
0.0
  0
SPLINE
  5
62F
100
AcDbEntity
  8
0
100
AcDbSpline
 62
9
  6
CONTINUOUS
 70
0
 71
3
 72
10
 73
6
 74
0
 42
0.0000001
 43
0.0000001
 44
0.0000000001
 40
0.0
 40
0.0
 40
0.0
 40
0.0
 40
0.1780775418
 40
0.4164807759
 40
1.0
 40
1.0
 40
1.0
 40
1.0
 10
162.064451405
 20
431.1829181913
 30
0.0
 10
161.9827383504
 20
431.3816121319
 30
0.0
 10
161.8121137696
 20
431.8545748164
 30
0.0
 10
161.4408370653
 20
433.002457547
 30
0.0
 10
161.1704253061
 20
433.9569473719
 30
0.0
 10
160.9892032451
 20
434.6372040704
 30
0.0
  0
SPLINE
  5
630
100
AcDbEntity
  8
0
100
AcDbSpline
 62
9
  6
CONTINUOUS
 70
0
 71
3
 72
27
 73
23
 74
0
 42
0.0000001
 43
0.0000001
 44
0.0000000001
 40
0.0
 40
0.0
 40
0.0
 40
0.0
 40
0.0312590321
 40
0.062509936
 40
0.0937626643
 40
0.1250188857
 40
0.1874875206
 40
0.2499839253
 40
0.3124920565
 40
0.3750059455
 40
0.4375234738
 40
0.5000428407
 40
0.5625624187
 40
0.6250803934
 40
0.6875944862
 40
0.7501027575
 40
0.8125995126
 40
0.8750673049
 40
0.9063210416
 40
0.9375657891
 40
0.9687948106
 40
1.0
 40
1.0
 40
1.0
 40
1.0
 10
279.0844694572
 20
77.5111362281
 30
0.0
 10
278.544264575
 20
79.0231529422
 30
0.0
 10
277.0916435378
 20
81.9222759017
 30
0.0
 10
274.1109238714
 20
85.7336568497
 30
0.0
 10
270.5847591283
 20
89.0364418593
 30
0.0
 10
265.3929350829
 20
92.8315330173
 30
0.0
 10
258.2707071534
 20
96.6114950284
 30
0.0
 10
249.2316070374
 20
99.9822474576
 30
0.0
 10
239.9022370019
 20
102.4313141814
 30
0.0
 10
230.4053877376
 20
104.0995963906
 30
0.0
 10
220.8130646137
 20
105.0711479231
 30
0.0
 10
211.1774056489
 20
105.3900906355
 30
0.0
 10
201.5417534267
 20
105.070263596
 30
0.0
 10
191.9494748141
 20
104.0978093558
 30
0.0
 10
182.4527639081
 20
102.4284934181
 30
0.0
 10
173.1236512382
 20
99.9782570354
 30
0.0
 10
164.0851122892
 20
96.6060656887
 30
0.0
 10
156.9636954582
 20
92.8247471287
 30
0.0
 10
151.7736303479
 20
89.0282585453
 30
0.0
 10
148.2495382145
 20
85.7256354305
 30
0.0
 10
145.2735065933
 20
81.9160888031
 30
0.0
 10
143.8228863098
 20
79.0205128555
 30
0.0
 10
143.2835529998
 20
77.5111215898
 30
0.0
  0
SPLINE
  5
631
100
AcDbEntity
  8
0
100
AcDbSpline
 62
9
  6
CONTINUOUS
 70
0
 71
3
 72
33
 73
29
 74
0
 42
0.0000001
 43
0.0000001
 44
0.0000000001
 40
0.0
 40
0.0
 40
0.0
 40
0.0
 40
0.0003795307
 40
0.0008424718
 40
0.0014813296
 40
0.0032681971
 40
0.0057025589
 40
0.0087355623
 40
0.0123055977
 40
0.020808059
 40
0.0307692939
 40
0.0418862194
 40
0.0538878069
 40
0.0665985389
 40
0.093651608
 40
0.1223036143
 40
0.1521123073
 40
0.1828026098
 40
0.2141765052
 40
0.2461063561
 40
0.3112496524
 40
0.377696633
 40
0.4451125957
 40
0.5132699574
 40
0.5820012297
 40
0.7206642414
 40
0.8602638694
 40
1.0
 40
1.0
 40
1.0
 40
1.0
 10
86.1840148764
 20
391.7581335765
 30
0.0
 10
86.1872104123
 20
391.7687021651
 30
0.0
 10
86.2092955805
 20
391.7839816256
 30
0.0
 10
86.234376349
 20
391.8182662286
 30
0.0
 10
86.2911470688
 20
391.880825234
 30
0.0
 10
86.3828336713
 20
391.9880566221
 30
0.0
 10
86.5225757832
 20
392.1463943987
 30
0.0
 10
86.6964331207
 20
392.3435435619
 30
0.0
 10
86.9889710768
 20
392.6714976494
 30
0.0
 10
87.4195336613
 20
393.1463581188
 30
0.0
 10
88.0058815024
 20
393.7762676375
 30
0.0
 10
88.6703012951
 20
394.4724670395
 30
0.0
 10
89.4002190221
 20
395.2166030577
 30
0.0
 10
90.4688975458
 20
396.2776747144
 30
0.0
 10
91.9086825619
 20
397.652199748
 30
0.0
 10
93.7494225399
 20
399.3259854045
 30
0.0
 10
95.7075525278
 20
401.0269471992
 30
0.0
 10
97.7625226237
 20
402.7362078989
 30
0.0
 10
99.9002037935
 20
404.4416292402
 30
0.0
 10
102.866488066
 20
406.7144483555
 30
0.0
 10
106.7246810145
 20
409.4992704184
 30
0.0
 10
111.5391854925
 20
412.7166206251
 30
0.0
 10
116.5381513542
 20
415.8092312207
 30
0.0
 10
121.6983119826
 20
418.7609624161
 30
0.0
 10
128.7889863511
 20
422.5029139741
 30
0.0
 10
137.9515609924
 20
426.7593472608
 30
0.0
 10
149.3045696927
 20
431.1390995862
 30
0.0
 10
157.0701413876
 20
433.5572531801
 30
0.0
 10
160.9892035842
 20
434.6372040703
 30
0.0
  0
SPLINE
  5
632
100
AcDbEntity
  8
0
100
AcDbSpline
 62
9
  6
CONTINUOUS
 70
0
 71
3
 72
11
 73
7
 74
0
 42
0.0000001
 43
0.0000001
 44
0.0000000001
 40
0.0
 40
0.0
 40
0.0
 40
0.0
 40
0.25010499
 40
0.5001155131
 40
0.750066086
 40
1.0
 40
1.0
 40
1.0
 40
1.0
 10
-738.4792158936
 20
151.2250708407
 30
0.0
 10
-738.8952562832
 20
150.8500467658
 30
0.0
 10
-739.6505565378
 20
150.0098903647
 30
0.0
 10
-740.4944289171
 20
148.5437097477
 30
0.0
 10
-741.0157945565
 20
146.9348166663
 30
0.0
 10
-741.1332399745
 20
145.8118259977
 30
0.0
 10
-741.1332388629
 20
145.2520906919
 30
0.0
  0
SPLINE
  5
633
100
AcDbEntity
  8
0
100
AcDbSpline
 62
9
  6
CONTINUOUS
 70
0
 71
3
 72
11
 73
7
 74
0
 42
0.0000001
 43
0.0000001
 44
0.0000000001
 40
0.0
 40
0.0
 40
0.0
 40
0.0
 40
0.2499922568
 40
0.4999916916
 40
0.7499953028
 40
1.0
 40
1.0
 40
1.0
 40
1.0
 10
-736.556457883
 20
148.9564548651
 30
0.0
 10
-736.8161916316
 20
148.7096553076
 30
0.0
 10
-737.284149159
 20
148.1585405057
 30
0.0
 10
-737.795660279
 20
147.2044090311
 30
0.0
 10
-738.0970833684
 20
146.1646774286
 30
0.0
 10
-738.1494613588
 20
145.4437651467
 30
0.0
 10
-738.1378597662
 20
145.0856453044
 30
0.0
  0
SPLINE
  5
634
100
AcDbEntity
  8
0
100
AcDbSpline
 62
9
  6
CONTINUOUS
 70
0
 71
3
 72
10
 73
6
 74
0
 42
0.0000001
 43
0.0000001
 44
0.0000000001
 40
0.0
 40
0.0
 40
0.0
 40
0.0
 40
0.2499999497
 40
0.5000000093
 40
1.0
 40
1.0
 40
1.0
 40
1.0
 10
-704.9227540362
 20
176.1834756769
 30
0.0
 10
-707.5255920409
 20
173.9104977418
 30
0.0
 10
-712.7440944395
 20
169.3792215554
 30
0.0
 10
-723.2150972297
 20
160.3560442217
 30
0.0
 10
-731.0946486048
 20
153.6192589337
 30
0.0
 10
-736.3537830147
 20
149.1352540059
 30
0.0
  0
SPLINE
  5
635
100
AcDbEntity
  8
0
100
AcDbSpline
 62
9
  6
CONTINUOUS
 70
0
 71
3
 72
11
 73
7
 74
0
 42
0.0000001
 43
0.0000001
 44
0.0000000001
 40
0.0
 40
0.0
 40
0.0
 40
0.0
 40
0.249986353
 40
0.4999790986
 40
0.7499828792
 40
1.0
 40
1.0
 40
1.0
 40
1.0
 10
-701.3910149238
 20
177.6802783899
 30
0.0
 10
-701.6966206107
 20
177.6802784997
 30
0.0
 10
-702.3094153545
 20
177.6217624695
 30
0.0
 10
-703.1942757581
 20
177.3623237828
 30
0.0
 10
-704.0153247855
 20
176.9428552468
 30
0.0
 10
-704.5027532607
 20
176.5674363881
 30
0.0
 10
-704.727139778
 20
176.3599068292
 30
0.0
  0
SPLINE
  5
636
100
AcDbEntity
  8
0
100
AcDbSpline
 62
9
  6
CONTINUOUS
 70
0
 71
3
 72
15
 73
11
 74
0
 42
0.0000001
 43
0.0000001
 44
0.0000000001
 40
0.0
 40
0.0
 40
0.0
 40
0.0
 40
0.125006382
 40
0.2500346131
 40
0.3750465783
 40
0.5000554918
 40
0.6250754523
 40
0.7500595886
 40
0.875032936
 40
1.0
 40
1.0
 40
1.0
 40
1.0
 10
-676.0843782304
 20
176.0985385791
 30
0.0
 10
-676.0512064372
 20
176.1849241525
 30
0.0
 10
-676.0049996669
 20
176.3662714906
 30
0.0
 10
-676.0022977701
 20
176.6464673411
 30
0.0
 10
-676.0655117732
 20
176.9193464947
 30
0.0
 10
-676.1885406016
 20
177.1710590833
 30
0.0
 10
-676.3686102598
 20
177.3859262378
 30
0.0
 10
-676.5947561521
 20
177.5516646124
 30
0.0
 10
-676.8548632952
 20
177.6563492812
 30
0.0
 10
-677.0407323793
 20
177.6802779621
 30
0.0
 10
-677.1332388629
 20
177.6802783899
 30
0.0
  0
SPLINE
  5
637
100
AcDbEntity
  8
0
100
AcDbSpline
 62
9
  6
CONTINUOUS
 70
0
 71
3
 72
9
 73
5
 74
0
 42
0.0000001
 43
0.0000001
 44
0.0000000001
 40
0.0
 40
0.0
 40
0.0
 40
0.0
 40
0.4996362299
 40
1.0
 40
1.0
 40
1.0
 40
1.0
 10
-676.1332388629
 20
175.8716011325
 30
0.0
 10
-676.1332393762
 20
175.9104332748
 30
0.0
 10
-676.1232022428
 20
175.988348579
 30
0.0
 10
-676.0983034991
 20
176.0622285681
 30
0.0
 10
-676.0843782304
 20
176.0985385791
 30
0.0
  0
LINE
  5
638
100
AcDbEntity
  8
0
100
AcDbLine
 62
9
  6
CONTINUOUS
 10
-742.6332388663
 20
307.0340882898
 11
-742.6332388662
 21
291.2836039511
  0
LINE
  5
639
100
AcDbEntity
  8
0
100
AcDbLine
 62
9
  6
CONTINUOUS
 10
-742.6332388663
 20
151.2836039503
 11
-742.6332388662
 21
135.5331196121
  0
LINE
  5
63A
100
AcDbEntity
  8
0
100
AcDbLine
 62
9
  6
CONTINUOUS
 10
-706.8359137367
 20
264.1623742107
 11
-706.5333158013
 21
263.8993050357
  0
LINE
  5
63B
100
AcDbEntity
  8
0
100
AcDbLine
 62
9
  6
CONTINUOUS
 10
-706.5333158013
 20
178.6679028547
 11
-706.8359137367
 21
178.4048336915
  0
SPLINE
  5
63C
100
AcDbEntity
  8
0
100
AcDbSpline
 62
9
  6
CONTINUOUS
 70
0
 71
3
 72
9
 73
5
 74
0
 42
0.0000001
 43
0.0000001
 44
0.0000000001
 40
0.0
 40
0.0
 40
0.0
 40
0.0
 40
0.5003743843
 40
1.0
 40
1.0
 40
1.0
 40
1.0
 10
-676.0843782304
 20
266.4686693231
 30
0.0
 10
-676.0983127679
 20
266.5049768019
 30
0.0
 10
-676.1232063765
 20
266.578860115
 30
0.0
 10
-676.133238848
 20
266.6567753216
 30
0.0
 10
-676.1332388629
 20
266.6956067697
 30
0.0
  0
SPLINE
  5
63D
100
AcDbEntity
  8
0
100
AcDbSpline
 62
9
  6
CONTINUOUS
 70
0
 71
3
 72
15
 73
11
 74
0
 42
0.0000001
 43
0.0000001
 44
0.0000000001
 40
0.0
 40
0.0
 40
0.0
 40
0.0
 40
0.1249672828
 40
0.2499407843
 40
0.37492496
 40
0.4999450453
 40
0.6249539373
 40
0.7499658132
 40
0.8749938596
 40
1.0
 40
1.0
 40
1.0
 40
1.0
 10
-677.1332388629
 20
264.8869295123
 30
0.0
 10
-677.0407322033
 20
264.8869299053
 30
0.0
 10
-676.8548628339
 20
264.9108587663
 30
0.0
 10
-676.5947553269
 20
265.0155435681
 30
0.0
 10
-676.3686095527
 20
265.181282444
 30
0.0
 10
-676.1885387958
 20
265.3961488168
 30
0.0
 10
-676.0655122405
 20
265.6478635626
 30
0.0
 10
-676.0022991049
 20
265.9207394296
 30
0.0
 10
-676.0049851902
 20
266.2009429358
 30
0.0
 10
-676.0512409965
 20
266.3822706635
 30
0.0
 10
-676.0843782304
 20
266.4686693231
 30
0.0
  0
SPLINE
  5
63E
100
AcDbEntity
  8
0
100
AcDbSpline
 62
9
  6
CONTINUOUS
 70
0
 71
3
 72
11
 73
7
 74
0
 42
0.0000001
 43
0.0000001
 44
0.0000000001
 40
0.0
 40
0.0
 40
0.0
 40
0.0
 40
0.2500171163
 40
0.5000209104
 40
0.750013656
 40
1.0
 40
1.0
 40
1.0
 40
1.0
 10
-704.7271367826
 20
266.2072987283
 30
0.0
 10
-704.5027522777
 20
265.9997674613
 30
0.0
 10
-704.0153225008
 20
265.6243505245
 30
0.0
 10
-703.1942737391
 20
265.2048843303
 30
0.0
 10
-702.3094144445
 20
264.9454451766
 30
0.0
 10
-701.6966202877
 20
264.8869294067
 30
0.0
 10
-701.3910149238
 20
264.8869295123
 30
0.0
  0
SPLINE
  5
63F
100
AcDbEntity
  8
0
100
AcDbSpline
 62
9
  6
CONTINUOUS
 70
0
 71
3
 72
10
 73
6
 74
0
 42
0.0000001
 43
0.0000001
 44
0.0000000001
 40
0.0
 40
0.0
 40
0.0
 40
0.0
 40
0.4999999908
 40
0.7500000501
 40
1.0
 40
1.0
 40
1.0
 40
1.0
 10
-736.3537830406
 20
293.4319539182
 30
0.0
 10
-731.0946488399
 20
288.947948734
 30
0.0
 10
-723.2150972011
 20
282.2111637457
 30
0.0
 10
-712.7440944523
 20
273.187986346
 30
0.0
 10
-707.5255920305
 20
268.6567101799
 30
0.0
 10
-704.9227540362
 20
266.3837322253
 30
0.0
  0
SPLINE
  5
640
100
AcDbEntity
  8
0
100
AcDbSpline
 62
9
  6
CONTINUOUS
 70
0
 71
3
 72
11
 73
7
 74
0
 42
0.0000001
 43
0.0000001
 44
0.0000000001
 40
0.0
 40
0.0
 40
0.0
 40
0.0
 40
0.2500047083
 40
0.5000083304
 40
0.7500077661
 40
1.0
 40
1.0
 40
1.0
 40
1.0
 10
-738.1378597662
 20
297.4815625978
 30
0.0
 10
-738.1494600345
 20
297.1234426717
 30
0.0
 10
-738.097085223
 20
296.4025303202
 30
0.0
 10
-737.7956610698
 20
295.3627984252
 30
0.0
 10
-737.2841486346
 20
294.4086678158
 30
0.0
 10
-736.8161916015
 20
293.857552615
 30
0.0
 10
-736.556457883
 20
293.6107530371
 30
0.0
  0
SPLINE
  5
641
100
AcDbEntity
  8
0
100
AcDbSpline
 62
9
  6
CONTINUOUS
 70
0
 71
3
 72
11
 73
7
 74
0
 42
0.0000001
 43
0.0000001
 44
0.0000000001
 40
0.0
 40
0.0
 40
0.0
 40
0.0
 40
0.2498447431
 40
0.4986303534
 40
0.7481823148
 40
1.0
 40
1.0
 40
1.0
 40
1.0
 10
-742.1310602997
 20
132.4106206049
 30
0.0
 10
-742.0552200353
 20
132.1245678613
 30
0.0
 10
-741.8671880632
 20
131.562313937
 30
0.0
 10
-741.4543725303
 20
130.7728632205
 30
0.0
 10
-740.8891837504
 20
130.0781369165
 30
0.0
 10
-740.3998129314
 20
129.7237952648
 30
0.0
 10
-740.1332388629
 20
129.5899864714
 30
0.0
  0
SPLINE
  5
642
100
AcDbEntity
  8
0
100
AcDbSpline
 62
9
  6
CONTINUOUS
 70
0
 71
3
 72
11
 73
7
 74
0
 42
0.0000001
 43
0.0000001
 44
0.0000000001
 40
0.0
 40
0.0
 40
0.0
 40
0.0
 40
0.2518297471
 40
0.5014044018
 40
0.7501893398
 40
1.0
 40
1.0
 40
1.0
 40
1.0
 10
-740.1332388629
 20
312.9772211911
 30
0.0
 10
-740.3993536477
 20
312.8427122855
 30
0.0
 10
-740.8876466054
 20
312.4873540627
 30
0.0
 10
-741.4521887818
 20
311.7926354097
 30
0.0
 10
-741.8655994507
 20
311.0039507414
 30
0.0
 10
-742.0546245287
 20
310.4423272807
 30
0.0
 10
-742.1310601527
 20
310.1565872973
 30
0.0
  0
SPLINE
  5
643
100
AcDbEntity
  8
0
100
AcDbSpline
 62
9
  6
CONTINUOUS
 70
0
 71
3
 72
26
 73
22
 74
0
 42
0.0000001
 43
0.0000001
 44
0.0000000001
 40
0.0
 40
0.0
 40
0.0
 40
0.0
 40
0.2158186368
 40
0.4124940168
 40
0.5857231353
 40
0.6623897961
 40
0.7318971924
 40
0.7939078478
 40
0.8481319189
 40
0.8943283627
 40
0.9323060897
 40
0.9481671377
 40
0.9619249371
 40
0.9735700186
 40
0.9830961566
 40
0.9905003691
 40
0.9957829041
 40
0.9976294971
 40
0.998947234
 40
0.9997370134
 40
1.0
 40
1.0
 40
1.0
 40
1.0
 10
-742.3931057961
 20
309.0701738792
 30
0.0
 10
-742.4044908034
 20
308.9230731857
 30
0.0
 10
-742.4285622788
 20
308.6420935417
 30
0.0
 10
-742.4686962815
 20
308.2436785257
 30
0.0
 10
-742.503399236
 20
307.9403568293
 30
0.0
 10
-742.5303987579
 20
307.7236768692
 30
0.0
 10
-742.5489046258
 20
307.5825622869
 30
0.0
 10
-742.566227383
 20
307.4567692342
 30
0.0
 10
-742.5820980329
 20
307.3468651099
 30
0.0
 10
-742.5962545502
 20
307.2533161147
 30
0.0
 10
-742.6069619199
 20
307.185771106
 30
0.0
 10
-742.6144691834
 20
307.1401743579
 30
0.0
 10
-742.6191576299
 20
307.1123556631
 30
0.0
 10
-742.6232281065
 20
307.0888311474
 30
0.0
 10
-742.6266171032
 20
307.0695793699
 30
0.0
 10
-742.629369334
 20
307.0546779933
 30
0.0
 10
-742.6311008811
 20
307.0448268905
 30
0.0
 10
-742.632292856
 20
307.0392653218
 30
0.0
 10
-742.6326161812
 20
307.0364278838
 30
0.0
 10
-742.6332567626
 20
307.0351599656
 30
0.0
 10
-742.63305388
 20
307.0341199579
 30
0.0
 10
-742.6332293177
 20
307.0340806559
 30
0.0
  0
SPLINE
  5
644
100
AcDbEntity
  8
0
100
AcDbSpline
 62
9
  6
CONTINUOUS
 70
0
 71
3
 72
9
 73
5
 74
0
 42
0.0000001
 43
0.0000001
 44
0.0000000001
 40
0.0
 40
0.0
 40
0.0
 40
0.0
 40
0.2545525327
 40
1.0
 40
1.0
 40
1.0
 40
1.0
 10
-742.131060146
 20
310.1565873132
 30
0.0
 10
-742.1696236439
 20
310.0696543717
 30
0.0
 10
-742.3033766884
 20
309.7202861187
 30
0.0
 10
-742.3716155053
 20
309.347847496
 30
0.0
 10
-742.3931057961
 20
309.0701738792
 30
0.0
  0
SPLINE
  5
645
100
AcDbEntity
  8
0
100
AcDbSpline
 62
9
  6
CONTINUOUS
 70
0
 71
3
 72
17
 73
13
 74
0
 42
0.0000001
 43
0.0000001
 44
0.0000000001
 40
0.0
 40
0.0
 40
0.0
 40
0.0
 40
0.069366526
 40
0.1375361153
 40
0.2040343917
 40
0.2689775419
 40
0.3951913977
 40
0.5184692822
 40
0.6400027041
 40
0.7604906685
 40
0.88038269
 40
1.0
 40
1.0
 40
1.0
 40
1.0
 10
-676.1332388629
 20
129.2836039511
 30
0.0
 10
-675.9858322525
 20
129.2835964208
 30
0.0
 10
-675.6923826544
 20
129.32025461
 30
0.0
 10
-675.2831583577
 20
129.4728640238
 30
0.0
 10
-674.9202109678
 20
129.696739117
 30
0.0
 10
-674.5042989757
 20
130.0554838714
 30
0.0
 10
-674.0864405743
 20
130.5843473543
 30
0.0
 10
-673.7141623089
 20
131.2824828439
 30
0.0
 10
-673.4451689036
 20
132.0128274455
 30
0.0
 10
-673.2625974041
 20
132.7613849978
 30
0.0
 10
-673.156468239
 20
133.5201331648
 30
0.0
 10
-673.133250797
 20
134.0294124381
 30
0.0
 10
-673.1332388629
 20
134.2836039511
 30
0.0
  0
SPLINE
  5
646
100
AcDbEntity
  8
0
100
AcDbSpline
 62
9
  6
CONTINUOUS
 70
0
 71
3
 72
26
 73
22
 74
0
 42
0.0000001
 43
0.0000001
 44
0.0000000001
 40
0.0
 40
0.0
 40
0.0
 40
0.0
 40
0.000262404
 40
0.0010504725
 40
0.0023654235
 40
0.0042082119
 40
0.0094803035
 40
0.0168706783
 40
0.0263800533
 40
0.0380059254
 40
0.0517425554
 40
0.0675809664
 40
0.1055109983
 40
0.151659851
 40
0.20584038
 40
0.2678153494
 40
0.3372984683
 40
0.4139554087
 40
0.5872180932
 40
0.7840043199
 40
1.0
 40
1.0
 40
1.0
 40
1.0
 10
-742.6332293187
 20
135.5331272456
 30
0.0
 10
-742.6330534064
 20
135.5330920583
 30
0.0
 10
-742.6332523686
 20
135.5320455625
 30
0.0
 10
-742.6326056039
 20
135.5307908675
 30
0.0
 10
-742.6322706162
 20
135.5279564896
 30
0.0
 10
-742.6310554083
 20
135.5224139168
 30
0.0
 10
-742.6292850379
 20
135.5125869255
 30
0.0
 10
-742.626476893
 20
135.4977246291
 30
0.0
 10
-742.623019729
 20
135.4785182139
 30
0.0
 10
-742.6188706304
 20
135.4550460003
 30
0.0
 10
-742.6140947129
 20
135.4272843986
 30
0.0
 10
-742.6064524839
 20
135.3817711406
 30
0.0
 10
-742.5955658417
 20
135.3143328512
 30
0.0
 10
-742.5811972437
 20
135.2209072845
 30
0.0
 10
-742.5651197953
 20
135.1111150457
 30
0.0
 10
-742.5476100841
 20
134.9854127048
 30
0.0
 10
-742.528952539
 20
134.8443587234
 30
0.0
 10
-742.5018109263
 20
134.6276854681
 30
0.0
 10
-742.4671280765
 20
134.3242516052
 30
0.0
 10
-742.4274450474
 20
133.9255480835
 30
0.0
 10
-742.4040405677
 20
133.6442976816
 30
0.0
 10
-742.3931059045
 20
133.4970339553
 30
0.0
  0
SPLINE
  5
647
100
AcDbEntity
  8
0
100
AcDbSpline
 62
9
  6
CONTINUOUS
 70
0
 71
3
 72
9
 73
5
 74
0
 42
0.0000001
 43
0.0000001
 44
0.0000000001
 40
0.0
 40
0.0
 40
0.0
 40
0.0
 40
0.2457070416
 40
1.0
 40
1.0
 40
1.0
 40
1.0
 10
-742.3931059045
 20
133.4970339553
 30
0.0
 10
-742.3863110029
 20
133.4055206344
 30
0.0
 10
-742.3451017496
 20
133.034361488
 30
0.0
 10
-742.2444356925
 20
132.6685080542
 30
0.0
 10
-742.1310602904
 20
132.4106205825
 30
0.0
  0
SPLINE
  5
648
100
AcDbEntity
  8
0
100
AcDbSpline
 62
9
  6
CONTINUOUS
 70
0
 71
3
 72
15
 73
11
 74
0
 42
0.0000001
 43
0.0000001
 44
0.0000000001
 40
0.0
 40
0.0
 40
0.0
 40
0.0
 40
0.1235858319
 40
0.2473764065
 40
0.3715641129
 40
0.4962744733
 40
0.62155484
 40
0.7473615942
 40
0.8735716456
 40
1.0
 40
1.0
 40
1.0
 40
1.0
 10
-673.1332388629
 20
176.6377754786
 30
0.0
 10
-673.1332379607
 20
176.8935374736
 30
0.0
 10
-673.1847875699
 20
177.4069576078
 30
0.0
 10
-673.4137596311
 20
178.1461497316
 30
0.0
 10
-673.7856022749
 20
178.8277427972
 30
0.0
 10
-674.2861060336
 20
179.4251818656
 30
0.0
 10
-674.8960536584
 20
179.9156368525
 30
0.0
 10
-675.5921811826
 20
180.2801639124
 30
0.0
 10
-676.347359475
 20
180.5046904537
 30
0.0
 10
-676.8715942417
 20
180.5552230493
 30
0.0
 10
-677.1332388629
 20
180.5552229324
 30
0.0
  0
SPLINE
  5
649
100
AcDbEntity
  8
0
100
AcDbSpline
 62
9
  6
CONTINUOUS
 70
0
 71
3
 72
17
 73
13
 74
0
 42
0.0000001
 43
0.0000001
 44
0.0000000001
 40
0.0
 40
0.0
 40
0.0
 40
0.0
 40
0.3741274899
 40
0.5434854774
 40
0.6923963745
 40
0.7574468983
 40
0.815435432
 40
0.8658755442
 40
0.9083893822
 40
0.9427567087
 40
0.9689983507
 40
1.0
 40
1.0
 40
1.0
 40
1.0
 10
-677.1332388629
 20
213.8110764786
 30
0.0
 10
-676.6226132908
 20
213.8110817042
 30
0.0
 10
-675.8805459044
 20
213.7928545759
 30
0.0
 10
-674.9377238543
 20
213.7268466093
 30
0.0
 10
-674.4173075512
 20
213.6715778991
 30
0.0
 10
-674.0499149566
 20
213.6182585144
 30
0.0
 10
-673.8167628763
 20
213.5771663351
 30
0.0
 10
-673.6151607088
 20
213.5333710725
 30
0.0
 10
-673.4479301806
 20
213.4882382303
 30
0.0
 10
-673.3135233312
 20
213.4399908607
 30
0.0
 10
-673.2053580505
 20
213.3883283307
 30
0.0
 10
-673.1332481301
 20
213.3259163578
 30
0.0
 10
-673.1332388629
 20
213.2836039511
 30
0.0
  0
SPLINE
  5
64A
100
AcDbEntity
  8
0
100
AcDbSpline
 62
9
  6
CONTINUOUS
 70
0
 71
3
 72
15
 73
11
 74
0
 42
0.0000001
 43
0.0000001
 44
0.0000000001
 40
0.0
 40
0.0
 40
0.0
 40
0.0
 40
0.1264284987
 40
0.2526386568
 40
0.378445447
 40
0.5037258607
 40
0.6284362738
 40
0.7526238955
 40
0.8764143201
 40
1.0
 40
1.0
 40
1.0
 40
1.0
 10
-677.1332388629
 20
262.0119849698
 30
0.0
 10
-676.8715939419
 20
262.0119848473
 30
0.0
 10
-676.3473586481
 20
262.0625175452
 30
0.0
 10
-675.5921798322
 20
262.2870444656
 30
0.0
 10
-674.8960520976
 20
262.6515719874
 30
0.0
 10
-674.2861044453
 20
263.1420273994
 30
0.0
 10
-673.7856010855
 20
263.7394669142
 30
0.0
 10
-673.4137591733
 20
264.4210597782
 30
0.0
 10
-673.1847866401
 20
265.1602512459
 30
0.0
 10
-673.1332397923
 20
265.6736707417
 30
0.0
 10
-673.1332388629
 20
265.9294324236
 30
0.0
  0
SPLINE
  5
64B
100
AcDbEntity
  8
0
100
AcDbSpline
 62
9
  6
CONTINUOUS
 70
0
 71
3
 72
17
 73
13
 74
0
 42
0.0000001
 43
0.0000001
 44
0.0000000001
 40
0.0
 40
0.0
 40
0.0
 40
0.0
 40
0.1196168409
 40
0.2395081303
 40
0.3599957248
 40
0.4815289086
 40
0.6048071179
 40
0.7310216175
 40
0.795965457
 40
0.8624655729
 40
0.9306353425
 40
1.0
 40
1.0
 40
1.0
 40
1.0
 10
-673.1332388629
 20
308.2836039511
 30
0.0
 10
-673.1332501602
 20
308.5377944783
 30
0.0
 10
-673.1564679941
 20
309.0470712633
 30
0.0
 10
-673.2625967245
 20
309.805816028
 30
0.0
 10
-673.4451649006
 20
310.5543715182
 30
0.0
 10
-673.7141580445
 20
311.2847156316
 30
0.0
 10
-674.086435424
 20
311.9828533565
 30
0.0
 10
-674.5042951836
 20
312.5117203098
 30
0.0
 10
-674.9202115607
 20
312.8704704464
 30
0.0
 10
-675.2831648003
 20
313.0943474194
 30
0.0
 10
-675.6923902603
 20
313.2469547572
 30
0.0
 10
-675.985836217
 20
313.2836114807
 30
0.0
 10
-676.1332388629
 20
313.2836039511
 30
0.0
  0
SPLINE
  5
64C
100
AcDbEntity
  8
0
100
AcDbSpline
 62
9
  6
CONTINUOUS
 70
0
 71
3
 72
11
 73
7
 74
0
 42
0.0000001
 43
0.0000001
 44
0.0000000001
 40
0.0
 40
0.0
 40
0.0
 40
0.0
 40
0.2502221255
 40
0.5003438214
 40
0.7502849025
 40
1.0
 40
1.0
 40
1.0
 40
1.0
 10
-701.3910149238
 20
180.5552229324
 30
0.0
 10
-701.8568290041
 20
180.5552227457
 30
0.0
 10
-702.7903367154
 20
180.4727768133
 30
0.0
 10
-704.1452322926
 20
180.1058244516
 30
0.0
 10
-705.414314885
 20
179.5082867564
 30
0.0
 10
-706.1784541201
 20
178.9681985191
 30
0.0
 10
-706.5333158013
 20
178.6679028547
 30
0.0
  0
SPLINE
  5
64D
100
AcDbEntity
  8
0
100
AcDbSpline
 62
9
  6
CONTINUOUS
 70
0
 71
3
 72
17
 73
13
 74
0
 42
0.0000001
 43
0.0000001
 44
0.0000000001
 40
0.0
 40
0.0
 40
0.0
 40
0.0
 40
0.0310016494
 40
0.0572432913
 40
0.0916106178
 40
0.1341244559
 40
0.184564568
 40
0.2425531017
 40
0.3076036255
 40
0.4565145226
 40
0.6258725101
 40
1.0
 40
1.0
 40
1.0
 40
1.0
 10
-673.1332388629
 20
229.2836039511
 30
0.0
 10
-673.1332481297
 20
229.2412915442
 30
0.0
 10
-673.2053580501
 20
229.1788795706
 30
0.0
 10
-673.3135233315
 20
229.1272170422
 30
0.0
 10
-673.4479301806
 20
229.0789696721
 30
0.0
 10
-673.6151607087
 20
229.0338368293
 30
0.0
 10
-673.8167628763
 20
228.9900415671
 30
0.0
 10
-674.0499149566
 20
228.9489493879
 30
0.0
 10
-674.4173075512
 20
228.895630003
 30
0.0
 10
-674.9377238544
 20
228.8403612929
 30
0.0
 10
-675.8805459044
 20
228.7743533263
 30
0.0
 10
-676.6226132908
 20
228.7561261981
 30
0.0
 10
-677.1332388629
 20
228.7561314236
 30
0.0
  0
SPLINE
  5
64E
100
AcDbEntity
  8
0
100
AcDbSpline
 62
9
  6
CONTINUOUS
 70
0
 71
3
 72
9
 73
5
 74
0
 42
0.0000001
 43
0.0000001
 44
0.0000000001
 40
0.0
 40
0.0
 40
0.0
 40
0.0
 40
0.4678041939
 40
1.0
 40
1.0
 40
1.0
 40
1.0
 10
-706.5333158013
 20
213.677543402
 30
0.0
 10
-705.7324667622
 20
213.724292567
 30
0.0
 10
-704.0185410288
 20
213.7899205903
 30
0.0
 10
-702.3036490094
 20
213.8110793818
 30
0.0
 10
-701.3910149238
 20
213.8110764786
 30
0.0
  0
SPLINE
  5
64F
100
AcDbEntity
  8
0
100
AcDbSpline
 62
9
  6
CONTINUOUS
 70
0
 71
3
 72
11
 73
7
 74
0
 42
0.0000001
 43
0.0000001
 44
0.0000000001
 40
0.0
 40
0.0
 40
0.0
 40
0.0
 40
0.2497151649
 40
0.4996562505
 40
0.7497779282
 40
1.0
 40
1.0
 40
1.0
 40
1.0
 10
-706.5333158013
 20
263.8993050357
 30
0.0
 10
-706.1784516334
 20
263.5990121116
 30
0.0
 10
-705.4143159192
 20
263.0589194286
 30
0.0
 10
-704.1452315957
 20
262.4613838348
 30
0.0
 10
-702.7903366071
 20
262.094430748
 30
0.0
 10
-701.8568289067
 20
262.0119851992
 30
0.0
 10
-701.3910149238
 20
262.0119849698
 30
0.0
  0
SPLINE
  5
650
100
AcDbEntity
  8
0
100
AcDbSpline
 62
9
  6
CONTINUOUS
 70
0
 71
3
 72
9
 73
5
 74
0
 42
0.0000001
 43
0.0000001
 44
0.0000000001
 40
0.0
 40
0.0
 40
0.0
 40
0.0
 40
0.5321958061
 40
1.0
 40
1.0
 40
1.0
 40
1.0
 10
-701.3910149238
 20
228.7561314236
 30
0.0
 10
-702.3036490094
 20
228.7561285202
 30
0.0
 10
-704.0185410285
 20
228.7772873168
 30
0.0
 10
-705.7324667626
 20
228.842915327
 30
0.0
 10
-706.5333158013
 20
228.8896645002
 30
0.0
  0
SPLINE
  5
651
100
AcDbEntity
  8
0
100
AcDbSpline
 62
9
  6
CONTINUOUS
 70
0
 71
3
 72
19
 73
15
 74
0
 42
0.0000001
 43
0.0000001
 44
0.0000000001
 40
0.0
 40
0.0
 40
0.0
 40
0.0
 40
0.0090305996
 40
0.0159561434
 40
0.0249171024
 40
0.0493289352
 40
0.0825321479
 40
0.1243939994
 40
0.1745789897
 40
0.2980882706
 40
0.4485028555
 40
0.6201073757
 40
0.8063261773
 40
1.0
 40
1.0
 40
1.0
 40
1.0
 10
-739.3092564303
 20
311.0434921157
 30
0.0
 10
-739.3151252851
 20
311.0409913345
 30
0.0
 10
-739.3278068185
 20
311.0449989816
 30
0.0
 10
-739.341185479
 20
311.0558411244
 30
0.0
 10
-739.3611767458
 20
311.0764547564
 30
0.0
 10
-739.3885027743
 20
311.1147910777
 30
0.0
 10
-739.4248828217
 20
311.1749770053
 30
0.0
 10
-739.4665350489
 20
311.2530673599
 30
0.0
 10
-739.5335617256
 20
311.3898198417
 30
0.0
 10
-739.6261155575
 20
311.5993192255
 30
0.0
 10
-739.7446247202
 20
311.8909132165
 30
0.0
 10
-739.8721630083
 20
312.2265601847
 30
0.0
 10
-740.0037684435
 20
312.5932690534
 30
0.0
 10
-740.090210094
 20
312.8473474324
 30
0.0
 10
-740.1332388629
 20
312.9772211911
 30
0.0
  0
SPLINE
  5
652
100
AcDbEntity
  8
0
100
AcDbSpline
 62
9
  6
CONTINUOUS
 70
0
 71
3
 72
15
 73
11
 74
0
 42
0.0000001
 43
0.0000001
 44
0.0000000001
 40
0.0
 40
0.0
 40
0.0
 40
0.0
 40
0.0314452609
 40
0.0566793922
 40
0.0891336618
 40
0.1761052156
 40
0.2919615575
 40
0.43499023
 40
0.6027193643
 40
1.0
 40
1.0
 40
1.0
 40
1.0
 10
-740.9625900342
 20
309.2809865003
 30
0.0
 10
-740.9574375972
 20
309.2956028115
 30
0.0
 10
-740.969619625
 20
309.3256468744
 30
0.0
 10
-740.9942580387
 20
309.3604940986
 30
0.0
 10
-741.0419718744
 20
309.4144116408
 30
0.0
 10
-741.1282632212
 20
309.4916542405
 30
0.0
 10
-741.2626521549
 20
309.596843966
 30
0.0
 10
-741.4340513378
 20
309.7186367866
 30
0.0
 10
-741.7247869038
 20
309.9117281285
 30
0.0
 10
-741.9624993291
 20
310.0569620647
 30
0.0
 10
-742.1310601527
 20
310.1565872973
 30
0.0
  0
SPLINE
  5
653
100
AcDbEntity
  8
0
100
AcDbSpline
 62
9
  6
CONTINUOUS
 70
0
 71
3
 72
13
 73
9
 74
0
 42
0.0000001
 43
0.0000001
 44
0.0000000001
 40
0.0
 40
0.0
 40
0.0
 40
0.0
 40
0.1325627091
 40
0.2266627794
 40
0.3419355428
 40
0.4782948564
 40
0.634644537
 40
1.0
 40
1.0
 40
1.0
 40
1.0
 10
-741.1332388629
 20
308.2836039511
 30
0.0
 10
-741.1332388629
 20
308.3514312193
 30
0.0
 10
-741.2007611823
 20
308.4612237456
 30
0.0
 10
-741.3291668409
 20
308.5766971082
 30
0.0
 10
-741.4757919626
 20
308.6778413272
 30
0.0
 10
-741.658385229
 20
308.7789095618
 30
0.0
 10
-741.9639670534
 20
308.9210305752
 30
0.0
 10
-742.2153216982
 20
309.0123916477
 30
0.0
 10
-742.3931057961
 20
309.0701738792
 30
0.0
  0
SPLINE
  5
654
100
AcDbEntity
  8
0
100
AcDbSpline
 62
9
  6
CONTINUOUS
 70
0
 71
3
 72
13
 73
9
 74
0
 42
0.0000001
 43
0.0000001
 44
0.0000000001
 40
0.0
 40
0.0
 40
0.0
 40
0.0
 40
0.1335070143
 40
0.2277281042
 40
0.3429602198
 40
0.4791619809
 40
0.6352712052
 40
1.0
 40
1.0
 40
1.0
 40
1.0
 10
-741.1332388629
 20
134.2836039511
 30
0.0
 10
-741.1332388629
 20
134.215243265
 30
0.0
 10
-741.2003302172
 20
134.1045353715
 30
0.0
 10
-741.3290571007
 20
133.9882957213
 30
0.0
 10
-741.4756722813
 20
133.8870109596
 30
0.0
 10
-741.6582905222
 20
133.7860986166
 30
0.0
 10
-741.9638704469
 20
133.6446295094
 30
0.0
 10
-742.2152892452
 20
133.5541188804
 30
0.0
 10
-742.3931059045
 20
133.4970339553
 30
0.0
  0
SPLINE
  5
655
100
AcDbEntity
  8
0
100
AcDbSpline
 62
9
  6
CONTINUOUS
 70
0
 71
3
 72
15
 73
11
 74
0
 42
0.0000001
 43
0.0000001
 44
0.0000000001
 40
0.0
 40
0.0
 40
0.0
 40
0.0
 40
0.0320784689
 40
0.0574739942
 40
0.0900243171
 40
0.1770538395
 40
0.2928471668
 40
0.4357274718
 40
0.6032469669
 40
1.0
 40
1.0
 40
1.0
 40
1.0
 10
-740.9625900613
 20
133.2862214789
 30
0.0
 10
-740.9573299343
 20
133.271299674
 30
0.0
 10
-740.9690272949
 20
133.240720631
 30
0.0
 10
-740.9936788511
 20
133.2052077595
 30
0.0
 10
-741.0411416689
 20
133.1508365345
 30
0.0
 10
-741.127330415
 20
133.0732117706
 30
0.0
 10
-741.26167328
 20
132.9678978056
 30
0.0
 10
-741.4331476494
 20
132.8462800408
 30
0.0
 10
-741.7241279141
 20
132.653875912
 30
0.0
 10
-741.9622075103
 20
132.5095256535
 30
0.0
 10
-742.1310602997
 20
132.4106206049
 30
0.0
  0
SPLINE
  5
656
100
AcDbEntity
  8
0
100
AcDbSpline
 62
9
  6
CONTINUOUS
 70
0
 71
3
 72
19
 73
15
 74
0
 42
0.0000001
 43
0.0000001
 44
0.0000000001
 40
0.0
 40
0.0
 40
0.0
 40
0.0
 40
0.0091889145
 40
0.0161570263
 40
0.0251457512
 40
0.0495863899
 40
0.0827986511
 40
0.1246579078
 40
0.1748326683
 40
0.2983065553
 40
0.4486739301
 40
0.6202244766
 40
0.8063855634
 40
1.0
 40
1.0
 40
1.0
 40
1.0
 10
-739.3092563795
 20
131.5237157649
 30
0.0
 10
-739.3152302276
 20
131.5262612846
 30
0.0
 10
-739.3280866245
 20
131.5224325019
 30
0.0
 10
-739.3417358285
 20
131.5116156373
 30
0.0
 10
-739.3619437724
 20
131.4911156573
 30
0.0
 10
-739.3895231818
 20
131.4528635318
 30
0.0
 10
-739.426130537
 20
131.3927615048
 30
0.0
 10
-739.4679671614
 20
131.3147334915
 30
0.0
 10
-739.535180443
 20
131.178050684
 30
0.0
 10
-739.6278113686
 20
130.9685640693
 30
0.0
 10
-739.7462048061
 20
130.6769063847
 30
0.0
 10
-739.8734187256
 20
130.3411193581
 30
0.0
 10
-740.0045006347
 20
129.9742045533
 30
0.0
 10
-740.0904748692
 20
129.719954284
 30
0.0
 10
-740.1332388629
 20
129.5899864714
 30
0.0
  0
SPLINE
  5
657
100
AcDbEntity
  8
0
100
AcDbSpline
 62
9
  6
CONTINUOUS
 70
0
 71
3
 72
13
 73
9
 74
0
 42
0.0000001
 43
0.0000001
 44
0.0000000001
 40
0.0
 40
0.0
 40
0.0
 40
0.0
 40
0.2966487855
 40
0.5661206922
 40
0.6869145523
 40
0.7980339794
 40
0.9012638156
 40
1.0
 40
1.0
 40
1.0
 40
1.0
 10
-738.2755397393
 20
213.5344074481
 30
0.0
 10
-738.255983708
 20
213.89577977
 30
0.0
 10
-738.1387930848
 20
214.583837529
 30
0.0
 10
-737.7838887888
 20
215.3585991006
 30
0.0
 10
-737.3901276176
 20
215.8312088194
 30
0.0
 10
-737.0668826245
 20
216.0872483057
 30
0.0
 10
-736.7153412948
 20
216.2469808551
 30
0.0
 10
-736.4676315828
 20
216.2836039512
 30
0.0
 10
-736.3471769113
 20
216.2836039513
 30
0.0
  0
LINE
  5
658
100
AcDbEntity
  8
0
100
AcDbLine
 62
9
  6
CONTINUOUS
 10
-676.1332388629
 20
313.2836039511
 11
-738.1332388629
 21
313.2836284474
  0
SPLINE
  5
659
100
AcDbEntity
  8
0
100
AcDbSpline
 62
9
  6
CONTINUOUS
 70
0
 71
3
 72
13
 73
9
 74
0
 42
0.0000001
 43
0.0000001
 44
0.0000000001
 40
0.0
 40
0.0
 40
0.0
 40
0.0
 40
0.2907347026
 40
0.5612889992
 40
0.6844884193
 40
0.7982183271
 40
0.9028324914
 40
1.0
 40
1.0
 40
1.0
 40
1.0
 10
-742.6332388631
 20
213.2836039511
 30
0.0
 10
-742.6332388631
 20
213.6243686407
 30
0.0
 10
-742.5640428984
 20
214.2841968896
 30
0.0
 10
-742.3015929641
 20
215.0522600457
 30
0.0
 10
-741.9918521845
 20
215.5626112768
 30
0.0
 10
-741.7291037241
 20
215.8675628546
 30
0.0
 10
-741.4358584167
 20
216.0971287275
 30
0.0
 10
-741.2183863927
 20
216.197274005
 30
0.0
 10
-741.1094543053
 20
216.2305053988
 30
0.0
  0
SPLINE
  5
65A
100
AcDbEntity
  8
0
100
AcDbSpline
 62
9
  6
CONTINUOUS
 70
0
 71
3
 72
9
 73
5
 74
0
 42
0.0000001
 43
0.0000001
 44
0.0000000001
 40
0.0
 40
0.0
 40
0.0
 40
0.0
 40
0.2529322867
 40
1.0
 40
1.0
 40
1.0
 40
1.0
 10
-741.0838291738
 20
216.2380272164
 30
0.0
 10
-741.0571042093
 20
216.2455643549
 30
0.0
 10
-740.9504907241
 20
216.271857259
 30
0.0
 10
-740.8402536104
 20
216.2836039511
 30
0.0
 10
-740.7582388631
 20
216.2836039511
 30
0.0
  0
SPLINE
  5
65B
100
AcDbEntity
  8
0
100
AcDbSpline
 62
9
  6
CONTINUOUS
 70
0
 71
3
 72
9
 73
5
 74
0
 42
0.0000001
 43
0.0000001
 44
0.0000000001
 40
0.0
 40
0.0
 40
0.0
 40
0.0
 40
0.500072959
 40
1.0
 40
1.0
 40
1.0
 40
1.0
 10
-738.1332388629
 20
313.2836284474
 30
0.0
 10
-738.4715949245
 20
313.2836283209
 30
0.0
 10
-739.1492952859
 20
313.2377210884
 30
0.0
 10
-739.812145341
 20
313.0836024513
 30
0.0
 10
-740.1332388629
 20
312.9772211911
 30
0.0
  0
SPLINE
  5
65C
100
AcDbEntity
  8
0
100
AcDbSpline
 62
9
  6
CONTINUOUS
 70
0
 71
3
 72
13
 73
9
 74
0
 42
0.0000001
 43
0.0000001
 44
0.0000000001
 40
0.0
 40
0.0
 40
0.0
 40
0.0
 40
0.2907347026
 40
0.5612889991
 40
0.6844884193
 40
0.7982183271
 40
0.9028324914
 40
1.0
 40
1.0
 40
1.0
 40
1.0
 10
-742.6332388626
 20
229.2836039511
 30
0.0
 10
-742.6332388626
 20
228.9428392616
 30
0.0
 10
-742.5640428986
 20
228.2830110127
 30
0.0
 10
-742.3015929642
 20
227.5149478568
 30
0.0
 10
-741.9918521847
 20
227.0045966256
 30
0.0
 10
-741.7291037242
 20
226.6996450478
 30
0.0
 10
-741.4358584169
 20
226.4700791748
 30
0.0
 10
-741.2183863929
 20
226.3699338973
 30
0.0
 10
-741.1094543056
 20
226.3367025035
 30
0.0
  0
SPLINE
  5
65D
100
AcDbEntity
  8
0
100
AcDbSpline
 62
9
  6
CONTINUOUS
 70
0
 71
3
 72
9
 73
5
 74
0
 42
0.0000001
 43
0.0000001
 44
0.0000000001
 40
0.0
 40
0.0
 40
0.0
 40
0.0
 40
0.2529322865
 40
1.0
 40
1.0
 40
1.0
 40
1.0
 10
-741.0838291658
 20
226.3291806835
 30
0.0
 10
-741.0571042019
 20
226.3216435454
 30
0.0
 10
-740.9504907192
 20
226.2953506426
 30
0.0
 10
-740.8402536082
 20
226.2836039511
 30
0.0
 10
-740.7582388629
 20
226.2836039511
 30
0.0
  0
SPLINE
  5
65E
100
AcDbEntity
  8
0
100
AcDbSpline
 62
9
  6
CONTINUOUS
 70
0
 71
3
 72
13
 73
9
 74
0
 42
0.0000001
 43
0.0000001
 44
0.0000000001
 40
0.0
 40
0.0
 40
0.0
 40
0.0
 40
0.2966487467
 40
0.5661206587
 40
0.6869145348
 40
0.7980339789
 40
0.901263824
 40
1.0
 40
1.0
 40
1.0
 40
1.0
 10
-738.2755375848
 20
229.0328007343
 30
0.0
 10
-738.2559815887
 20
228.6714286289
 30
0.0
 10
-738.138791141
 20
227.9833712293
 30
0.0
 10
-737.7838873575
 20
227.2086099221
 30
0.0
 10
-737.3901266845
 20
226.736000115
 30
0.0
 10
-737.0668820491
 20
226.4799604192
 30
0.0
 10
-736.7153410592
 20
226.3202275274
 30
0.0
 10
-736.4676315158
 20
226.2836041147
 30
0.0
 10
-736.3471769113
 20
226.2836039511
 30
0.0
  0
SPLINE
  5
65F
100
AcDbEntity
  8
0
100
AcDbSpline
 62
9
  6
CONTINUOUS
 70
0
 71
3
 72
13
 73
9
 74
0
 42
0.0000001
 43
0.0000001
 44
0.0000000001
 40
0.0
 40
0.0
 40
0.0
 40
0.0
 40
0.2962097236
 40
0.5645084469
 40
0.6850584478
 40
0.7963874562
 40
0.9002904222
 40
1.0
 40
1.0
 40
1.0
 40
1.0
 10
-706.5333157962
 20
228.8896645012
 30
0.0
 10
-706.5035403324
 20
228.542984411
 30
0.0
 10
-706.3720743665
 20
227.8860469058
 30
0.0
 10
-706.0113346579
 20
227.1517302439
 30
0.0
 10
-705.6220509202
 20
226.7072949111
 30
0.0
 10
-705.3050902797
 20
226.467106692
 30
0.0
 10
-704.9624641287
 20
226.3177472448
 30
0.0
 10
-704.7220814254
 20
226.2836039505
 30
0.0
 10
-704.6049529723
 20
226.28360395
 30
0.0
  0
SPLINE
  5
660
100
AcDbEntity
  8
0
100
AcDbSpline
 62
9
  6
CONTINUOUS
 70
0
 71
3
 72
13
 73
9
 74
0
 42
0.0000001
 43
0.0000001
 44
0.0000000001
 40
0.0
 40
0.0
 40
0.0
 40
0.0
 40
0.2962096918
 40
0.564508425
 40
0.685058441
 40
0.7963874635
 40
0.9002904343
 40
1.0
 40
1.0
 40
1.0
 40
1.0
 10
-706.5333137702
 20
213.6775429871
 30
0.0
 10
-706.5035383497
 20
214.0242228943
 30
0.0
 10
-706.3720725606
 20
214.6811601033
 30
0.0
 10
-706.0113333383
 20
215.4154765743
 30
0.0
 10
-705.6220500588
 20
215.8599120251
 30
0.0
 10
-705.3050897474
 20
216.1001004536
 30
0.0
 10
-704.9624639081
 20
216.2494602225
 30
0.0
 10
-704.7220813611
 20
216.2836038035
 30
0.0
 10
-704.6049529723
 20
216.2836039511
 30
0.0
  0
SPLINE
  5
661
100
AcDbEntity
  8
0
100
AcDbSpline
 62
9
  6
CONTINUOUS
 70
0
 71
3
 72
9
 73
5
 74
0
 42
0.0000001
 43
0.0000001
 44
0.0000000001
 40
0.0
 40
0.0
 40
0.0
 40
0.0
 40
0.4999371973
 40
1.0
 40
1.0
 40
1.0
 40
1.0
 10
-740.1332388629
 20
129.5899864714
 30
0.0
 10
-739.8119344732
 20
129.4842667623
 30
0.0
 10
-739.149237475
 20
129.3301982096
 30
0.0
 10
-738.4715740012
 20
129.2835795809
 30
0.0
 10
-738.1332388629
 20
129.2835794508
 30
0.0
  0
LINE
  5
662
100
AcDbEntity
  8
0
100
AcDbLine
 62
9
  6
CONTINUOUS
 10
-738.1332388629
 20
129.2835794508
 11
-676.1332388629
 21
129.2836039511
  0
SPLINE
  5
663
100
AcDbEntity
  8
0
100
AcDbSpline
 62
9
  6
CONTINUOUS
 70
0
 71
3
 72
18
 73
14
 74
0
 42
0.0000001
 43
0.0000001
 44
0.0000000001
 40
0.0
 40
0.0
 40
0.0
 40
0.0
 40
0.2211891953
 40
0.4185471354
 40
0.5897315298
 40
0.732782403
 40
0.8460628906
 40
0.9283603823
 40
0.957663703
 40
0.9790629538
 40
0.9868557248
 40
0.9927982091
 40
1.0
 40
1.0
 40
1.0
 40
1.0
 10
-738.2755397404
 20
229.032800454
 30
0.0
 10
-738.4879018502
 20
229.0404753246
 30
0.0
 10
-738.889696114
 20
229.0564405588
 30
0.0
 10
-739.4555996269
 20
229.0840542944
 30
0.0
 10
-739.9462165307
 20
229.1136449534
 30
0.0
 10
-740.3558052399
 20
229.1445276257
 30
0.0
 10
-740.679585249
 20
229.1764937909
 30
0.0
 10
-740.8938502427
 20
229.2048523886
 30
0.0
 10
-741.0192923976
 20
229.2299353988
 30
0.0
 10
-741.0735138409
 20
229.2443295479
 30
0.0
 10
-741.105190783
 20
229.2570696769
 30
0.0
 10
-741.1223571722
 20
229.2661509729
 30
0.0
 10
-741.133236034
 20
229.2766850515
 30
0.0
 10
-741.1332388629
 20
229.2836039511
 30
0.0
  0
SPLINE
  5
664
100
AcDbEntity
  8
0
100
AcDbSpline
 62
9
  6
CONTINUOUS
 70
0
 71
3
 72
11
 73
7
 74
0
 42
0.0000001
 43
0.0000001
 44
0.0000000001
 40
0.0
 40
0.0
 40
0.0
 40
0.0
 40
0.2499339304
 40
0.4998844927
 40
0.7498950133
 40
1.0
 40
1.0
 40
1.0
 40
1.0
 10
-741.1332388629
 20
297.3151172103
 30
0.0
 10
-741.1332391532
 20
296.7553818658
 30
0.0
 10
-741.0157949883
 20
295.6323911735
 30
0.0
 10
-740.4944288143
 20
294.0234980892
 30
0.0
 10
-739.6505565806
 20
292.5573175098
 30
0.0
 10
-738.8952563102
 20
291.7171610983
 30
0.0
 10
-738.4792158936
 20
291.3421370615
 30
0.0
  0
SPLINE
  5
665
100
AcDbEntity
  8
0
100
AcDbSpline
 62
9
  6
CONTINUOUS
 70
0
 71
3
 72
18
 73
14
 74
0
 42
0.0000001
 43
0.0000001
 44
0.0000000001
 40
0.0
 40
0.0
 40
0.0
 40
0.0
 40
0.0072017908
 40
0.0131442752
 40
0.0209370462
 40
0.042336297
 40
0.0716396177
 40
0.1539371094
 40
0.267217597
 40
0.4102684702
 40
0.5814528646
 40
0.7788108047
 40
1.0
 40
1.0
 40
1.0
 40
1.0
 10
-741.1332388629
 20
213.2836039511
 30
0.0
 10
-741.133236034
 20
213.2905228507
 30
0.0
 10
-741.1223571722
 20
213.3010569293
 30
0.0
 10
-741.105190783
 20
213.3101382253
 30
0.0
 10
-741.0735138409
 20
213.3228783544
 30
0.0
 10
-741.0192923976
 20
213.3372725035
 30
0.0
 10
-740.8938502427
 20
213.3623555135
 30
0.0
 10
-740.679585249
 20
213.3907141114
 30
0.0
 10
-740.3558052399
 20
213.4226802763
 30
0.0
 10
-739.9462165307
 20
213.4535629489
 30
0.0
 10
-739.455599627
 20
213.483153608
 30
0.0
 10
-738.8896961139
 20
213.5107673428
 30
0.0
 10
-738.4879018503
 20
213.5267325782
 30
0.0
 10
-738.2755397404
 20
213.5344074482
 30
0.0
  0
SPLINE
  5
666
100
AcDbEntity
  8
0
100
AcDbSpline
 62
7
  6
CONTINUOUS
 70
0
 71
3
 72
9
 73
5
 74
0
 42
0.0000001
 43
0.0000001
 44
0.0000000001
 40
0.0
 40
0.0
 40
0.0
 40
0.0
 40
0.2540594065
 40
1.0
 40
1.0
 40
1.0
 40
1.0
 10
-995.1450027442
 20
71.9365472481
 30
0.0
 10
-995.2209885163
 20
72.4045815878
 30
0.0
 10
-995.4910659354
 20
74.2510539017
 30
0.0
 10
-995.6332344526
 20
76.1189376594
 30
0.0
 10
-995.6332388629
 20
77.5111198511
 30
0.0
  0
SPLINE
  5
667
100
AcDbEntity
  8
0
100
AcDbSpline
 62
7
  6
CONTINUOUS
 70
0
 71
3
 72
19
 73
15
 74
0
 42
0.0000001
 43
0.0000001
 44
0.0000000001
 40
0.0
 40
0.0
 40
0.0
 40
0.0
 40
0.1176443505
 40
0.2372671555
 40
0.3588878277
 40
0.4824727569
 40
0.6080020148
 40
0.671543631
 40
0.7356342061
 40
0.800349089
 40
0.8658325636
 40
0.9322847137
 40
0.9660519732
 40
1.0
 40
1.0
 40
1.0
 40
1.0
 10
-787.1332388629
 20
344.7162185157
 30
0.0
 10
-787.1332388629
 20
343.2561288395
 30
0.0
 10
-787.2841551785
 20
340.309976104
 30
0.0
 10
-787.903314731
 20
335.894250489
 30
0.0
 10
-788.8937458151
 20
331.4708815055
 30
0.0
 10
-790.2583183582
 20
327.0716412456
 30
0.0
 10
-791.7335783027
 20
323.4747655424
 30
0.0
 10
-793.1705741073
 20
320.6784406924
 30
0.0
 10
-794.4105250132
 20
318.6356845565
 30
0.0
 10
-795.8505901934
 20
316.6951425983
 30
0.0
 10
-797.5546983822
 20
314.9369333948
 30
0.0
 10
-799.2849339139
 20
313.7697901363
 30
0.0
 10
-800.868775909
 20
313.2245017631
 30
0.0
 10
-801.7119082738
 20
313.1243719843
 30
0.0
 10
-802.1332388629
 20
313.1243719843
 30
0.0
  0
SPLINE
  5
668
100
AcDbEntity
  8
0
100
AcDbSpline
 62
7
  6
CONTINUOUS
 70
0
 71
3
 72
20
 73
16
 74
0
 42
0.0000001
 43
0.0000001
 44
0.0000000001
 40
0.0
 40
0.0
 40
0.0
 40
0.0
 40
0.0339469752
 40
0.0677220035
 40
0.101184562
 40
0.1343211761
 40
0.1997871713
 40
0.2644854548
 40
0.3285628709
 40
0.3920932613
 40
0.5176009518
 40
0.641164443
 40
0.7627652513
 40
0.8823708578
 40
1.0
 40
1.0
 40
1.0
 40
1.0
 10
-857.1332388629
 20
313.1243719843
 30
0.0
 10
-857.5546225459
 20
313.1243719843
 30
0.0
 10
-858.3978274987
 20
313.2250770322
 30
0.0
 10
-859.5929692271
 20
313.6353341588
 30
0.0
 10
-860.6851485168
 20
314.2457182013
 30
0.0
 10
-861.9985523214
 20
315.2326617022
 30
0.0
 10
-863.4169406134
 20
316.6962843828
 30
0.0
 10
-864.8558557627
 20
318.6356400854
 30
0.0
 10
-866.0960264169
 20
320.6785362705
 30
0.0
 10
-867.5329064983
 20
323.4747048455
 30
0.0
 10
-869.0081247746
 20
327.0715856278
 30
0.0
 10
-870.3727304139
 20
331.4707366421
 30
0.0
 10
-871.3631222906
 20
335.8941047463
 30
0.0
 10
-871.9823007321
 20
340.3098755194
 30
0.0
 10
-872.1332388629
 20
343.2560883887
 30
0.0
 10
-872.1332388629
 20
344.7162185157
 30
0.0
  0
SPLINE
  5
669
100
AcDbEntity
  8
0
100
AcDbSpline
 62
9
  6
CONTINUOUS
 70
0
 71
3
 72
11
 73
7
 74
0
 42
0.0000001
 43
0.0000001
 44
0.0000000001
 40
0.0
 40
0.0
 40
0.0
 40
0.0
 40
0.248514947
 40
0.4978040447
 40
0.7482729083
 40
1.0
 40
1.0
 40
1.0
 40
1.0
 10
-755.6332388629
 20
401.2836039543
 30
0.0
 10
-755.634119942
 20
403.7530508424
 30
0.0
 10
-756.2739111845
 20
408.7227335563
 30
0.0
 10
-759.09682786
 20
415.6862686758
 30
0.0
 10
-763.5945919042
 20
421.7438272724
 30
0.0
 10
-767.5255063532
 20
424.9179242998
 30
0.0
 10
-769.6520945053
 20
426.2349103892
 30
0.0
  0
SPLINE
  5
66A
100
AcDbEntity
  8
0
100
AcDbSpline
 62
9
  6
CONTINUOUS
 70
0
 71
3
 72
15
 73
11
 74
0
 42
0.0000001
 43
0.0000001
 44
0.0000000001
 40
0.0
 40
0.0
 40
0.0
 40
0.0
 40
0.0113783841
 40
0.0457821714
 40
0.1051749007
 40
0.1932779087
 40
0.4841062346
 40
0.7102504495
 40
0.8483897342
 40
1.0
 40
1.0
 40
1.0
 40
1.0
 10
-985.9656733896
 20
40.2247876389
 30
0.0
 10
-985.9928324232
 20
40.3471301203
 30
0.0
 10
-986.0958229013
 20
40.8407595205
 30
0.0
 10
-986.3551059762
 20
41.9698519175
 30
0.0
 10
-986.8396362902
 20
43.9139688818
 30
0.0
 10
-988.1502685886
 20
48.5614887978
 30
0.0
 10
-990.3127072839
 20
54.8677082317
 30
0.0
 10
-992.6285852122
 20
61.7022714354
 30
0.0
 10
-994.1955140009
 20
67.1655594575
 30
0.0
 10
-994.8777654947
 20
70.2882446817
 30
0.0
 10
-995.1450027442
 20
71.9365472481
 30
0.0
  0
SPLINE
  5
66B
100
AcDbEntity
  8
0
100
AcDbSpline
 62
9
  6
CONTINUOUS
 70
0
 71
3
 72
14
 73
10
 74
0
 42
0.0000001
 43
0.0000001
 44
0.0000000001
 40
0.0
 40
0.0
 40
0.0
 40
0.0
 40
0.0613270257
 40
0.1377013001
 40
0.2358385855
 40
0.356481581
 40
0.4976196416
 40
0.6554714957
 40
1.0
 40
1.0
 40
1.0
 40
1.0
 10
-995.6338915962
 20
77.5111197806
 30
0.0
 10
-995.6338313918
 20
77.4200907843
 30
0.0
 10
-995.7030531764
 20
77.2154282599
 30
0.0
 10
-995.9539064125
 20
76.9624494102
 30
0.0
 10
-996.3322123595
 20
76.7364496215
 30
0.0
 10
-996.8304046386
 20
76.5391212156
 30
0.0
 10
-997.4328807919
 20
76.3770378798
 30
0.0
 10
-998.3743861365
 20
76.2112064474
 30
0.0
 10
-999.1218478345
 20
76.165024375
 30
0.0
 10
-999.6332388629
 20
76.1649945706
 30
0.0
  0
SPLINE
  5
66C
100
AcDbEntity
  8
0
100
AcDbSpline
 62
9
  6
CONTINUOUS
 70
0
 71
3
 72
9
 73
5
 74
0
 42
0.0000001
 43
0.0000001
 44
0.0000000001
 40
0.0
 40
0.0
 40
0.0
 40
0.0
 40
0.2549688742
 40
1.0
 40
1.0
 40
1.0
 40
1.0
 10
-999.079904595
 20
71.2836039511
 30
0.0
 10
-999.1672931241
 20
71.6923176889
 30
0.0
 10
-999.4768338452
 20
73.3018353964
 30
0.0
 10
-999.6331677758
 20
74.9439058628
 30
0.0
 10
-999.6332388629
 20
76.1651807005
 30
0.0
  0
SPLINE
  5
66D
100
AcDbEntity
  8
0
100
AcDbSpline
 62
7
  6
CONTINUOUS
 70
0
 71
3
 72
11
 73
7
 74
0
 42
0.0000001
 43
0.0000001
 44
0.0000000001
 40
0.0
 40
0.0
 40
0.0
 40
0.0
 40
0.2500307692
 40
0.5000635456
 40
0.75004604
 40
1.0
 40
1.0
 40
1.0
 40
1.0
 10
-995.6332388629
 20
395.4479603188
 30
0.0
 10
-995.6332388629
 20
397.3177588801
 30
0.0
 10
-995.3323868851
 20
401.064539168
 30
0.0
 10
-993.97074639
 20
406.5316101171
 30
0.0
 10
-991.7118041253
 20
411.6938147703
 30
0.0
 10
-989.6288087673
 20
414.8263339288
 30
0.0
 10
-988.4581837014
 20
416.2836039511
 30
0.0
  0
SPLINE
  5
66E
100
AcDbEntity
  8
0
100
AcDbSpline
 62
9
  6
CONTINUOUS
 70
0
 71
3
 72
27
 73
23
 74
0
 42
0.0000001
 43
0.0000001
 44
0.0000000001
 40
0.0
 40
0.0
 40
0.0
 40
0.0
 40
0.0006880283
 40
0.0015475005
 40
0.0027519086
 40
0.0062012837
 40
0.0110476992
 40
0.0173070308
 40
0.0250044108
 40
0.0341665856
 40
0.0448279145
 40
0.0708203461
 40
0.1033961341
 40
0.1431043644
 40
0.1906565517
 40
0.2469620619
 40
0.3131709085
 40
0.3907164657
 40
0.4813298674
 40
0.7093048783
 40
0.8484760584
 40
1.0
 40
1.0
 40
1.0
 40
1.0
 10
-988.6766585245
 20
41.2835874359
 30
0.0
 10
-988.6819142022
 20
41.2886384353
 30
0.0
 10
-988.6800941799
 20
41.3078032499
 30
0.0
 10
-988.6897412545
 20
41.3345051318
 30
0.0
 10
-988.7016329243
 20
41.3922723588
 30
0.0
 10
-988.726379276
 20
41.4894299222
 30
0.0
 10
-988.7621267411
 20
41.6396339655
 30
0.0
 10
-988.8098448398
 20
41.8329688003
 30
0.0
 10
-988.8690745517
 20
42.0706624852
 30
0.0
 10
-988.9409232577
 20
42.353234817
 30
0.0
 10
-989.062839933
 20
42.8230805094
 30
0.0
 10
-989.2535916256
 20
43.5313177151
 30
0.0
 10
-989.5381534215
 20
44.53291319
 30
0.0
 10
-989.9043012308
 20
45.7486423579
 30
0.0
 10
-990.3678470644
 20
47.1973871101
 30
0.0
 10
-990.9475526293
 20
48.9034658293
 30
0.0
 10
-991.6649312188
 20
50.8980309368
 30
0.0
 10
-992.5436932108
 20
53.2204654446
 30
0.0
 10
-994.0812093659
 20
57.1255850413
 30
0.0
 10
-995.924524026
 20
61.6121340107
 30
0.0
 10
-997.8618743134
 20
66.7540533788
 30
0.0
 10
-998.7439168429
 20
69.7138281257
 30
0.0
 10
-999.079904595
 20
71.2836039511
 30
0.0
  0
SPLINE
  5
66F
100
AcDbEntity
  8
0
100
AcDbSpline
 62
7
  6
CONTINUOUS
 70
0
 71
3
 72
11
 73
7
 74
0
 42
0.0000001
 43
0.0000001
 44
0.0000000001
 40
0.0
 40
0.0
 40
0.0
 40
0.0
 40
0.2706807018
 40
0.5283234089
 40
0.7706968086
 40
1.0
 40
1.0
 40
1.0
 40
1.0
 10
-988.4581837014
 20
416.2836039511
 30
0.0
 10
-986.9015162632
 20
418.2214445614
 30
0.0
 10
-983.5354021387
 20
421.7524460679
 30
0.0
 10
-977.8583152977
 20
426.0298454399
 30
0.0
 10
-971.8796358465
 20
429.1191769781
 30
0.0
 10
-967.7016847549
 20
430.3790591269
 30
0.0
 10
-965.6332388629
 20
430.7732882558
 30
0.0
  0
SPLINE
  5
670
100
AcDbEntity
  8
0
100
AcDbSpline
 62
9
  6
CONTINUOUS
 70
0
 71
3
 72
22
 73
18
 74
0
 42
0.0000001
 43
0.0000001
 44
0.0000000001
 40
0.0
 40
0.0
 40
0.0
 40
0.0
 40
0.1948530661
 40
0.3822715406
 40
0.555085446
 40
0.7066591158
 40
0.7726126713
 40
0.8311434813
 40
0.8816681331
 40
0.9237070721
 40
0.9568347048
 40
0.9699570268
 40
0.9807374957
 40
0.9891446673
 40
0.9951641672
 40
0.9987859575
 40
1.0
 40
1.0
 40
1.0
 40
1.0
 10
1955.3118586169
 20
401.2836039543
 30
0.0
 10
1954.9154135065
 20
403.1962827056
 30
0.0
 10
1954.1395415329
 20
406.9490598155
 30
0.0
 10
1953.0326609711
 20
412.4024043814
 30
0.0
 10
1952.0243616486
 20
417.4330296795
 30
0.0
 10
1951.264886678
 20
421.2716542366
 30
0.0
 10
1950.7318077107
 20
423.987209673
 30
0.0
 10
1950.3953238878
 20
425.7090425791
 30
0.0
 10
1950.1059942715
 20
427.1958211643
 30
0.0
 10
1949.8660543597
 20
428.432771061
 30
0.0
 10
1949.6980448821
 20
429.3017514425
 30
0.0
 10
1949.5894521018
 20
429.8630403792
 30
0.0
 10
1949.5284573778
 20
430.1811686672
 30
0.0
 10
1949.4796728613
 20
430.4290388043
 30
0.0
 10
1949.4476171824
 20
430.607279954
 30
0.0
 10
1949.4232375629
 20
430.7131228987
 30
0.0
 10
1949.4180305019
 20
430.7617818713
 30
0.0
 10
1949.4140860912
 20
430.7732952942
 30
0.0
  0
SPLINE
  5
671
100
AcDbEntity
  8
0
100
AcDbSpline
 62
9
  6
CONTINUOUS
 70
0
 71
3
 72
16
 73
12
 74
0
 42
0.0000001
 43
0.0000001
 44
0.0000000001
 40
0.0
 40
0.0
 40
0.0
 40
0.0
 40
0.0081284712
 40
0.0239122342
 40
0.0819672805
 40
0.1748485159
 40
0.2989767945
 40
0.4497861694
 40
0.621547133
 40
0.8077561566
 40
1.0
 40
1.0
 40
1.0
 40
1.0
 10
2047.1726744666
 20
430.7732742399
 30
0.0
 10
2047.183415249
 20
430.7703987953
 30
0.0
 10
2047.2157433653
 20
430.7918504173
 30
0.0
 10
2047.2764594676
 20
430.8811272695
 30
0.0
 10
2047.3786132855
 20
431.0905224997
 30
0.0
 10
2047.5153559149
 20
431.4385412027
 30
0.0
 10
2047.683650154
 20
431.9138580473
 30
0.0
 10
2047.872330635
 20
432.4947084391
 30
0.0
 10
2048.0754479413
 20
433.1605297012
 30
0.0
 10
2048.2838152269
 20
433.8837431216
 30
0.0
 10
2048.4204822842
 20
434.3830946373
 30
0.0
 10
2048.4881789635
 20
434.6372040703
 30
0.0
  0
SPLINE
  5
672
100
AcDbEntity
  8
0
100
AcDbSpline
 62
9
  6
CONTINUOUS
 70
0
 71
3
 72
14
 73
10
 74
0
 42
0.0000001
 43
0.0000001
 44
0.0000000001
 40
0.0
 40
0.0
 40
0.0
 40
0.0
 40
0.0277361882
 40
0.087002183
 40
0.1797943123
 40
0.303127719
 40
0.4527680692
 40
0.6232693918
 40
1.0
 40
1.0
 40
1.0
 40
1.0
 10
2043.2933678275
 20
431.2833909104
 30
0.0
 10
2043.3309437996
 20
431.2833840061
 30
0.0
 10
2043.4089533592
 20
431.4072445007
 30
0.0
 10
2043.4672802502
 20
431.6249064349
 30
0.0
 10
2043.5404855388
 20
432.0006955861
 30
0.0
 10
2043.5987558731
 20
432.4891779418
 30
0.0
 10
2043.6499239913
 20
433.0892302924
 30
0.0
 10
2043.7014971738
 20
434.0314557515
 30
0.0
 10
2043.7158510485
 20
434.7732231092
 30
0.0
 10
2043.715847064
 20
435.2836039494
 30
0.0
  0
SPLINE
  5
673
100
AcDbEntity
  8
0
100
AcDbSpline
 62
9
  6
CONTINUOUS
 70
0
 71
3
 72
22
 73
18
 74
0
 42
0.0000001
 43
0.0000001
 44
0.0000000001
 40
0.0
 40
0.0
 40
0.0
 40
0.0
 40
0.0012140424
 40
0.0048358327
 40
0.0108553327
 40
0.0192625044
 40
0.0300429732
 40
0.0431652952
 40
0.0762929278
 40
0.1183318669
 40
0.1688565187
 40
0.2273873287
 40
0.2933408842
 40
0.444914554
 40
0.6177284594
 40
0.8051469338
 40
1.0
 40
1.0
 40
1.0
 40
1.0
 10
2047.1726496583
 20
430.7732952941
 30
0.0
 10
2047.1687050126
 20
430.7617819522
 30
0.0
 10
2047.1634985179
 20
430.7131227853
 30
0.0
 10
2047.1391183552
 20
430.6072800278
 30
0.0
 10
2047.1070629882
 20
430.4290387708
 30
0.0
 10
2047.0582783359
 20
430.1811686799
 30
0.0
 10
2046.9972836621
 20
429.8630403741
 30
0.0
 10
2046.888690852
 20
429.301751447
 30
0.0
 10
2046.720681389
 20
428.4327710604
 30
0.0
 10
2046.4807414882
 20
427.1958211625
 30
0.0
 10
2046.1914118752
 20
425.7090425764
 30
0.0
 10
2045.8549280065
 20
423.9872096796
 30
0.0
 10
2045.3218490406
 20
421.2716542429
 30
0.0
 10
2044.5623742906
 20
417.4330296412
 30
0.0
 10
2043.5540743265
 20
412.4024044749
 30
0.0
 10
2042.4471955463
 20
406.9490595394
 30
0.0
 10
2041.6713183847
 20
403.1962835054
 30
0.0
 10
2041.2748771324
 20
401.2836039543
 30
0.0
  0
SPLINE
  5
674
100
AcDbEntity
  8
0
100
AcDbSpline
 62
9
  6
CONTINUOUS
 70
0
 71
3
 72
33
 73
29
 74
0
 42
0.0000001
 43
0.0000001
 44
0.0000000001
 40
0.0
 40
0.0
 40
0.0
 40
0.0
 40
0.1397367457
 40
0.2793368314
 40
0.417999585
 40
0.4867307402
 40
0.5548879488
 40
0.6223037584
 40
0.6887505946
 40
0.7538937562
 40
0.7858235272
 40
0.8171973575
 40
0.8478875711
 40
0.8776961974
 40
0.9063480962
 40
0.9334011253
 40
0.946111803
 40
0.9581136781
 40
0.9692306104
 40
0.979191832
 40
0.9876942836
 40
0.991264062
 40
0.9942967523
 40
0.9967308957
 40
0.9985179041
 40
0.9991569273
 40
0.9996200665
 40
1.0
 40
1.0
 40
1.0
 40
1.0
 10
2048.4881791668
 20
434.6372040703
 30
0.0
 10
2052.4072575816
 20
433.5572452514
 30
0.0
 10
2060.1728572806
 20
431.1390784082
 30
0.0
 10
2071.5258898651
 20
426.759322931
 30
0.0
 10
2080.6884627133
 20
422.5028807013
 30
0.0
 10
2087.7791221054
 20
418.7609344494
 30
0.0
 10
2092.9392709521
 20
415.809207887
 30
0.0
 10
2097.9382246403
 20
412.7166029631
 30
0.0
 10
2102.7527179546
 20
409.4992590769
 30
0.0
 10
2106.6109016873
 20
406.7144423788
 30
0.0
 10
2109.5771786045
 20
404.4416272743
 30
0.0
 10
2111.7148537679
 20
402.7362094741
 30
0.0
 10
2113.7698175904
 20
401.0269514094
 30
0.0
 10
2115.7279396573
 20
399.3259923205
 30
0.0
 10
2117.5686726666
 20
397.6522083386
 30
0.0
 10
2119.0084486105
 20
396.277682442
 30
0.0
 10
2120.0771282484
 20
395.2166039215
 30
0.0
 10
2120.807036875
 20
394.4724491872
 30
0.0
 10
2121.4714542615
 20
393.7762363395
 30
0.0
 10
2122.057802806
 20
393.1463281499
 30
0.0
 10
2122.4883794269
 20
392.6714919725
 30
0.0
 10
2122.780932669
 20
392.3435735841
 30
0.0
 10
2122.9547885471
 20
392.1464549958
 30
0.0
 10
2123.0945360189
 20
391.988133689
 30
0.0
 10
2123.1862118636
 20
391.8808966984
 30
0.0
 10
2123.2429996722
 20
391.8183231396
 30
0.0
 10
2123.268062656
 20
391.7840120243
 30
0.0
 10
2123.2902096607
 20
391.7687256053
 30
0.0
 10
2123.2933678746
 20
391.7581335765
 30
0.0
  0
SPLINE
  5
675
100
AcDbEntity
  8
0
100
AcDbSpline
 62
9
  6
CONTINUOUS
 70
0
 71
3
 72
18
 73
14
 74
0
 42
0.0000001
 43
0.0000001
 44
0.0000000001
 40
0.0
 40
0.0
 40
0.0
 40
0.0
 40
0.0048340252
 40
0.01925579
 40
0.0431510112
 40
0.0762693787
 40
0.1182984822
 40
0.1688139346
 40
0.2932860141
 40
0.4448596591
 40
0.6176858323
 40
0.8051243853
 40
1.0
 40
1.0
 40
1.0
 40
1.0
 10
1953.2933416194
 20
431.283603393
 30
0.0
 10
1953.2994643129
 20
431.2355422527
 30
0.0
 10
1953.3050349566
 20
431.0422788942
 30
0.0
 10
1953.3402687267
 20
430.6113868329
 30
0.0
 10
1953.383436548
 20
429.8965908768
 30
0.0
 10
1953.4504341541
 20
428.9062380425
 30
0.0
 10
1953.5328220987
 20
427.6494449101
 30
0.0
 10
1953.6767830357
 20
425.4791493603
 30
0.0
 10
1953.8935368
 20
422.213332228
 30
0.0
 10
1954.1939457448
 20
417.7245057966
 30
0.0
 10
1954.5382641367
 20
412.6061144411
 30
0.0
 10
1954.9163058377
 20
407.0550156749
 30
0.0
 10
1955.1765118847
 20
403.2320718122
 30
0.0
 10
1955.3118586175
 20
401.2836039511
 30
0.0
  0
SPLINE
  5
676
100
AcDbEntity
  8
0
100
AcDbSpline
 62
9
  6
CONTINUOUS
 70
0
 71
3
 72
18
 73
14
 74
0
 42
0.0000001
 43
0.0000001
 44
0.0000000001
 40
0.0
 40
0.0
 40
0.0
 40
0.0
 40
0.1948756147
 40
0.3823141677
 40
0.5551403408
 40
0.7067139859
 40
0.8311860654
 40
0.8817015178
 40
0.9237306213
 40
0.9568489888
 40
0.98074421
 40
0.9951659748
 40
1.0
 40
1.0
 40
1.0
 40
1.0
 10
2041.2748771317
 20
401.2836039511
 30
0.0
 10
2041.4102277972
 20
403.2320715392
 30
0.0
 10
2041.6704285617
 20
407.0550157693
 30
0.0
 10
2042.0484720637
 20
412.6061144095
 30
0.0
 10
2042.3927898185
 20
417.724505809
 30
0.0
 10
2042.6931990173
 20
422.2133322229
 30
0.0
 10
2042.9099527073
 20
425.4791493607
 30
0.0
 10
2043.0539136381
 20
427.6494449108
 30
0.0
 10
2043.136301599
 20
428.9062380421
 30
0.0
 10
2043.2032992048
 20
429.8965908766
 30
0.0
 10
2043.2464670241
 20
430.611386833
 30
0.0
 10
2043.2817007873
 20
431.0422788952
 30
0.0
 10
2043.2872714384
 20
431.2355422529
 30
0.0
 10
2043.2933941296
 20
431.283603393
 30
0.0
  0
SPLINE
  5
677
100
AcDbEntity
  8
0
100
AcDbSpline
 62
9
  6
CONTINUOUS
 70
0
 71
3
 72
11
 73
7
 74
0
 42
0.0000001
 43
0.0000001
 44
0.0000000001
 40
0.0
 40
0.0
 40
0.0
 40
0.0
 40
0.2500043589
 40
0.5000039987
 40
0.7500015826
 40
1.0
 40
1.0
 40
1.0
 40
1.0
 10
1203.9319945891
 20
-434.9655008485
 30
0.0
 10
1203.931981432
 20
-434.6009844418
 30
0.0
 10
1203.8525481541
 20
-433.8695145968
 30
0.0
 10
1203.5003169205
 20
-432.8254814349
 30
0.0
 10
1202.9316999123
 20
-431.8816547157
 30
0.0
 10
1202.4244604431
 20
-431.3485504251
 30
0.0
 10
1202.1459326376
 20
-431.1134160869
 30
0.0
  0
SPLINE
  5
678
100
AcDbEntity
  8
0
100
AcDbSpline
 62
9
  6
CONTINUOUS
 70
0
 71
3
 72
11
 73
7
 74
0
 42
0.0000001
 43
0.0000001
 44
0.0000000001
 40
0.0
 40
0.0
 40
0.0
 40
0.0
 40
0.1637100438
 40
0.4006069181
 40
0.68777431
 40
1.0
 40
1.0
 40
1.0
 40
1.0
 10
1208.1918615223
 20
-317.3631134527
 30
0.0
 10
1208.2239329628
 20
-317.1954050867
 30
0.0
 10
1208.2836521567
 20
-316.7815590585
 30
0.0
 10
1208.3581905676
 20
-316.0680176926
 30
0.0
 10
1208.4155941749
 20
-315.197441807
 30
0.0
 10
1208.4319849571
 20
-314.572239019
 30
0.0
 10
1208.431985044
 20
-314.2465917811
 30
0.0
  0
SPLINE
  5
679
100
AcDbEntity
  8
0
100
AcDbSpline
 62
9
  6
CONTINUOUS
 70
0
 71
3
 72
15
 73
11
 74
0
 42
0.0000001
 43
0.0000001
 44
0.0000000001
 40
0.0
 40
0.0
 40
0.0
 40
0.0
 40
0.1245016175
 40
0.2490566544
 40
0.3737531405
 40
0.498635623
 40
0.6237284471
 40
0.7490217694
 40
0.8744638449
 40
1.0
 40
1.0
 40
1.0
 40
1.0
 10
1138.9319945891
 20
-312.4399328765
 30
0.0
 10
1138.932001972
 20
-312.6992618131
 30
0.0
 10
1138.9835298415
 20
-313.2194907553
 30
0.0
 10
1139.212578401
 20
-313.9686073932
 30
0.0
 10
1139.5845075001
 20
-314.6592504748
 30
0.0
 10
1140.0851269915
 20
-315.2644966195
 30
0.0
 10
1140.6951637358
 20
-315.7612022442
 30
0.0
 10
1141.3912742221
 20
-316.1302441803
 30
0.0
 10
1142.146309109
 20
-316.3575360181
 30
0.0
 10
1142.6705107768
 20
-316.4086640032
 30
0.0
 10
1142.9319945891
 20
-316.4086743715
 30
0.0
  0
SPLINE
  5
67A
100
AcDbEntity
  8
0
100
AcDbSpline
 62
9
  6
CONTINUOUS
 70
0
 71
3
 72
11
 73
7
 74
0
 42
0.0000001
 43
0.0000001
 44
0.0000000001
 40
0.0
 40
0.0
 40
0.0
 40
0.0
 40
0.3123150576
 40
0.599625108
 40
0.836601476
 40
1.0
 40
1.0
 40
1.0
 40
1.0
 10
1208.4319850449
 20
-402.2465917811
 30
0.0
 10
1208.431984957
 20
-401.9208649413
 30
0.0
 10
1208.4152240926
 20
-401.2954428592
 30
0.0
 10
1208.3568871434
 20
-400.4246506414
 30
0.0
 10
1208.2819990688
 20
-399.7112534752
 30
0.0
 10
1208.2227822055
 20
-399.2976569034
 30
0.0
 10
1208.1918616308
 20
-399.1300701646
 30
0.0
  0
SPLINE
  5
67B
100
AcDbEntity
  8
0
100
AcDbSpline
 62
9
  6
CONTINUOUS
 70
0
 71
3
 72
9
 73
5
 74
0
 42
0.0000001
 43
0.0000001
 44
0.0000000001
 40
0.0
 40
0.0
 40
0.0
 40
0.0
 40
0.4956959773
 40
1.0
 40
1.0
 40
1.0
 40
1.0
 10
1208.1918616308
 20
-399.1300701646
 30
0.0
 10
1208.1825891259
 20
-399.0798131344
 30
0.0
 10
1208.1492782088
 20
-398.9799883858
 30
0.0
 10
1208.0826094268
 20
-398.8983148251
 30
0.0
 10
1208.0441310018
 20
-398.8633483288
 30
0.0
  0
SPLINE
  5
67C
100
AcDbEntity
  8
0
100
AcDbSpline
 62
9
  6
CONTINUOUS
 70
0
 71
3
 72
9
 73
5
 74
0
 42
0.0000001
 43
0.0000001
 44
0.0000000001
 40
0.0
 40
0.0
 40
0.0
 40
0.0
 40
0.2400483714
 40
1.0
 40
1.0
 40
1.0
 40
1.0
 10
1208.0179163889
 20
-398.840962761
 30
0.0
 10
1208.0112738686
 20
-398.8356257854
 30
0.0
 10
1207.9831248665
 20
-398.8139887045
 30
0.0
 10
1207.9531942121
 20
-398.7947116727
 30
0.0
 10
1207.929824244
 20
-398.7812380229
 30
0.0
  0
SPLINE
  5
67D
100
AcDbEntity
  8
0
100
AcDbSpline
 62
9
  6
CONTINUOUS
 70
0
 71
3
 72
11
 73
7
 74
0
 42
0.0000001
 43
0.0000001
 44
0.0000000001
 40
0.0
 40
0.0
 40
0.0
 40
0.0
 40
0.2500451975
 40
0.5000478053
 40
0.7500254781
 40
1.0
 40
1.0
 40
1.0
 40
1.0
 10
1204.0742954666
 20
-287.6641742704
 30
0.0
 10
1204.5193817445
 20
-287.2902120487
 30
0.0
 10
1205.3304000537
 20
-286.4420916875
 30
0.0
 10
1206.2405583732
 20
-284.9390468705
 30
0.0
 10
1206.8047206181
 20
-283.2751347218
 30
0.0
 10
1206.9319853584
 20
-282.1088526726
 30
0.0
 10
1206.9319945891
 20
-281.5276827138
 30
0.0
  0
SPLINE
  5
67E
100
AcDbEntity
  8
0
100
AcDbSpline
 62
9
  6
CONTINUOUS
 70
0
 71
3
 72
9
 73
5
 74
0
 42
0.0000001
 43
0.0000001
 44
0.0000000001
 40
0.0
 40
0.0
 40
0.0
 40
0.0
 40
0.2616297948
 40
1.0
 40
1.0
 40
1.0
 40
1.0
 10
1207.9299063267
 20
-317.7118982093
 30
0.0
 10
1207.9381711965
 20
-317.7071319471
 30
0.0
 10
1207.9694421958
 20
-317.6883743454
 30
0.0
 10
1207.9993781818
 20
-317.6673345641
 30
0.0
 10
1208.0202914139
 20
-317.6503747982
 30
0.0
  0
SPLINE
  5
67F
100
AcDbEntity
  8
0
100
AcDbSpline
 62
9
  6
CONTINUOUS
 70
0
 71
3
 72
9
 73
5
 74
0
 42
0.0000001
 43
0.0000001
 44
0.0000000001
 40
0.0
 40
0.0
 40
0.0
 40
0.0
 40
0.5029782956
 40
1.0
 40
1.0
 40
1.0
 40
1.0
 10
1208.0446185538
 20
-317.6294829573
 30
0.0
 10
1208.0828839345
 20
-317.5946419828
 30
0.0
 10
1208.1491977703
 20
-317.5129155553
 30
0.0
 10
1208.1822564632
 20
-317.413341124
 30
0.0
 10
1208.1918615223
 20
-317.3631134527
 30
0.0
  0
SPLINE
  5
680
100
AcDbEntity
  8
0
100
AcDbSpline
 62
9
  6
CONTINUOUS
 70
0
 71
3
 72
11
 73
7
 74
0
 42
0.0000001
 43
0.0000001
 44
0.0000000001
 40
0.0
 40
0.0
 40
0.0
 40
0.0
 40
0.2499745219
 40
0.4999521947
 40
0.7499548025
 40
1.0
 40
1.0
 40
1.0
 40
1.0
 10
1206.9319945891
 20
-434.9655008485
 30
0.0
 10
1206.9319853585
 20
-434.3843308896
 30
0.0
 10
1206.804720618
 20
-433.2180488404
 30
0.0
 10
1206.2405583732
 20
-431.5541366918
 30
0.0
 10
1205.3304000537
 20
-430.0510918748
 30
0.0
 10
1204.5193817445
 20
-429.2029715135
 30
0.0
 10
1204.0742954666
 20
-428.8290092918
 30
0.0
  0
LINE
  5
681
100
AcDbEntity
  8
0
100
AcDbLine
 62
9
  6
CONTINUOUS
 10
1208.4319945926
 20
-443.9970761199
 11
1208.4319945925
 21
-428.2465917811
  0
SPLINE
  5
682
100
AcDbEntity
  8
0
100
AcDbSpline
 62
9
  6
CONTINUOUS
 70
0
 71
3
 72
11
 73
7
 74
0
 42
0.0000001
 43
0.0000001
 44
0.0000000001
 40
0.0
 40
0.0
 40
0.0
 40
0.0
 40
0.2499984174
 40
0.4999960013
 40
0.7499956411
 40
1.0
 40
1.0
 40
1.0
 40
1.0
 10
1202.1459326376
 20
-285.3797674753
 30
0.0
 10
1202.4244604436
 20
-285.1446331377
 30
0.0
 10
1202.931699912
 20
-284.6115288462
 30
0.0
 10
1203.5003169207
 20
-283.6677021274
 30
0.0
 10
1203.8525481541
 20
-282.6236689654
 30
0.0
 10
1203.931981432
 20
-281.8921991204
 30
0.0
 10
1203.9319945891
 20
-281.5276827138
 30
0.0
  0
SPLINE
  5
683
100
AcDbEntity
  8
0
100
AcDbSpline
 62
9
  6
CONTINUOUS
 70
0
 71
3
 72
11
 73
7
 74
0
 42
0.0000001
 43
0.0000001
 44
0.0000000001
 40
0.0
 40
0.0
 40
0.0
 40
0.0
 40
0.2500003721
 40
0.4999947006
 40
0.7499916583
 40
1.0
 40
1.0
 40
1.0
 40
1.0
 10
1167.1897706501
 20
-313.4554096132
 30
0.0
 10
1167.4809428662
 20
-313.4553999028
 30
0.0
 10
1168.0645911629
 20
-313.4034637759
 30
0.0
 10
1168.9115355625
 20
-313.1723073319
 30
0.0
 10
1169.7047279622
 20
-312.7960973889
 30
0.0
 10
1170.1820268025
 20
-312.4563905158
 30
0.0
 10
1170.4037086985
 20
-312.2675948538
 30
0.0
  0
SPLINE
  5
684
100
AcDbEntity
  8
0
100
AcDbSpline
 62
9
  6
CONTINUOUS
 70
0
 71
3
 72
11
 73
7
 74
0
 42
0.0000001
 43
0.0000001
 44
0.0000000001
 40
0.0
 40
0.0
 40
0.0
 40
0.0
 40
0.2500579822
 40
0.5000859427
 40
0.7500635539
 40
1.0
 40
1.0
 40
1.0
 40
1.0
 10
1141.9319945891
 20
-312.4399328765
 30
0.0
 10
1141.9320041928
 20
-312.5710280971
 30
0.0
 10
1141.983172709
 20
-312.8359655958
 30
0.0
 10
1142.2034972392
 20
-313.1733315841
 30
0.0
 10
1142.5359081851
 20
-313.4016056018
 30
0.0
 10
1142.8009630851
 20
-313.4553995914
 30
0.0
 10
1142.9319945891
 20
-313.4554096132
 30
0.0
  0
LINE
  5
685
100
AcDbEntity
  8
0
100
AcDbLine
 62
9
  6
CONTINUOUS
 10
1208.4319945926
 20
-288.2465917801
 11
1208.4319945924
 21
-272.4961074421
  0
SPLINE
  5
686
100
AcDbEntity
  8
0
100
AcDbSpline
 62
9
  6
CONTINUOUS
 70
0
 71
3
 72
15
 73
11
 74
0
 42
0.0000001
 43
0.0000001
 44
0.0000000001
 40
0.0
 40
0.0
 40
0.0
 40
0.0
 40
0.1255361551
 40
0.2509782306
 40
0.3762715529
 40
0.501364377
 40
0.6262468595
 40
0.7509433456
 40
0.8754983825
 40
1.0
 40
1.0
 40
1.0
 40
1.0
 10
1142.9319945891
 20
-400.0845091907
 30
0.0
 10
1142.6705107768
 20
-400.0845195592
 30
0.0
 10
1142.146309109
 20
-400.135647544
 30
0.0
 10
1141.3912742221
 20
-400.362939382
 30
0.0
 10
1140.6951637358
 20
-400.731981318
 30
0.0
 10
1140.0851269915
 20
-401.2286869427
 30
0.0
 10
1139.5845075001
 20
-401.8339330875
 30
0.0
 10
1139.2125784011
 20
-402.524576169
 30
0.0
 10
1138.9835298413
 20
-403.2736928069
 30
0.0
 10
1138.9320019723
 20
-403.7939217491
 30
0.0
 10
1138.9319945891
 20
-404.0532506857
 30
0.0
  0
SPLINE
  5
687
100
AcDbEntity
  8
0
100
AcDbSpline
 62
9
  6
CONTINUOUS
 70
0
 71
3
 72
11
 73
7
 74
0
 42
0.0000001
 43
0.0000001
 44
0.0000000001
 40
0.0
 40
0.0
 40
0.0
 40
0.0
 40
0.2499364461
 40
0.4999140573
 40
0.7499420178
 40
1.0
 40
1.0
 40
1.0
 40
1.0
 10
1142.9319945891
 20
-403.037773949
 30
0.0
 10
1142.8009630851
 20
-403.037783971
 30
0.0
 10
1142.5359081851
 20
-403.0915779604
 30
0.0
 10
1142.2034972392
 20
-403.3198519781
 30
0.0
 10
1141.983172709
 20
-403.6572179664
 30
0.0
 10
1141.9320041928
 20
-403.9221554651
 30
0.0
 10
1141.9319945891
 20
-404.0532506857
 30
0.0
  0
SPLINE
  5
688
100
AcDbEntity
  8
0
100
AcDbSpline
 62
9
  6
CONTINUOUS
 70
0
 71
3
 72
11
 73
7
 74
0
 42
0.0000001
 43
0.0000001
 44
0.0000000001
 40
0.0
 40
0.0
 40
0.0
 40
0.0
 40
0.2500083417
 40
0.5000052994
 40
0.7499996279
 40
1.0
 40
1.0
 40
1.0
 40
1.0
 10
1170.4037086985
 20
-404.2255887085
 30
0.0
 10
1170.1820268016
 20
-404.0367930475
 30
0.0
 10
1169.7047279627
 20
-403.6970861728
 30
0.0
 10
1168.9115355624
 20
-403.3208762304
 30
0.0
 10
1168.0645911629
 20
-403.0897197864
 30
0.0
 10
1167.4809428662
 20
-403.0377836593
 30
0.0
 10
1167.1897706501
 20
-403.037773949
 30
0.0
  0
SPLINE
  5
689
100
AcDbEntity
  8
0
100
AcDbSpline
 62
9
  6
CONTINUOUS
 70
0
 71
3
 72
19
 73
15
 74
0
 42
0.0000001
 43
0.0000001
 44
0.0000000001
 40
0.0
 40
0.0
 40
0.0
 40
0.0
 40
0.0082193818
 40
0.0150131973
 40
0.0239309005
 40
0.0350558061
 40
0.0484044699
 40
0.0817256021
 40
0.1739963385
 40
0.2976838236
 40
0.448222098
 40
0.619924072
 40
0.8062343825
 40
1.0
 40
1.0
 40
1.0
 40
1.0
 10
1221.4319945891
 20
-387.2281010382
 30
0.0
 10
1221.4324138191
 20
-387.3109571245
 30
0.0
 10
1221.5646092648
 20
-387.4361298978
 30
0.0
 10
1221.7721003186
 20
-387.5415157931
 30
0.0
 10
1222.0277045285
 20
-387.640209471
 30
0.0
 10
1222.3496955685
 20
-387.7351958798
 30
0.0
 10
1222.9165325911
 20
-387.872713482
 30
0.0
 10
1224.2951429305
 20
-388.1225954264
 30
0.0
 10
1226.79337696
 20
-388.410973518
 30
0.0
 10
1230.4766788094
 20
-388.6996810645
 30
0.0
 10
1234.9662224757
 20
-388.9364131238
 30
0.0
 10
1240.0898736955
 20
-389.1134492051
 30
0.0
 10
1245.6513115091
 20
-389.2222519295
 30
0.0
 10
1249.482787236
 20
-389.2466015957
 30
0.0
 10
1251.4360808688
 20
-389.246618089
 30
0.0
  0
SPLINE
  5
68A
100
AcDbEntity
  8
0
100
AcDbSpline
 62
9
  6
CONTINUOUS
 70
0
 71
3
 72
19
 73
15
 74
0
 42
0.0000001
 43
0.0000001
 44
0.0000000001
 40
0.0
 40
0.0
 40
0.0
 40
0.0
 40
0.1860846023
 40
0.3652384073
 40
0.5308513717
 40
0.6769625603
 40
0.7411133919
 40
0.7986375682
 40
0.8491385101
 40
0.8923892293
 40
0.9283541288
 40
0.957389953
 40
0.9805230032
 40
1.0
 40
1.0
 40
1.0
 40
1.0
 10
1251.4361874578
 20
-393.1258737004
 30
0.0
 10
1249.4824282456
 20
-393.1258363926
 30
0.0
 10
1245.6472900165
 20
-393.0557554645
 30
0.0
 10
1240.081094419
 20
-392.741020945
 30
0.0
 10
1234.9511047998
 20
-392.22859155
 30
0.0
 10
1231.0472265408
 20
-391.6304393005
 30
0.0
 10
1228.2960824579
 20
-391.0470843305
 30
0.0
 10
1226.5457921042
 20
-390.5919131111
 30
0.0
 10
1225.0332261976
 20
-390.1036222716
 30
0.0
 10
1223.7711189675
 20
-389.5872457573
 30
0.0
 10
1222.7679724401
 20
-389.0464420689
 30
0.0
 10
1222.0282960951
 20
-388.4814107112
 30
0.0
 10
1221.5531274628
 20
-387.8824816648
 30
0.0
 10
1221.4323478772
 20
-387.432595686
 30
0.0
 10
1221.4319945891
 20
-387.2281010389
 30
0.0
  0
SPLINE
  5
68B
100
AcDbEntity
  8
0
100
AcDbSpline
 62
9
  6
CONTINUOUS
 70
0
 71
3
 72
19
 73
15
 74
0
 42
0.0000001
 43
0.0000001
 44
0.0000000001
 40
0.0
 40
0.0
 40
0.0
 40
0.0
 40
0.1937656201
 40
0.3800759331
 40
0.5517779095
 40
0.702316186
 40
0.8260036727
 40
0.9182744108
 40
0.9515955308
 40
0.9649441955
 40
0.9760691154
 40
0.9849868494
 40
0.9917806938
 40
1.0
 40
1.0
 40
1.0
 40
1.0
 10
1251.4360809152
 20
-299.246565473
 30
0.0
 10
1249.4827872802
 20
-299.2465819664
 30
0.0
 10
1245.651311548
 20
-299.2709316245
 30
0.0
 10
1240.0898737292
 20
-299.379734377
 30
0.0
 10
1234.966222495
 20
-299.5567703816
 30
0.0
 10
1230.476678841
 20
-299.7935026344
 30
0.0
 10
1226.7933769357
 20
-300.0822097548
 30
0.0
 10
1224.2951431067
 20
-300.3705885264
 30
0.0
 10
1222.9165328007
 20
-300.620469783
 30
0.0
 10
1222.3496957074
 20
-300.7579874136
 30
0.0
 10
1222.0277044151
 20
-300.85297425
 30
0.0
 10
1221.7720994588
 20
-300.9516689114
 30
0.0
 10
1221.56460971
 20
-301.0570552178
 30
0.0
 10
1221.4324123159
 20
-301.1822271939
 30
0.0
 10
1221.4319945891
 20
-301.265082524
 30
0.0
  0
SPLINE
  5
68C
100
AcDbEntity
  8
0
100
AcDbSpline
 62
9
  6
CONTINUOUS
 70
0
 71
3
 72
19
 73
15
 74
0
 42
0.0000001
 43
0.0000001
 44
0.0000000001
 40
0.0
 40
0.0
 40
0.0
 40
0.0
 40
0.0194770475
 40
0.0426100756
 40
0.0716458963
 40
0.1076107917
 40
0.1508615078
 40
0.2013624497
 40
0.2588866254
 40
0.3230374553
 40
0.4691486404
 40
0.6347616011
 40
0.813915402
 40
1.0
 40
1.0
 40
1.0
 40
1.0
 10
1221.4319945891
 20
-301.2650825233
 30
0.0
 10
1221.432346601
 20
-301.0605873366
 30
0.0
 10
1221.5531252932
 20
-300.6107000833
 30
0.0
 10
1222.0282969371
 20
-300.0117729562
 30
0.0
 10
1222.7679727092
 20
-299.4467418967
 30
0.0
 10
1223.7711189319
 20
-298.9059375785
 30
0.0
 10
1225.0332261416
 20
-298.3895611614
 30
0.0
 10
1226.5457921251
 20
-297.9012705496
 30
0.0
 10
1228.2960824803
 20
-297.4460992886
 30
0.0
 10
1231.0472265452
 20
-296.8627441813
 30
0.0
 10
1234.9511048271
 20
-296.2645920537
 30
0.0
 10
1240.0810944415
 20
-295.752162595
 30
0.0
 10
1245.6472900487
 20
-295.4374281093
 30
0.0
 10
1249.4824282807
 20
-295.3673471648
 30
0.0
 10
1251.4361874946
 20
-295.367309862
 30
0.0
  0
SPLINE
  5
68D
100
AcDbEntity
  8
0
100
AcDbSpline
 62
9
  6
CONTINUOUS
 70
0
 71
3
 72
13
 73
9
 74
0
 42
0.0000001
 43
0.0000001
 44
0.0000000001
 40
0.0
 40
0.0
 40
0.0
 40
0.0
 40
0.3571281999
 40
0.5203908942
 40
0.6653669467
 40
0.7874517991
 40
0.8836707819
 40
1.0
 40
1.0
 40
1.0
 40
1.0
 10
1329.0788152059
 20
-393.1258933206
 30
0.0
 10
1328.561716587
 20
-393.1598756341
 30
0.0
 10
1327.809832354
 20
-393.2452254431
 30
0.0
 10
1326.8624310902
 20
-393.4382193577
 30
0.0
 10
1326.2616991808
 20
-393.6025860946
 30
0.0
 10
1325.7620656685
 20
-393.7938128867
 30
0.0
 10
1325.3482034418
 20
-394.0074313191
 30
0.0
 10
1325.0768280113
 20
-394.2730204552
 30
0.0
 10
1325.0886940044
 20
-394.4414034124
 30
0.0
  0
SPLINE
  5
68E
100
AcDbEntity
  8
0
100
AcDbSpline
 62
9
  6
CONTINUOUS
 70
0
 71
3
 72
13
 73
9
 74
0
 42
0.0000001
 43
0.0000001
 44
0.0000000001
 40
0.0
 40
0.0
 40
0.0
 40
0.0
 40
0.3571265561
 40
0.5203885569
 40
0.6653642869
 40
0.787449285
 40
0.8836688482
 40
1.0
 40
1.0
 40
1.0
 40
1.0
 10
1261.7851739726
 20
-393.1258983731
 30
0.0
 10
1262.3022687548
 20
-393.1598809223
 30
0.0
 10
1263.0541475102
 20
-393.2452298828
 30
0.0
 10
1264.0015426017
 20
-393.4382211683
 30
0.0
 10
1264.6022720026
 20
-393.6025861521
 30
0.0
 10
1265.1019049622
 20
-393.7938109952
 30
0.0
 10
1265.5157705405
 20
-394.0074304169
 30
0.0
 10
1265.7871485674
 20
-394.273017221
 30
0.0
 10
1265.7752874723
 20
-394.44140287
 30
0.0
  0
SPLINE
  5
68F
100
AcDbEntity
  8
0
100
AcDbSpline
 62
9
  6
CONTINUOUS
 70
0
 71
3
 72
17
 73
13
 74
0
 42
0.0000001
 43
0.0000001
 44
0.0000000001
 40
0.0
 40
0.0
 40
0.0
 40
0.0
 40
0.1250753236
 40
0.2501441361
 40
0.3752039266
 40
0.5002447448
 40
0.6252437946
 40
0.7501324999
 40
0.8126404003
 40
0.8751193588
 40
0.9375700155
 40
1.0
 40
1.0
 40
1.0
 40
1.0
 10
1328.6454354709
 20
-389.2465917811
 30
0.0
 10
1328.3444194544
 20
-386.4124298606
 30
0.0
 10
1327.5653113305
 20
-380.7611693901
 30
0.0
 10
1325.8221290253
 20
-372.3836000139
 30
0.0
 10
1323.4319868805
 20
-364.165140278
 30
0.0
 10
1320.2787975401
 20
-356.2027206005
 30
0.0
 10
1316.1866190755
 20
-348.6762121418
 30
0.0
 10
1311.7453880812
 20
-343.0354326746
 30
0.0
 10
1307.4156136888
 20
-339.3084901503
 30
0.0
 10
1303.7505985402
 20
-337.0696248602
 30
0.0
 10
1299.7112169763
 20
-335.5933055606
 30
0.0
 10
1296.8545922007
 20
-335.246614195
 30
0.0
 10
1295.4319945891
 20
-335.2465917811
 30
0.0
  0
SPLINE
  5
690
100
AcDbEntity
  8
0
100
AcDbSpline
 62
9
  6
CONTINUOUS
 70
0
 71
3
 72
19
 73
15
 74
0
 42
0.0000001
 43
0.0000001
 44
0.0000000001
 40
0.0
 40
0.0
 40
0.0
 40
0.0
 40
0.1323425325
 40
0.2616923214
 40
0.3876733332
 40
0.5101629284
 40
0.6295016758
 40
0.6884001057
 40
0.7471987809
 40
0.806537661
 40
0.8675153878
 40
0.931741688
 40
0.9655127161
 40
1.0
 40
1.0
 40
1.0
 40
1.0
 10
1261.7851739726
 20
-393.1259021259
 30
0.0
 10
1261.4940112514
 20
-397.1732854949
 30
0.0
 10
1261.2762486012
 20
-405.2065724057
 30
0.0
 10
1261.9797245097
 20
-417.086291462
 30
0.0
 10
1263.6876901522
 20
-428.5615659642
 30
0.0
 10
1266.4361582033
 20
-439.5186147251
 30
0.0
 10
1269.723074279
 20
-448.1682363988
 30
0.0
 10
1273.0958660193
 20
-454.6158120966
 30
0.0
 10
1276.0708357715
 20
-459.1686658893
 30
0.0
 10
1279.6268895989
 20
-463.3775537391
 30
0.0
 10
1283.9531655608
 20
-467.0725352704
 30
0.0
 10
1288.3318889008
 20
-469.3570781565
 30
0.0
 10
1292.2770806869
 20
-470.3887978154
 30
0.0
 10
1294.3745572529
 20
-470.5722157463
 30
0.0
 10
1295.4319945891
 20
-470.5730166516
 30
0.0
  0
SPLINE
  5
691
100
AcDbEntity
  8
0
100
AcDbSpline
 62
9
  6
CONTINUOUS
 70
0
 71
3
 72
19
 73
15
 74
0
 42
0.0000001
 43
0.0000001
 44
0.0000000001
 40
0.0
 40
0.0
 40
0.0
 40
0.0
 40
0.0344868926
 40
0.0682573501
 40
0.1324840436
 40
0.1934622503
 40
0.2528013501
 40
0.3116001809
 40
0.3704987349
 40
0.4898377053
 40
0.6123275243
 40
0.7383087294
 40
0.867658123
 40
1.0
 40
1.0
 40
1.0
 40
1.0
 10
1295.4319945891
 20
-470.5730166516
 30
0.0
 10
1296.4894196271
 20
-470.5722801152
 30
0.0
 10
1298.5869001916
 20
-470.3890129266
 30
0.0
 10
1302.5319528301
 20
-469.3568308364
 30
0.0
 10
1306.9107627322
 20
-467.0725534154
 30
0.0
 10
1311.2370765333
 20
-463.3775167976
 30
0.0
 10
1314.7931640883
 20
-459.168637661
 30
0.0
 10
1317.7681419272
 20
-454.6157689527
 30
0.0
 10
1321.140939993
 20
-448.1681829266
 30
0.0
 10
1324.4278483905
 20
-439.5185421591
 30
0.0
 10
1327.1763229036
 20
-428.5614790886
 30
0.0
 10
1328.8842739309
 20
-417.0862049697
 30
0.0
 10
1329.5877375559
 20
-405.2065160914
 30
0.0
 10
1329.3699786636
 20
-397.1732639522
 30
0.0
 10
1329.0788152057
 20
-393.1259021259
 30
0.0
  0
SPLINE
  5
692
100
AcDbEntity
  8
0
100
AcDbSpline
 62
9
  6
CONTINUOUS
 70
0
 71
3
 72
17
 73
13
 74
0
 42
0.0000001
 43
0.0000001
 44
0.0000000001
 40
0.0
 40
0.0
 40
0.0
 40
0.0
 40
0.0625296714
 40
0.1250704638
 40
0.1875982771
 40
0.2501131023
 40
0.3749646697
 40
0.4999223385
 40
0.6249208731
 40
0.7499388292
 40
0.8749662254
 40
1.0
 40
1.0
 40
1.0
 40
1.0
 10
1295.4319945891
 20
-335.2465917811
 30
0.0
 10
1294.0071254796
 20
-335.2472235943
 30
0.0
 10
1291.146119953
 20
-335.5940703416
 30
0.0
 10
1287.1022887788
 20
-337.0747573046
 30
0.0
 10
1283.4358488334
 20
-339.3176052517
 30
0.0
 10
1279.1078909752
 20
-343.047286308
 30
0.0
 10
1274.6697677495
 20
-348.6882364595
 30
0.0
 10
1270.5805315456
 20
-356.2131720297
 30
0.0
 10
1267.4293288714
 20
-364.1732695868
 30
0.0
 10
1265.0405713077
 20
-372.3891425173
 30
0.0
 10
1263.2982607758
 20
-380.763979709
 30
0.0
 10
1262.5194710967
 20
-386.4133713664
 30
0.0
 10
1262.2185537074
 20
-389.2465917811
 30
0.0
  0
SPLINE
  5
693
100
AcDbEntity
  8
0
100
AcDbSpline
 62
7
  6
CONTINUOUS
 70
0
 71
3
 72
13
 73
9
 74
0
 42
0.0000001
 43
0.0000001
 44
0.0000000001
 40
0.0
 40
0.0
 40
0.0
 40
0.0
 40
0.0971244504
 40
0.2046992349
 40
0.3216928101
 40
0.4466862522
 40
0.7150656827
 40
1.0
 40
1.0
 40
1.0
 40
1.0
 10
1454.2569394276
 20
-284.2465917811
 30
0.0
 10
1453.4253193791
 20
-284.2465917811
 30
0.0
 10
1451.6725339266
 20
-284.4678909048
 30
0.0
 10
1449.0202872252
 20
-285.2308516393
 30
0.0
 10
1446.2412382279
 20
-286.3535792697
 30
0.0
 10
1442.3193295593
 20
-288.2869839834
 30
0.0
 10
1437.3295511893
 20
-291.2748358774
 30
0.0
 10
1433.4195373318
 20
-293.9523824956
 30
0.0
 10
1431.4319945891
 20
-295.3672814363
 30
0.0
  0
SPLINE
  5
694
100
AcDbEntity
  8
0
100
AcDbSpline
 62
7
  6
CONTINUOUS
 70
0
 71
3
 72
13
 73
9
 74
0
 42
0.0000001
 43
0.0000001
 44
0.0000000001
 40
0.0
 40
0.0
 40
0.0
 40
0.0
 40
0.284920289
 40
0.5532929859
 40
0.6782909882
 40
0.7952857027
 40
0.9028734705
 40
1.0
 40
1.0
 40
1.0
 40
1.0
 10
1431.4319945891
 20
-393.1259021259
 30
0.0
 10
1433.4194398707
 20
-394.5407316857
 30
0.0
 10
1437.3293132936
 20
-397.218165789
 30
0.0
 10
1442.3189340652
 20
-400.2060206894
 30
0.0
 10
1446.2408397046
 20
-402.1394031265
 30
0.0
 10
1449.0199857625
 20
-403.2623299153
 30
0.0
 10
1451.6723959068
 20
-404.0252303296
 30
0.0
 10
1453.4253014125
 20
-404.2465917811
 30
0.0
 10
1454.2569394276
 20
-404.2465917811
 30
0.0
  0
ELLIPSE
  5
695
100
AcDbEntity
  8
02___PRT_ALL_AXES
100
AcDbEllipse
 62
7
  6
CONTINUOUS
 10
211.1840148764
 20
71.2836039511
 30
0.0
 11
65.0
 21
0.0
 31
0.0
 40
0.4615384615
 41
0.0
 42
6.2831853072
  0
ELLIPSE
  5
696
100
AcDbEntity
  8
02___PRT_ALL_AXES
100
AcDbEllipse
 62
7
  6
CONTINUOUS
 10
1295.4319945891
 20
-404.2465917811
 30
0.0
 11
0.0
 21
65.0
 31
0.0
 40
0.4615384615
 41
0.0
 42
6.2831853072
  0
ENDSEC
  0
SECTION
  2
OBJECTS
  0
DICTIONARY
  5
C
100
AcDbDictionary
280
0
281
1
  3
ACAD_GROUP
350
D
  3
ACAD_MLINESTYLE
350
17
  3
ACAD_LAYOUT
350
1A
  3
ACAD_PLOTSETTINGS
350
19
  3
ACAD_PLOTSTYLENAME
350
E
  0
DICTIONARY
  5
D
102
{ACAD_REACTORS
330
C
102
}
100
AcDbDictionary
280
0
281
1
  0
ACDBDICTIONARYWDFLT
  5
E
102
{ACAD_REACTORS
330
C
102
}
100
AcDbDictionary
281
1
  3
Normal
350
F
100
AcDbDictionaryWithDefault
340
F
  0
DICTIONARY
  5
17
102
{ACAD_REACTORS
330
C
102
}
100
AcDbDictionary
280
0
281
1
  3
Standard
350
18
  0
DICTIONARY
  5
19
102
{ACAD_REACTORS
330
C
102
}
100
AcDbDictionary
281
1
  0
DICTIONARY
  5
1A
102
{ACAD_REACTORS
330
C
102
}
100
AcDbDictionary
281
1
  3
Model
350
697
  3
Layout1
350
698
  0
ACDBPLACEHOLDER
  5
F
102
{ACAD_REACTORS
330
E
102
}
  0
MLINESTYLE
  5
18
102
{ACAD_REACTORS
330
17
102
}
100
AcDbMlineStyle
  2
STANDARD
 70
0
  3

 62
256
 51
90.0
 52
90.0
 71
2
 49
0.5
 62
256
  6
BYLAYER
 49
-0.5
 62
256
  6
BYLAYER
  0
LAYOUT
  5
697
102
{ACAD_REACTORS
330
1A
102
}
100
AcDbPlotSettings
  1

  2
none_device
  4

  6

 40
0.0
 41
0.0
 42
0.0
 43
0.0
 44
210.0
 45
297.0
 46
0.0
 47
0.0
 48
0.0
 49
0.0
140
0.0
141
0.0
142
1.0
143
1.0
 70
1024
 72
1
 73
0
 74
0
  7

 75
0
147
1.0
148
0.0
149
0.0
100
AcDbLayout
  1
Model
 70
0
 71
0
 10
0.0
 20
0.0
 11
210.0
 21
297.0
 12
0.0
 22
0.0
 32
0.0
 14
0.0
 24
0.0
 34
0.0
 15
0.0
 25
0.0
 35
0.0
146
0.0
 13
0.0
 23
0.0
 33
0.0
 16
1.0
 26
0.0
 36
0.0
 17
0.0
 27
1.0
 37
0.0
 76
0
330
21A
345
0
346
0
  0
LAYOUT
  5
698
102
{ACAD_REACTORS
330
1A
102
}
100
AcDbPlotSettings
  1

  2
none_device
  4

  6

 40
0.0
 41
0.0
 42
0.0
 43
0.0
 44
210.0
 45
297.0
 46
0.0
 47
0.0
 48
0.0
 49
0.0
140
0.0
141
0.0
142
1.0
143
1.0
 70
0
 72
1
 73
0
 74
0
  7

 75
0
147
1.0
148
0.0
149
0.0
100
AcDbLayout
  1
Layout1
 70
0
 71
1
 10
0.0
 20
0.0
 11
210.0
 21
297.0
 12
0.0
 22
0.0
 32
0.0
 14
0.0
 24
0.0
 34
0.0
 15
0.0
 25
0.0
 35
0.0
146
0.0
 13
0.0
 23
0.0
 33
0.0
 16
1.0
 26
0.0
 36
0.0
 17
0.0
 27
1.0
 37
0.0
 76
0
330
21B
345
0
346
0
  0
ENDSEC
  0
EOF
