999
DXF file: s_88_t_f_2.dxf
999
Pro/ENGINEER 2011370 by Parametric Technology Corporation
  0
SECTION
  2
HEADER
  9
$ACADVER
  1
AC1015
  9
$DWGCODEPAGE
  3
ANSI_1252
  9
$EXTMAX
 10
210.0
 20
297.0
 30
0.0
  9
$EXTMIN
 10
0.0
 20
0.0
 30
0.0
  9
$LIMMIN
 10
0.0
 20
0.0
  9
$LIMMAX
 10
210.0
 20
297.0
  9
$VIEWCTR
 10
105.0
 20
148.5
  9
$VIEWSIZE
 40
297.0
  9
$CLAYER
  8
0
  9
$LTSCALE
 40
19.36
  9
$CELTYPE
  6
BYLAYER
  9
$DIMSCALE
 40
1.0
  9
$DIMASZ
 40
2.0
  9
$DIMEXO
 40
2.2
  9
$DIMDLI
 40
13.376
  9
$DIMEXE
 40
6.336
  9
$DIMCEN
 40
3.168
  9
$DIMLFAC
 40
1.0
  9
$DIMBLK
  1
_FILLED
  9
$DIMTXT
 40
2.0
  9
$DIMTOL
 70
0
  9
$DIMLIM
 70
0
  9
$DIMTFAC
 40
1.0
  9
$PDMODE
 70
3
  9
$PDSIZE
 40
0.3125
  9
$HANDSEED
  5
6CD
  9
$TILEMODE
 70
1
  9
$MEASUREMENT
 70
1
  9
$INSUNITS
 70
4
  0
ENDSEC
  0
SECTION
  2
CLASSES
  0
CLASS
  1
ACDBDICTIONARYWDFLT
  2
AcDbDictionaryWithDefault
  3
AutoCAD 2000
 90
0
280
0
281
0
  0
CLASS
  1
ACDBPLACEHOLDER
  2
AcDbPlaceHolder
  3
AutoCAD 2000
 90
0
280
0
281
0
  0
CLASS
  1
LAYOUT
  2
AcDbLayout
  3
AutoCAD 2000
 90
0
280
0
281
0
  0
ENDSEC
  0
SECTION
  2
TABLES
  0
TABLE
  2
VPORT
  5
8
100
AcDbSymbolTable
 70
2
  0
VPORT
  5
1F4
100
AcDbSymbolTableRecord
100
AcDbViewportTableRecord
  2
*ACTIVE
 70
0
 10
0.0
 20
0.0
 11
1.0
 21
1.0
 12
105.0
 22
148.5
 13
0.0
 23
0.0
 14
1.0
 24
1.0
 15
0.0
 25
0.0
 16
0.0
 26
0.0
 36
1.0
 17
0.0
 27
0.0
 37
0.0
 40
297.0
 41
0.7070707071
 42
50.0
 43
0.0
 44
0.0
 50
0.0
 51
0.0
 71
0
 72
100
 73
1
 74
1
 75
0
 76
0
 77
0
 78
0
  0
ENDTAB
  0
TABLE
  2
LTYPE
  5
5
100
AcDbSymbolTable
 70
6
  0
LTYPE
  5
14
100
AcDbSymbolTableRecord
100
AcDbLinetypeTableRecord
  2
BYBLOCK
 70
0
  3

 72
65
 73
0
 40
0.0
  0
LTYPE
  5
15
100
AcDbSymbolTableRecord
100
AcDbLinetypeTableRecord
  2
BYLAYER
 70
0
  3

 72
65
 73
0
 40
0.0
  0
LTYPE
  5
16
100
AcDbSymbolTableRecord
100
AcDbLinetypeTableRecord
  2
CONTINUOUS
 70
64
  3
Solid line
 72
65
 73
0
 40
0.0
  0
LTYPE
  5
1F5
100
AcDbSymbolTableRecord
100
AcDbLinetypeTableRecord
  2
CENTER
 70
64
  3
____ _ ____ _ ____ _ ____ _ ____ _ ____ _ ____
 72
65
 73
4
 40
0.6
 49
0.375
 74
0
 49
-0.075
 74
0
 49
0.075
 74
0
 49
-0.075
 74
0
  0
LTYPE
  5
1F6
100
AcDbSymbolTableRecord
100
AcDbLinetypeTableRecord
  2
HIDDEN
 70
64
  3
- - - - - - - - - - - - - - - - - - - -
 72
65
 73
2
 40
0.2
 49
0.1
 74
0
 49
-0.1
 74
0
  0
LTYPE
  5
1F7
100
AcDbSymbolTableRecord
100
AcDbLinetypeTableRecord
  2
PHANTOM
 70
64
  3
_____ _ _ _____ _ _ _____ _ _ _____
 72
65
 73
6
 40
0.8
 49
0.45
 74
0
 49
-0.05
 74
0
 49
0.1
 74
0
 49
-0.05
 74
0
 49
0.1
 74
0
 49
-0.05
 74
0
  0
LTYPE
  5
1F8
100
AcDbSymbolTableRecord
100
AcDbLinetypeTableRecord
  2
DOT
 70
64
  3
. . . . . . . . . . . . . . . . . . . .
 72
65
 73
2
 40
0.2
 49
0.1
 74
0
 49
-0.1
 74
0
  0
LTYPE
  5
1F9
100
AcDbSymbolTableRecord
100
AcDbLinetypeTableRecord
  2
DASHED
 70
64
  3
- - - - - - - - - - - - - - - - - - - -
 72
65
 73
2
 40
0.2
 49
0.1
 74
0
 49
-0.1
 74
0
  0
ENDTAB
  0
TABLE
  2
LAYER
  5
2
100
AcDbSymbolTable
 70
36
  0
LAYER
  5
10
100
AcDbSymbolTableRecord
100
AcDbLayerTableRecord
  2
0
 70
0
 62
7
  6
CONTINUOUS
370
-3
390
F
  0
LAYER
  5
1FA
100
AcDbSymbolTableRecord
100
AcDbLayerTableRecord
  2
DEFAULT_1
 70
0
 62
7
  6
CENTER
370
-3
390
F
  0
LAYER
  5
1FB
100
AcDbSymbolTableRecord
100
AcDbLayerTableRecord
  2
DEFAULT_2
 70
0
 62
8
  6
HIDDEN
370
-3
390
F
  0
LAYER
  5
1FC
100
AcDbSymbolTableRecord
100
AcDbLayerTableRecord
  2
DEFAULT_3
 70
0
 62
7
  6
PHANTOM
370
-3
390
F
  0
LAYER
  5
1FD
100
AcDbSymbolTableRecord
100
AcDbLayerTableRecord
  2
01___PRT_ALL_DTM_PLN
 70
0
 62
7
  6
CONTINUOUS
370
-3
390
F
  0
LAYER
  5
1FE
100
AcDbSymbolTableRecord
100
AcDbLayerTableRecord
  2
01___PRT_DEF_DTM_PLN
 70
0
 62
7
  6
CONTINUOUS
370
-3
390
F
  0
LAYER
  5
1FF
100
AcDbSymbolTableRecord
100
AcDbLayerTableRecord
  2
02___PRT_ALL_AXES
 70
0
 62
7
  6
CONTINUOUS
370
-3
390
F
  0
LAYER
  5
200
100
AcDbSymbolTableRecord
100
AcDbLayerTableRecord
  2
03___PRT_ALL_CURVES
 70
0
 62
7
  6
CONTINUOUS
370
-3
390
F
  0
LAYER
  5
201
100
AcDbSymbolTableRecord
100
AcDbLayerTableRecord
  2
04___PRT_ALL_DTM_PNT
 70
0
 62
7
  6
CONTINUOUS
370
-3
390
F
  0
LAYER
  5
202
100
AcDbSymbolTableRecord
100
AcDbLayerTableRecord
  2
05___PRT_ALL_DTM_CSYS
 70
0
 62
7
  6
CONTINUOUS
370
-3
390
F
  0
LAYER
  5
203
100
AcDbSymbolTableRecord
100
AcDbLayerTableRecord
  2
05___PRT_DEF_DTM_CSYS
 70
0
 62
7
  6
CONTINUOUS
370
-3
390
F
  0
LAYER
  5
204
100
AcDbSymbolTableRecord
100
AcDbLayerTableRecord
  2
06___PRT_ALL_SURFS
 70
0
 62
7
  6
CONTINUOUS
370
-3
390
F
  0
LAYER
  5
205
100
AcDbSymbolTableRecord
100
AcDbLayerTableRecord
  2
1_ALL_PLANES
 70
0
 62
7
  6
CONTINUOUS
370
-3
390
F
  0
LAYER
  5
206
100
AcDbSymbolTableRecord
100
AcDbLayerTableRecord
  2
1_SISCO
 70
0
 62
7
  6
CONTINUOUS
370
-3
390
F
  0
LAYER
  5
207
100
AcDbSymbolTableRecord
100
AcDbLayerTableRecord
  2
1__DEF_ASM_PLN
 70
0
 62
7
  6
CONTINUOUS
370
-3
390
F
  0
LAYER
  5
208
100
AcDbSymbolTableRecord
100
AcDbLayerTableRecord
  2
1__DEF_PLANES
 70
0
 62
7
  6
CONTINUOUS
370
-3
390
F
  0
LAYER
  5
209
100
AcDbSymbolTableRecord
100
AcDbLayerTableRecord
  2
2_ALL_CSYS
 70
0
 62
7
  6
CONTINUOUS
370
-3
390
F
  0
LAYER
  5
20A
100
AcDbSymbolTableRecord
100
AcDbLayerTableRecord
  2
2_PIANI
 70
0
 62
7
  6
CONTINUOUS
370
-3
390
F
  0
LAYER
  5
20B
100
AcDbSymbolTableRecord
100
AcDbLayerTableRecord
  2
2__DEF_ASM_CSYS
 70
0
 62
7
  6
CONTINUOUS
370
-3
390
F
  0
LAYER
  5
20C
100
AcDbSymbolTableRecord
100
AcDbLayerTableRecord
  2
2__DEF_CSYS
 70
0
 62
7
  6
CONTINUOUS
370
-3
390
F
  0
LAYER
  5
20D
100
AcDbSymbolTableRecord
100
AcDbLayerTableRecord
  2
3_ALL_AXES
 70
0
 62
7
  6
CONTINUOUS
370
-3
390
F
  0
LAYER
  5
20E
100
AcDbSymbolTableRecord
100
AcDbLayerTableRecord
  2
3_PUNTI
 70
0
 62
7
  6
CONTINUOUS
370
-3
390
F
  0
LAYER
  5
20F
100
AcDbSymbolTableRecord
100
AcDbLayerTableRecord
  2
4_ALL_POINTS
 70
0
 62
7
  6
CONTINUOUS
370
-3
390
F
  0
LAYER
  5
210
100
AcDbSymbolTableRecord
100
AcDbLayerTableRecord
  2
4_CURVE
 70
0
 62
7
  6
CONTINUOUS
370
-3
390
F
  0
LAYER
  5
211
100
AcDbSymbolTableRecord
100
AcDbLayerTableRecord
  2
5_ALL_CURVES
 70
0
 62
7
  6
CONTINUOUS
370
-3
390
F
  0
LAYER
  5
212
100
AcDbSymbolTableRecord
100
AcDbLayerTableRecord
  2
5_SUPERFICI
 70
0
 62
7
  6
CONTINUOUS
370
-3
390
F
  0
LAYER
  5
213
100
AcDbSymbolTableRecord
100
AcDbLayerTableRecord
  2
6_ALL_SURFS
 70
0
 62
7
  6
CONTINUOUS
370
-3
390
F
  0
LAYER
  5
214
100
AcDbSymbolTableRecord
100
AcDbLayerTableRecord
  2
7_ALL_QUILTS
 70
0
 62
7
  6
CONTINUOUS
370
-3
390
F
  0
LAYER
  5
215
100
AcDbSymbolTableRecord
100
AcDbLayerTableRecord
  2
8_ALL_CGFEAT
 70
0
 62
7
  6
CONTINUOUS
370
-3
390
F
  0
LAYER
  5
216
100
AcDbSymbolTableRecord
100
AcDbLayerTableRecord
  2
9_ALL_THREAD
 70
0
 62
7
  6
CONTINUOUS
370
-3
390
F
  0
LAYER
  5
217
100
AcDbSymbolTableRecord
100
AcDbLayerTableRecord
  2
FILETTATURE
 70
0
 62
7
  6
CONTINUOUS
370
-3
390
F
  0
ENDTAB
  0
TABLE
  2
STYLE
  5
3
100
AcDbSymbolTable
 70
1
  0
STYLE
  5
11
100
AcDbSymbolTableRecord
100
AcDbTextStyleTableRecord
  2
STANDARD
 70
0
 40
0.0
 41
1.0
 50
0.0
 71
0
 42
0.2
  3
arial.ttf
  4

  0
STYLE
  5
218
100
AcDbSymbolTableRecord
100
AcDbTextStyleTableRecord
  2
TEXTSTYLE_1
 70
0
 40
0.0
 41
0.8
 50
0.0
 71
0
 42
0.2
  3
gdt
  4

  0
ENDTAB
  0
TABLE
  2
VIEW
  5
6
100
AcDbSymbolTable
 70
0
  0
ENDTAB
  0
TABLE
  2
UCS
  5
7
100
AcDbSymbolTable
 70
0
  0
ENDTAB
  0
TABLE
  2
APPID
  5
9
100
AcDbSymbolTable
 70
1
  0
APPID
  5
219
100
AcDbSymbolTableRecord
100
AcDbRegAppTableRecord
  2
ACAD
 70
0
  0
ENDTAB
  0
TABLE
  2
BLOCK_RECORD
  5
1
100
AcDbSymbolTable
 70
0
  0
BLOCK_RECORD
  5
21A
100
AcDbSymbolTableRecord
100
AcDbBlockTableRecord
  2
*Model_Space
  0
BLOCK_RECORD
  5
21B
100
AcDbSymbolTableRecord
100
AcDbBlockTableRecord
  2
*Paper_Space
  0
ENDTAB
  0
TABLE
  2
DIMSTYLE
  5
A
100
AcDbSymbolTable
 70
1
100
AcDbDimStyleTable
 71
0
  0
DIMSTYLE
105
21C
100
AcDbSymbolTableRecord
100
AcDbDimStyleTableRecord
  2
STANDARD
 70
0
  3

  4

 40
1.0
 41
2.0
 42
0.0625
 43
0.38
 44
0.18
 45
0.0
 46
0.0
 47
0.01
 48
0.01
140
2.0
141
0.09
142
0.0
143
25.4
144
1.0
145
0.0
146
1.0
147
0.09
 71
0.0
 72
0.0
 73
1
 74
1
 75
0
 76
0
 77
0
 78
8
170
0
171
2
172
0
173
0
174
0
175
0
176
0
177
0
178
0
270
2
271
2
272
2
273
2
274
2
275
0
280
0
281
0
282
0
283
1
284
8
285
0
286
0
287
3
288
0
340
11
  0
ENDTAB
  0
ENDSEC
  0
SECTION
  2
BLOCKS
  0
BLOCK
  5
20
100
AcDbEntity
  8
0
100
AcDbBlockBegin
  2
*Model_Space
 70
0
 10
0.0
 20
0.0
 30
0.0
  3
*Model_Space
  1

  0
ENDBLK
  5
21
100
AcDbEntity
  8
0
100
AcDbBlockEnd
  0
BLOCK
  5
1C
100
AcDbEntity
  8
0
100
AcDbBlockBegin
  2
*Paper_Space
 70
0
 10
0.0
 20
0.0
 30
0.0
  3
*Paper_Space
  1

  0
ENDBLK
  5
1D
100
AcDbEntity
  8
0
100
AcDbBlockEnd
  0
ENDSEC
  0
SECTION
  2
ENTITIES
  0
LINE
  5
21D
100
AcDbEntity
  8
0
100
AcDbLine
 62
7
  6
CONTINUOUS
 10
704.6253550806
 20
285.7272254298
 11
704.6253550806
 21
82.2957221217
  0
LINE
  5
21E
100
AcDbEntity
  8
0
100
AcDbLine
 62
7
  6
CONTINUOUS
 10
710.4832180093
 20
68.1535878748
 11
718.7674646983
 21
59.8693395431
  0
LINE
  5
21F
100
AcDbEntity
  8
0
100
AcDbLine
 62
9
  6
CONTINUOUS
 10
710.4832180093
 20
68.1535878748
 11
710.4832180093
 21
299.8693596768
  0
LINE
  5
220
100
AcDbEntity
  8
0
100
AcDbLine
 62
9
  6
CONTINUOUS
 10
718.7674647226
 20
308.1536080204
 11
718.7674647226
 21
59.8693395311
  0
LINE
  5
221
100
AcDbEntity
  8
0
100
AcDbLine
 62
9
  6
CONTINUOUS
 10
732.9096017259
 20
314.0114737629
 11
732.9096017259
 21
54.0114737886
  0
LINE
  5
222
100
AcDbEntity
  8
0
100
AcDbLine
 62
7
  6
CONTINUOUS
 10
774.6253550806
 20
64.0114737758
 11
784.6253550806
 21
54.0114737758
  0
LINE
  5
223
100
AcDbEntity
  8
0
100
AcDbLine
 62
7
  6
CONTINUOUS
 10
774.6253550806
 20
314.0099501386
 11
774.6253550806
 21
54.0129974129
  0
LINE
  5
224
100
AcDbEntity
  8
0
100
AcDbLine
 62
7
  6
CONTINUOUS
 10
784.6253550806
 20
314.0114737758
 11
784.6253550806
 21
54.0114737758
  0
LINE
  5
225
100
AcDbEntity
  8
0
100
AcDbLine
 62
7
  6
CONTINUOUS
 10
789.6253550806
 20
24.0114737758
 11
789.6253550806
 21
28.0114737758
  0
LINE
  5
226
100
AcDbEntity
  8
0
100
AcDbLine
 62
7
  6
CONTINUOUS
 10
710.4832180093
 20
299.8693596768
 11
718.7674646983
 21
308.1536080085
  0
LINE
  5
227
100
AcDbEntity
  8
0
100
AcDbLine
 62
9
  6
CONTINUOUS
 10
804.6253550806
 20
24.0114737758
 11
804.6253550806
 21
28.0114737758
  0
LINE
  5
228
100
AcDbEntity
  8
0
100
AcDbLine
 62
9
  6
CONTINUOUS
 10
825.6253550806
 20
28.0114737758
 11
825.6253550806
 21
24.0114737758
  0
LINE
  5
229
100
AcDbEntity
  8
0
100
AcDbLine
 62
3
  6
CONTINUOUS
 10
829.6253550806
 20
44.0114737758
 11
829.6253550806
 21
32.0114737758
  0
LINE
  5
22A
100
AcDbEntity
  8
0
100
AcDbLine
 62
7
  6
CONTINUOUS
 10
833.6253550806
 20
44.0114737758
 11
833.6253550806
 21
32.0114737758
  0
LINE
  5
22B
100
AcDbEntity
  8
0
100
AcDbLine
 62
7
  6
CONTINUOUS
 10
835.6253550806
 20
52.0114737758
 11
835.6253550806
 21
67.0114737758
  0
LINE
  5
22C
100
AcDbEntity
  8
0
100
AcDbLine
 62
9
  6
CONTINUOUS
 10
837.6253550806
 20
52.0114737758
 11
837.6253550806
 21
48.0114737758
  0
LINE
  5
22D
100
AcDbEntity
  8
0
100
AcDbLine
 62
7
  6
CONTINUOUS
 10
774.6253550806
 20
304.0114737758
 11
784.6253550806
 21
314.0114737758
  0
LINE
  5
22E
100
AcDbEntity
  8
0
100
AcDbLine
 62
7
  6
CONTINUOUS
 10
1340.1253550806
 20
24.0114737758
 11
1280.1253550806
 21
24.0114737758
  0
LINE
  5
22F
100
AcDbEntity
  8
0
100
AcDbLine
 62
7
  6
CONTINUOUS
 10
1099.6253550806
 20
24.0114737758
 11
1063.6253550806
 21
24.0114737758
  0
LINE
  5
230
100
AcDbEntity
  8
0
100
AcDbLine
 62
7
  6
CONTINUOUS
 10
825.6253550806
 20
24.0114737758
 11
789.6253550806
 21
24.0114737758
  0
LINE
  5
231
100
AcDbEntity
  8
0
100
AcDbLine
 62
7
  6
CONTINUOUS
 10
1410.1253550806
 20
27.0114737758
 11
1340.1253550806
 21
27.0114737758
  0
LINE
  5
232
100
AcDbEntity
  8
0
100
AcDbLine
 62
7
  6
CONTINUOUS
 10
1280.1253550806
 20
27.0114737758
 11
1240.1253550806
 21
27.0114737758
  0
LINE
  5
233
100
AcDbEntity
  8
0
100
AcDbLine
 62
3
  6
CONTINUOUS
 10
789.6253550806
 20
28.0114737758
 11
825.6253550806
 21
28.0114737758
  0
LINE
  5
234
100
AcDbEntity
  8
0
100
AcDbLine
 62
3
  6
CONTINUOUS
 10
1063.6253550806
 20
28.0114737758
 11
1099.6253550806
 21
28.0114737758
  0
LINE
  5
235
100
AcDbEntity
  8
0
100
AcDbLine
 62
9
  6
CONTINUOUS
 10
1059.6253550806
 20
32.0114737758
 11
1055.6253550806
 21
32.0114737758
  0
LINE
  5
236
100
AcDbEntity
  8
0
100
AcDbLine
 62
9
  6
CONTINUOUS
 10
829.6253550806
 20
32.0114737758
 11
833.6253550806
 21
32.0114737758
  0
LINE
  5
237
100
AcDbEntity
  8
02___PRT_ALL_AXES
100
AcDbLine
 62
7
  6
CONTINUOUS
 10
1427.0664082188
 20
34.0114737758
 11
1440.1253550806
 21
34.0114737758
  0
LINE
  5
238
100
AcDbEntity
  8
0
100
AcDbLine
 62
9
  6
CONTINUOUS
 10
1290.1253550806
 20
39.0114737758
 11
1340.1253550806
 21
39.0114737758
  0
LINE
  5
239
100
AcDbEntity
  8
0
100
AcDbLine
 62
7
  6
CONTINUOUS
 10
1280.1253550806
 20
42.0114737758
 11
1337.1253550806
 21
42.0114737758
  0
LINE
  5
23A
100
AcDbEntity
  8
0
100
AcDbLine
 62
9
  6
CONTINUOUS
 10
1059.6253550806
 20
44.0114737758
 11
1055.6253550806
 21
44.0114737758
  0
LINE
  5
23B
100
AcDbEntity
  8
0
100
AcDbLine
 62
9
  6
CONTINUOUS
 10
829.6253550806
 20
44.0114737758
 11
833.6253550806
 21
44.0114737758
  0
LINE
  5
23C
100
AcDbEntity
  8
0
100
AcDbLine
 62
7
  6
CONTINUOUS
 10
1051.6253550806
 20
48.0114737758
 11
837.6253550806
 21
48.0114737758
  0
LINE
  5
23D
100
AcDbEntity
  8
0
100
AcDbLine
 62
7
  6
CONTINUOUS
 10
1219.6253550806
 20
49.0114737758
 11
1210.6253550806
 21
49.0114737758
  0
LINE
  5
23E
100
AcDbEntity
  8
0
100
AcDbLine
 62
3
  6
CONTINUOUS
 10
1051.6253550806
 20
52.0114737758
 11
837.6253550806
 21
52.0114737758
  0
LINE
  5
23F
100
AcDbEntity
  8
0
100
AcDbLine
 62
7
  6
CONTINUOUS
 10
835.6253550806
 20
52.0114737758
 11
837.6253550806
 21
52.0114737758
  0
LINE
  5
240
100
AcDbEntity
  8
0
100
AcDbLine
 62
7
  6
CONTINUOUS
 10
1051.6253550806
 20
52.0114737758
 11
1053.6253550806
 21
52.0114737758
  0
LINE
  5
241
100
AcDbEntity
  8
02___PRT_ALL_AXES
100
AcDbLine
 62
7
  6
CONTINUOUS
 10
732.9096017171
 20
54.0114737758
 11
774.6253550806
 21
54.0114737758
  0
LINE
  5
242
100
AcDbEntity
  8
02___PRT_ALL_AXES
100
AcDbLine
 62
7
  6
CONTINUOUS
 10
784.6253550806
 20
54.0114737758
 11
835.6253550806
 21
54.0114737758
  0
LINE
  5
243
100
AcDbEntity
  8
02___PRT_ALL_AXES
100
AcDbLine
 62
7
  6
CONTINUOUS
 10
1053.6253550806
 20
54.0114737758
 11
1102.6253550177
 21
54.0114737758
  0
LINE
  5
244
100
AcDbEntity
  8
0
100
AcDbLine
 62
7
  6
CONTINUOUS
 10
1340.1253550806
 20
58.5830879967
 11
1290.1253550806
 21
58.5830879967
  0
LINE
  5
245
100
AcDbEntity
  8
3_ALL_AXES
100
AcDbLine
 62
7
  6
CONTINUOUS
 10
1220.1253550806
 20
61.5114737758
 11
1219.6253550806
 21
61.5114737758
  0
LINE
  5
246
100
AcDbEntity
  8
0
100
AcDbLine
 62
7
  6
CONTINUOUS
 10
835.6253550806
 20
67.0114737758
 11
1053.6253550806
 21
67.0114737758
  0
LINE
  5
247
100
AcDbEntity
  8
0
100
AcDbLine
 62
7
  6
CONTINUOUS
 10
932.6253550806
 20
293.5559852768
 11
932.6253550806
 21
364.0114737758
  0
LINE
  5
248
100
AcDbEntity
  8
0
100
AcDbLine
 62
9
  6
CONTINUOUS
 10
1202.6299759839
 20
107.813515129
 11
1205.6253550806
 21
107.9799605166
  0
LINE
  5
249
100
AcDbEntity
  8
3_ALL_AXES
100
AcDbLine
 62
7
  6
CONTINUOUS
 10
1135.6253550806
 20
84.0114737758
 11
1123.6253550806
 21
84.0114737758
  0
LINE
  5
24A
100
AcDbEntity
  8
0
100
AcDbLine
 62
7
  6
CONTINUOUS
 10
1123.6253550806
 20
84.0114737758
 11
1204.6253550806
 21
84.0114737758
  0
LINE
  5
24B
100
AcDbEntity
  8
0
100
AcDbLine
 62
9
  6
CONTINUOUS
 10
1137.6253550806
 20
86.0114737758
 11
1208.6253550806
 21
86.0114737755
  0
LINE
  5
24C
100
AcDbEntity
  8
02___PRT_ALL_AXES
100
AcDbLine
 62
7
  6
CONTINUOUS
 10
1440.1253550806
 20
94.0114737758
 11
1434.1253550806
 21
94.0114737758
  0
LINE
  5
24D
100
AcDbEntity
  8
0
100
AcDbLine
 62
7
  6
CONTINUOUS
 10
1140.6253550806
 20
94.0114737758
 11
1202.6253550806
 21
94.0114737758
  0
LINE
  5
24E
100
AcDbEntity
  8
0
100
AcDbLine
 62
9
  6
CONTINUOUS
 10
1208.6253550806
 20
95.1384904293
 11
1206.6231763704
 21
95.1384904296
  0
LINE
  5
24F
100
AcDbEntity
  8
0
100
AcDbLine
 62
7
  6
CONTINUOUS
 10
1290.1253550806
 20
95.8551900878
 11
1280.1253550806
 21
95.8551900878
  0
LINE
  5
250
100
AcDbEntity
  8
0
100
AcDbLine
 62
9
  6
CONTINUOUS
 10
1137.6253550806
 20
97.0114737758
 11
1205.6253550806
 21
97.0114737758
  0
LINE
  5
251
100
AcDbEntity
  8
0
100
AcDbLine
 62
9
  6
CONTINUOUS
 10
1205.6253550806
 20
114.0114828052
 11
1208.6253550806
 21
114.0114737758
  0
LINE
  5
252
100
AcDbEntity
  8
0
100
AcDbLine
 62
9
  6
CONTINUOUS
 10
1122.6253550806
 20
124.0114737758
 11
1137.6253550806
 21
124.0114737758
  0
LINE
  5
253
100
AcDbEntity
  8
0
100
AcDbLine
 62
7
  6
CONTINUOUS
 10
1440.1253550806
 20
129.0114737758
 11
1434.1253550806
 21
129.0114737758
  0
LWPOLYLINE
  5
254
100
AcDbEntity
  8
0
100
AcDbPolyline
 62
7
  6
CONTINUOUS
 90
6
 70
0
 10
1434.1253550806
 20
94.011491437
 10
1433.5226889843
 20
94.0571527839
 10
1432.186182863
 20
94.5129749622
 10
1431.0913500314
 20
95.4048020044
 10
1430.3746331247
 20
96.621487097
 10
1430.1253506308
 20
98.0113995263
  0
LINE
  5
255
100
AcDbEntity
  8
0
100
AcDbLine
 62
9
  6
CONTINUOUS
 10
1165.8831311416
 20
140.4081482145
 11
1141.6253550806
 21
140.4081482145
  0
LINE
  5
256
100
AcDbEntity
  8
0
100
AcDbLine
 62
9
  6
CONTINUOUS
 10
1165.8831311416
 20
143.283092757
 11
1141.6253550806
 21
143.283092757
  0
LINE
  5
257
100
AcDbEntity
  8
0
100
AcDbLine
 62
9
  6
CONTINUOUS
 10
1430.1253550806
 20
154.0114737758
 11
1440.1253550806
 21
154.0114737758
  0
LINE
  5
258
100
AcDbEntity
  8
0
100
AcDbLine
 62
9
  6
CONTINUOUS
 10
1140.5764944481
 20
138.8264084037
 11
1137.6253550806
 21
139.3656453032
  0
LINE
  5
259
100
AcDbEntity
  8
0
100
AcDbLine
 62
9
  6
CONTINUOUS
 10
1051.6253550806
 20
52.0114737758
 11
1051.6253550806
 21
48.0114737758
  0
LINE
  5
25A
100
AcDbEntity
  8
0
100
AcDbLine
 62
7
  6
CONTINUOUS
 10
1053.6253550806
 20
52.0114737758
 11
1053.6253550806
 21
67.0114737758
  0
LINE
  5
25B
100
AcDbEntity
  8
0
100
AcDbLine
 62
9
  6
CONTINUOUS
 10
1137.6253550806
 20
176.0114737758
 11
1135.6253550806
 21
176.0114737758
  0
LINE
  5
25C
100
AcDbEntity
  8
0
100
AcDbLine
 62
9
  6
CONTINUOUS
 10
1205.6253550806
 20
176.0114737758
 11
1208.6253550806
 21
176.0114737758
  0
LINE
  5
25D
100
AcDbEntity
  8
0
100
AcDbLine
 62
9
  6
CONTINUOUS
 10
1141.6253550806
 20
176.5389463032
 11
1165.8831311416
 21
176.5389463032
  0
LINE
  5
25E
100
AcDbEntity
  8
0
100
AcDbLine
 62
7
  6
CONTINUOUS
 10
1205.6253550806
 20
179.0114737758
 11
1140.6253550806
 21
179.0114737758
  0
LINE
  5
25F
100
AcDbEntity
  8
0
100
AcDbLine
 62
9
  6
CONTINUOUS
 10
1140.6253550806
 20
181.0114737758
 11
1208.6253550806
 21
181.011473776
  0
LINE
  5
260
100
AcDbEntity
  8
0
100
AcDbLine
 62
9
  6
CONTINUOUS
 10
1220.1253550806
 20
184.0114737758
 11
1430.1253550806
 21
184.0114737758
  0
LINE
  5
261
100
AcDbEntity
  8
0
100
AcDbLine
 62
9
  6
CONTINUOUS
 10
1140.6253550806
 20
187.0114737758
 11
1208.6253550806
 21
187.0114737756
  0
LINE
  5
262
100
AcDbEntity
  8
0
100
AcDbLine
 62
7
  6
CONTINUOUS
 10
1140.6253550806
 20
189.0114737758
 11
1205.6253550806
 21
189.0114737758
  0
LINE
  5
263
100
AcDbEntity
  8
0
100
AcDbLine
 62
9
  6
CONTINUOUS
 10
1165.8831311416
 20
191.4840012483
 11
1141.6253550806
 21
191.4840012483
  0
LINE
  5
264
100
AcDbEntity
  8
0
100
AcDbLine
 62
9
  6
CONTINUOUS
 10
1208.6253550806
 20
192.0114737758
 11
1205.6253550806
 21
192.0114737758
  0
LINE
  5
265
100
AcDbEntity
  8
0
100
AcDbLine
 62
9
  6
CONTINUOUS
 10
1137.6253550806
 20
192.0114737758
 11
1135.6253550807
 21
192.011473776
  0
LINE
  5
266
100
AcDbEntity
  8
0
100
AcDbLine
 62
7
  6
CONTINUOUS
 10
1055.6253550806
 20
32.0114737758
 11
1055.6253550806
 21
44.0114737758
  0
LINE
  5
267
100
AcDbEntity
  8
0
100
AcDbLine
 62
3
  6
CONTINUOUS
 10
1059.6253550806
 20
32.0114737758
 11
1059.6253550806
 21
44.0114737758
  0
LINE
  5
268
100
AcDbEntity
  8
0
100
AcDbLine
 62
9
  6
CONTINUOUS
 10
1063.6253550806
 20
28.0114737758
 11
1063.6253550806
 21
24.0114737758
  0
LINE
  5
269
100
AcDbEntity
  8
0
100
AcDbLine
 62
7
  6
CONTINUOUS
 10
1072.6253550806
 20
293.5559852768
 11
1072.6253550806
 21
364.0114737758
  0
LINE
  5
26A
100
AcDbEntity
  8
0
100
AcDbLine
 62
9
  6
CONTINUOUS
 10
1084.6253550806
 20
24.0114737758
 11
1084.6253550806
 21
28.0114737758
  0
LINE
  5
26B
100
AcDbEntity
  8
0
100
AcDbLine
 62
9
  6
CONTINUOUS
 10
1140.5764944481
 20
229.1965391478
 11
1137.6253550806
 21
228.6573022483
  0
LINE
  5
26C
100
AcDbEntity
  8
0
100
AcDbLine
 62
9
  6
CONTINUOUS
 10
1430.1253550806
 20
224.0114737758
 11
1440.1253550806
 21
224.0114737758
  0
LINE
  5
26D
100
AcDbEntity
  8
0
100
AcDbLine
 62
9
  6
CONTINUOUS
 10
1141.6253550806
 20
224.7398547945
 11
1165.8831311416
 21
224.7398547945
  0
LINE
  5
26E
100
AcDbEntity
  8
0
100
AcDbLine
 62
9
  6
CONTINUOUS
 10
1141.6253550806
 20
227.614799337
 11
1165.8831311416
 21
227.614799337
  0
LINE
  5
26F
100
AcDbEntity
  8
0
100
AcDbLine
 62
7
  6
CONTINUOUS
 10
1099.6253550806
 20
24.0114737758
 11
1099.6253550806
 21
28.0114737758
  0
LINE
  5
270
100
AcDbEntity
  8
0
100
AcDbLine
 62
7
  6
CONTINUOUS
 10
1102.6253551415
 20
314.0114737758
 11
1102.6253551415
 21
54.0114737758
  0
LINE
  5
271
100
AcDbEntity
  8
02___PRT_ALL_AXES
100
AcDbLine
 62
7
  6
CONTINUOUS
 10
1506.1253550806
 20
234.0114737758
 11
1523.1253550806
 21
234.0114737758
  0
LINE
  5
272
100
AcDbEntity
  8
0
100
AcDbLine
 62
9
  6
CONTINUOUS
 10
1122.6253550806
 20
244.0114737758
 11
1137.6253550806
 21
244.0114737758
  0
LINE
  5
273
100
AcDbEntity
  8
0
100
AcDbLine
 62
9
  6
CONTINUOUS
 10
1220.1253550806
 20
244.3303689392
 11
1430.1253550806
 21
244.3303689392
  0
LINE
  5
274
100
AcDbEntity
  8
0
100
AcDbLine
 62
7
  6
CONTINUOUS
 10
1440.1253550806
 20
249.0114737758
 11
1434.1253550806
 21
249.0114737758
  0
LINE
  5
275
100
AcDbEntity
  8
02___PRT_ALL_AXES
100
AcDbLine
 62
7
  6
CONTINUOUS
 10
1434.1253550806
 20
249.0114737758
 11
1440.1253550806
 21
249.0114737758
  0
LINE
  5
276
100
AcDbEntity
  8
0
100
AcDbLine
 62
9
  6
CONTINUOUS
 10
1208.6253550806
 20
254.0114737758
 11
1205.6253550806
 21
254.011464783
  0
LINE
  5
277
100
AcDbEntity
  8
0
100
AcDbLine
 62
7
  6
CONTINUOUS
 10
1122.6253550806
 20
294.0101955883
 11
1122.6253550806
 21
74.0127519633
  0
LINE
  5
278
100
AcDbEntity
  8
0
100
AcDbLine
 62
9
  6
CONTINUOUS
 10
1123.6253550806
 20
84.0114737758
 11
1123.6253550806
 21
284.0114737758
  0
LINE
  5
279
100
AcDbEntity
  8
0
100
AcDbLine
 62
9
  6
CONTINUOUS
 10
1135.6253550806
 20
284.0114737758
 11
1135.6253550806
 21
192.0114737758
  0
LINE
  5
27A
100
AcDbEntity
  8
0
100
AcDbLine
 62
9
  6
CONTINUOUS
 10
1135.6253550806
 20
176.0114737758
 11
1135.6253550806
 21
84.0114737758
  0
LINE
  5
27B
100
AcDbEntity
  8
0
100
AcDbLine
 62
7
  6
CONTINUOUS
 10
1137.6253550806
 20
282.0114737758
 11
1137.6253550806
 21
192.0114737758
  0
LINE
  5
27C
100
AcDbEntity
  8
0
100
AcDbLine
 62
7
  6
CONTINUOUS
 10
1137.6253550806
 20
176.0114737758
 11
1137.6253550806
 21
86.0114737758
  0
LINE
  5
27D
100
AcDbEntity
  8
0
100
AcDbLine
 62
9
  6
CONTINUOUS
 10
1140.6253550806
 20
189.0114737758
 11
1140.6253550806
 21
187.0114737758
  0
LINE
  5
27E
100
AcDbEntity
  8
0
100
AcDbLine
 62
9
  6
CONTINUOUS
 10
1140.6253550806
 20
138.5994709571
 11
1140.6253550806
 21
84.0114737758
  0
LINE
  5
27F
100
AcDbEntity
  8
0
100
AcDbLine
 62
9
  6
CONTINUOUS
 10
1140.6253550806
 20
179.0114737758
 11
1140.6253550809
 21
181.0114737757
  0
LINE
  5
280
100
AcDbEntity
  8
0
100
AcDbLine
 62
9
  6
CONTINUOUS
 10
1140.6253550806
 20
229.4234765944
 11
1140.6253550809
 21
284.0114737758
  0
LINE
  5
281
100
AcDbEntity
  8
0
100
AcDbLine
 62
9
  6
CONTINUOUS
 10
1141.6253550806
 20
227.614799337
 11
1141.6253550806
 21
189.0114737758
  0
LINE
  5
282
100
AcDbEntity
  8
0
100
AcDbLine
 62
9
  6
CONTINUOUS
 10
1141.6253550806
 20
140.4081482145
 11
1141.6253550806
 21
179.0114737758
  0
LINE
  5
283
100
AcDbEntity
  8
0
100
AcDbLine
 62
9
  6
CONTINUOUS
 10
1137.6253550806
 20
271.0114737758
 11
1205.6253550806
 21
271.0114737758
  0
LINE
  5
284
100
AcDbEntity
  8
0
100
AcDbLine
 62
9
  6
CONTINUOUS
 10
1206.6231765175
 20
272.884457122
 11
1208.6253550806
 21
272.8844571223
  0
LINE
  5
285
100
AcDbEntity
  8
0
100
AcDbLine
 62
7
  6
CONTINUOUS
 10
1450.1253550806
 20
274.0114737758
 11
1430.1253550806
 21
274.0114737758
  0
LINE
  5
286
100
AcDbEntity
  8
0
100
AcDbLine
 62
7
  6
CONTINUOUS
 10
1202.6253550806
 20
274.0114737758
 11
1140.6253550806
 21
274.0114737758
  0
LINE
  5
287
100
AcDbEntity
  8
0
100
AcDbLine
 62
9
  6
CONTINUOUS
 10
1137.6253550806
 20
282.0114737758
 11
1208.6253550806
 21
282.011473776
  0
LINE
  5
288
100
AcDbEntity
  8
0
100
AcDbLine
 62
7
  6
CONTINUOUS
 10
1204.6253550806
 20
284.0114737758
 11
1123.6253550806
 21
284.0114737758
  0
LINE
  5
289
100
AcDbEntity
  8
0
100
AcDbLine
 62
9
  6
CONTINUOUS
 10
1453.1253550806
 20
286.0114737758
 11
1440.1253550806
 21
286.0114737758
  0
LINE
  5
28A
100
AcDbEntity
  8
02___PRT_ALL_AXES
100
AcDbLine
 62
7
  6
CONTINUOUS
 10
1455.1253550806
 20
286.0114737758
 11
1501.1253550806
 21
286.0114737758
  0
LINE
  5
28B
100
AcDbEntity
  8
0
100
AcDbLine
 62
9
  6
CONTINUOUS
 10
1440.1253550806
 20
289.0114737758
 11
1430.1253550806
 21
289.0114737758
  0
LINE
  5
28C
100
AcDbEntity
  8
0
100
AcDbLine
 62
7
  6
CONTINUOUS
 10
932.6253550806
 20
293.5559852768
 11
1072.6253550806
 21
293.5559852768
  0
LINE
  5
28D
100
AcDbEntity
  8
0
100
AcDbLine
 62
9
  6
CONTINUOUS
 10
1202.6299759839
 20
260.2094324225
 11
1205.6253550806
 21
260.042987035
  0
LINE
  5
28E
100
AcDbEntity
  8
0
100
AcDbLine
 62
7
  6
CONTINUOUS
 10
1122.6253658334
 20
294.0114844778
 11
1102.625367727
 21
314.0114864851
  0
LINE
  5
28F
100
AcDbEntity
  8
0
100
AcDbLine
 62
9
  6
CONTINUOUS
 10
1169.2192559958
 20
228.9351708976
 11
1171.0254320191
 21
226.6271748721
  0
LINE
  5
290
100
AcDbEntity
  8
0
100
AcDbLine
 62
9
  6
CONTINUOUS
 10
1165.8831311416
 20
140.4081482145
 11
1165.8831311416
 21
179.0114737758
  0
LINE
  5
291
100
AcDbEntity
  8
0
100
AcDbLine
 62
9
  6
CONTINUOUS
 10
1165.8831311416
 20
189.0114737758
 11
1165.8831311416
 21
227.614799337
  0
LINE
  5
292
100
AcDbEntity
  8
0
100
AcDbLine
 62
9
  6
CONTINUOUS
 10
1171.0254320191
 20
141.3957726912
 11
1171.0254320191
 21
176.4054132267
  0
LINE
  5
293
100
AcDbEntity
  8
0
100
AcDbLine
 62
9
  6
CONTINUOUS
 10
1171.0254320191
 20
191.6175343248
 11
1171.0254320191
 21
226.6271748721
  0
LINE
  5
294
100
AcDbEntity
  8
02___PRT_ALL_AXES
100
AcDbLine
 62
7
  6
CONTINUOUS
 10
1180.1253550806
 20
475.0114737758
 11
1180.1253550806
 21
492.0114737758
  0
LINE
  5
295
100
AcDbEntity
  8
3_ALL_AXES
100
AcDbLine
 62
7
  6
CONTINUOUS
 10
1220.1253550806
 20
306.5114737758
 11
1219.6253550806
 21
306.5114737758
  0
LINE
  5
296
100
AcDbEntity
  8
02___PRT_ALL_AXES
100
AcDbLine
 62
7
  6
CONTINUOUS
 10
732.9096017171
 20
314.0114737758
 11
774.6253550806
 21
314.0114737758
  0
LINE
  5
297
100
AcDbEntity
  8
02___PRT_ALL_AXES
100
AcDbLine
 62
7
  6
CONTINUOUS
 10
784.6253550806
 20
314.0114737758
 11
932.6253550806
 21
314.0114737758
  0
LINE
  5
298
100
AcDbEntity
  8
02___PRT_ALL_AXES
100
AcDbLine
 62
7
  6
CONTINUOUS
 10
1072.6253550806
 20
314.0114737758
 11
1102.6253550177
 21
314.0114737758
  0
LINE
  5
299
100
AcDbEntity
  8
0
100
AcDbLine
 62
7
  6
CONTINUOUS
 10
1219.6253550806
 20
319.0114737758
 11
1210.6253550806
 21
319.0114737758
  0
LINE
  5
29A
100
AcDbEntity
  8
0
100
AcDbLine
 62
9
  6
CONTINUOUS
 10
1200.8458992325
 20
256.159823721
 11
1202.7676559581
 21
253.8925019289
  0
LINE
  5
29B
100
AcDbEntity
  8
0
100
AcDbLine
 62
9
  6
CONTINUOUS
 10
1201.0485741008
 20
256.3386228617
 11
1202.9713321114
 21
254.0700068862
  0
LINE
  5
29C
100
AcDbEntity
  8
0
100
AcDbLine
 62
9
  6
CONTINUOUS
 10
1202.6253550806
 20
92.0114492794
 11
1202.6253550806
 21
107.5275473044
  0
LINE
  5
29D
100
AcDbEntity
  8
0
100
AcDbLine
 62
9
  6
CONTINUOUS
 10
1202.6253550806
 20
260.4954002472
 11
1202.6253550806
 21
276.0114982761
  0
LINE
  5
29E
100
AcDbEntity
  8
0
100
AcDbLine
 62
9
  6
CONTINUOUS
 10
1202.7676559581
 20
114.1304456226
 11
1202.7676559581
 21
176.2622772729
  0
LINE
  5
29F
100
AcDbEntity
  8
0
100
AcDbLine
 62
9
  6
CONTINUOUS
 10
1202.7676559581
 20
191.7606702786
 11
1202.7676559581
 21
253.8925019289
  0
LINE
  5
2A0
100
AcDbEntity
  8
0
100
AcDbLine
 62
9
  6
CONTINUOUS
 10
1204.6253550806
 20
84.0114737758
 11
1204.6253550806
 21
92.3178565357
  0
LINE
  5
2A1
100
AcDbEntity
  8
0
100
AcDbLine
 62
9
  6
CONTINUOUS
 10
1204.6253550806
 20
275.7050912555
 11
1204.6253550806
 21
284.0114737758
  0
LINE
  5
2A2
100
AcDbEntity
  8
0
100
AcDbLine
 62
7
  6
CONTINUOUS
 10
1205.6253550806
 20
97.0114737758
 11
1205.6253550806
 21
176.0114737758
  0
LINE
  5
2A3
100
AcDbEntity
  8
0
100
AcDbLine
 62
9
  6
CONTINUOUS
 10
1205.6253550806
 20
179.0114737758
 11
1205.6253550806
 21
189.0114737758
  0
LINE
  5
2A4
100
AcDbEntity
  8
0
100
AcDbLine
 62
7
  6
CONTINUOUS
 10
1205.6253550806
 20
192.0114737758
 11
1205.6253550806
 21
271.0114737758
  0
LINE
  5
2A5
100
AcDbEntity
  8
0
100
AcDbLine
 62
9
  6
CONTINUOUS
 10
1207.1253550793
 20
114.0114737758
 11
1207.1253550806
 21
176.0114737758
  0
LINE
  5
2A6
100
AcDbEntity
  8
0
100
AcDbLine
 62
9
  6
CONTINUOUS
 10
1207.1253550806
 20
192.0114737758
 11
1207.1253550792
 21
254.0114737766
  0
LINE
  5
2A7
100
AcDbEntity
  8
0
100
AcDbLine
 62
7
  6
CONTINUOUS
 10
1208.6253550806
 20
317.0114737758
 11
1208.6253550806
 21
51.0114737758
  0
LINE
  5
2A8
100
AcDbEntity
  8
0
100
AcDbLine
 62
9
  6
CONTINUOUS
 10
1210.6253550806
 20
319.0114737758
 11
1210.6253550806
 21
49.0114737758
  0
LINE
  5
2A9
100
AcDbEntity
  8
0
100
AcDbLine
 62
7
  6
CONTINUOUS
 10
1219.6253550806
 20
319.0114737758
 11
1219.6253550806
 21
49.0114737758
  0
LINE
  5
2AA
100
AcDbEntity
  8
0
100
AcDbLine
 62
7
  6
CONTINUOUS
 10
1220.1253550806
 20
419.0114737758
 11
1220.1253550806
 21
396.0114737758
  0
LINE
  5
2AB
100
AcDbEntity
  8
3_ALL_AXES
100
AcDbLine
 62
7
  6
CONTINUOUS
 10
1220.1253550806
 20
203.1190244424
 11
1220.1253550806
 21
128.5947006118
  0
LINE
  5
2AC
100
AcDbEntity
  8
0
100
AcDbLine
 62
7
  6
CONTINUOUS
 10
1220.1253550806
 20
47.0114738265
 11
1220.1253550806
 21
136.4162970652
  0
LINE
  5
2AD
100
AcDbEntity
  8
0
100
AcDbLine
 62
7
  6
CONTINUOUS
 10
1220.1253550806
 20
203.1190244424
 11
1220.1253550806
 21
374.0114737758
  0
LINE
  5
2AE
100
AcDbEntity
  8
0
100
AcDbLine
 62
9
  6
CONTINUOUS
 10
1232.1253550806
 20
422.0114737758
 11
1232.1253550806
 21
409.0114737758
  0
LINE
  5
2AF
100
AcDbEntity
  8
02___PRT_ALL_AXES
100
AcDbLine
 62
7
  6
CONTINUOUS
 10
1232.1253550806
 20
424.0114737758
 11
1232.1253550806
 21
470.0114737758
  0
LINE
  5
2B0
100
AcDbEntity
  8
0
100
AcDbLine
 62
9
  6
CONTINUOUS
 10
1235.1253550806
 20
409.0114737758
 11
1235.1253550806
 21
396.0114737758
  0
LINE
  5
2B1
100
AcDbEntity
  8
0
100
AcDbLine
 62
7
  6
CONTINUOUS
 10
1237.6253550806
 20
393.7293833053
 11
1237.6253550806
 21
396.0114737758
  0
LINE
  5
2B2
100
AcDbEntity
  8
0
100
AcDbLine
 62
9
  6
CONTINUOUS
 10
1240.1253550806
 20
27.0114737758
 11
1240.1253551089
 21
394.0114737758
  0
LWPOLYLINE
  5
2B3
100
AcDbEntity
  8
0
100
AcDbPolyline
 62
7
  6
CONTINUOUS
 90
6
 70
0
 10
1250.1253479201
 20
398.0114737758
 10
1250.079681847
 20
397.4087769166
 10
1249.6238343656
 20
396.0722481926
 10
1248.7319682477
 20
394.9774106834
 10
1247.5152409723
 20
394.2607123609
 10
1246.2090871621
 20
394.0264881361
  0
LINE
  5
2B4
100
AcDbEntity
  8
0
100
AcDbLine
 62
9
  6
CONTINUOUS
 10
1169.2192530003
 20
139.0877789985
 11
1171.0254320191
 21
141.3957726912
  0
LINE
  5
2B5
100
AcDbEntity
  8
0
100
AcDbLine
 62
7
  6
CONTINUOUS
 10
932.6253550806
 20
364.0114737758
 11
1072.6253550806
 21
364.0114737758
  0
LINE
  5
2B6
100
AcDbEntity
  8
0
100
AcDbLine
 62
9
  6
CONTINUOUS
 10
1440.1253550806
 20
379.0114737758
 11
1427.1833382256
 21
379.0114737758
  0
LINE
  5
2B7
100
AcDbEntity
  8
0
100
AcDbLine
 62
9
  6
CONTINUOUS
 10
1453.1253550806
 20
382.0114737758
 11
1440.1253550806
 21
382.0114737758
  0
LINE
  5
2B8
100
AcDbEntity
  8
02___PRT_ALL_AXES
100
AcDbLine
 62
7
  6
CONTINUOUS
 10
1455.1253550806
 20
382.0114737758
 11
1501.1253550806
 21
382.0114737758
  0
LINE
  5
2B9
100
AcDbEntity
  8
02___PRT_ALL_AXES
100
AcDbLine
 62
7
  6
CONTINUOUS
 10
1250.1253550806
 20
409.0114737758
 11
1250.1253550806
 21
398.0114737758
  0
LINE
  5
2BA
100
AcDbEntity
  8
0
100
AcDbLine
 62
9
  6
CONTINUOUS
 10
1200.8458992583
 20
111.8631238086
 11
1202.7676559581
 21
114.1304456226
  0
LINE
  5
2BB
100
AcDbEntity
  8
0
100
AcDbLine
 62
9
  6
CONTINUOUS
 10
1201.0485741008
 20
111.6843246898
 11
1202.9713321114
 21
113.9529406654
  0
LINE
  5
2BC
100
AcDbEntity
  8
0
100
AcDbLine
 62
7
  6
CONTINUOUS
 10
1122.6253658334
 20
74.0114630737
 11
1102.625367727
 21
54.0114610664
  0
LINE
  5
2BD
100
AcDbEntity
  8
0
100
AcDbLine
 62
9
  6
CONTINUOUS
 10
1313.7032027151
 20
393.2383510472
 11
1410.1253550806
 21
393.2383510472
  0
LINE
  5
2BE
100
AcDbEntity
  8
0
100
AcDbLine
 62
9
  6
CONTINUOUS
 10
1240.1253551122
 20
393.2383648559
 11
1246.5475074462
 21
393.2383510473
  0
LINE
  5
2BF
100
AcDbEntity
  8
0
100
AcDbLine
 62
7
  6
CONTINUOUS
 10
1450.1253550806
 20
394.0114737758
 11
1314.0389305698
 21
394.0114737758
  0
LINE
  5
2C0
100
AcDbEntity
  8
0
100
AcDbLine
 62
7
  6
CONTINUOUS
 10
1246.2117795915
 20
394.0114737758
 11
1240.1253550806
 21
394.0114737758
  0
LINE
  5
2C1
100
AcDbEntity
  8
0
100
AcDbLine
 62
7
  6
CONTINUOUS
 10
1340.1253550806
 20
396.0114737758
 11
1310.6763805789
 21
396.0114737758
  0
LINE
  5
2C2
100
AcDbEntity
  8
0
100
AcDbLine
 62
7
  6
CONTINUOUS
 10
1249.5743268882
 20
396.0114737758
 11
1220.1253550806
 21
396.0114737758
  0
LINE
  5
2C3
100
AcDbEntity
  8
0
100
AcDbLine
 62
9
  6
CONTINUOUS
 10
1250.1253550854
 20
398.0114737758
 11
1250.209385029
 21
398.0114737758
  0
LINE
  5
2C4
100
AcDbEntity
  8
0
100
AcDbLine
 62
9
  6
CONTINUOUS
 10
1310.0413251323
 20
398.0114737758
 11
1310.1253550768
 21
398.0114737758
  0
LINE
  5
2C5
100
AcDbEntity
  8
0
100
AcDbLine
 62
7
  6
CONTINUOUS
 10
1220.1253550806
 20
409.0114737758
 11
1340.1253550806
 21
409.0114737758
  0
LINE
  5
2C6
100
AcDbEntity
  8
02___PRT_ALL_AXES
100
AcDbLine
 62
7
  6
CONTINUOUS
 10
1250.1253550806
 20
409.0114737758
 11
1310.1253550806
 21
409.0114737758
  0
LINE
  5
2C7
100
AcDbEntity
  8
0
100
AcDbLine
 62
9
  6
CONTINUOUS
 10
1220.1253550806
 20
419.0114737758
 11
1340.1253550806
 21
419.0114737758
  0
LINE
  5
2C8
100
AcDbEntity
  8
0
100
AcDbLine
 62
7
  6
CONTINUOUS
 10
1280.1253550806
 20
24.0114737758
 11
1280.1253550806
 21
95.8551900878
  0
LINE
  5
2C9
100
AcDbEntity
  8
0
100
AcDbLine
 62
7
  6
CONTINUOUS
 10
1290.1253550806
 20
39.0114737758
 11
1290.1253550806
 21
95.8551900878
  0
LINE
  5
2CA
100
AcDbEntity
  8
0
100
AcDbLine
 62
7
  6
CONTINUOUS
 10
1223.1253550806
 20
422.0114737758
 11
1337.1253550806
 21
422.0114737758
  0
LINE
  5
2CB
100
AcDbEntity
  8
0
100
AcDbLine
 62
9
  6
CONTINUOUS
 10
1232.1253550809
 20
424.0114737758
 11
1328.1253550804
 21
424.0114737758
  0
LINE
  5
2CC
100
AcDbEntity
  8
02___PRT_ALL_AXES
100
AcDbLine
 62
7
  6
CONTINUOUS
 10
1506.1253550806
 20
434.0114737758
 11
1523.1253550806
 21
434.0114737758
  0
LWPOLYLINE
  5
2CD
100
AcDbEntity
  8
0
100
AcDbPolyline
 62
7
  6
CONTINUOUS
 90
6
 70
0
 10
1314.0416229849
 20
394.0264881881
 10
1312.7354783269
 20
394.2607087219
 10
1311.5187458884
 20
394.977405926
 10
1310.6268760654
 20
396.0722443528
 10
1310.1710266615
 20
397.4087748352
 10
1310.125360261
 20
398.0114737758
  0
LINE
  5
2CE
100
AcDbEntity
  8
02___PRT_ALL_AXES
100
AcDbLine
 62
7
  6
CONTINUOUS
 10
1310.1253550806
 20
398.0114737758
 11
1310.1253550806
 21
409.0114737758
  0
LINE
  5
2CF
100
AcDbEntity
  8
0
100
AcDbLine
 62
7
  6
CONTINUOUS
 10
1322.6253550806
 20
394.0114737758
 11
1322.6253550806
 21
396.0114737758
  0
LINE
  5
2D0
100
AcDbEntity
  8
0
100
AcDbLine
 62
9
  6
CONTINUOUS
 10
1325.1253550806
 20
409.0114737758
 11
1325.1253550806
 21
396.0114737758
  0
LINE
  5
2D1
100
AcDbEntity
  8
0
100
AcDbLine
 62
9
  6
CONTINUOUS
 10
1328.1253550806
 20
422.0114737758
 11
1328.1253550806
 21
409.0114737758
  0
LINE
  5
2D2
100
AcDbEntity
  8
0
100
AcDbLine
 62
9
  6
CONTINUOUS
 10
1328.1253550806
 20
24.0114737758
 11
1328.1253550806
 21
42.0114737758
  0
LINE
  5
2D3
100
AcDbEntity
  8
02___PRT_ALL_AXES
100
AcDbLine
 62
7
  6
CONTINUOUS
 10
1328.1253550806
 20
424.0114737758
 11
1328.1253550806
 21
470.0114737758
  0
LINE
  5
2D4
100
AcDbEntity
  8
0
100
AcDbLine
 62
9
  6
CONTINUOUS
 10
1328.1253550804
 20
470.0114737758
 11
1232.1253550809
 21
470.0114737758
  0
LINE
  5
2D5
100
AcDbEntity
  8
0
100
AcDbLine
 62
7
  6
CONTINUOUS
 10
1183.1253550806
 20
472.0114737758
 11
1377.1253550806
 21
472.0114737758
  0
LINE
  5
2D6
100
AcDbEntity
  8
0
100
AcDbLine
 62
9
  6
CONTINUOUS
 10
1380.1253550806
 20
475.0114737758
 11
1180.1253550806
 21
475.0114737758
  0
LINE
  5
2D7
100
AcDbEntity
  8
0
100
AcDbLine
 62
7
  6
CONTINUOUS
 10
1340.1253550806
 20
419.0114737758
 11
1340.1253550806
 21
396.0114737758
  0
LINE
  5
2D8
100
AcDbEntity
  8
0
100
AcDbLine
 62
7
  6
CONTINUOUS
 10
1340.1253550806
 20
58.5830879967
 11
1340.1253550806
 21
24.0114737758
  0
LINE
  5
2D9
100
AcDbEntity
  8
02___PRT_ALL_AXES
100
AcDbLine
 62
7
  6
CONTINUOUS
 10
1180.1257841878
 20
492.0114737758
 11
1380.1249259735
 21
492.0114737758
  0
LINE
  5
2DA
100
AcDbEntity
  8
02___PRT_ALL_AXES
100
AcDbLine
 62
7
  6
CONTINUOUS
 10
1380.1253550806
 20
475.0114737758
 11
1380.1253550806
 21
492.0114737758
  0
LINE
  5
2DB
100
AcDbEntity
  8
0
100
AcDbLine
 62
9
  6
CONTINUOUS
 10
1410.1253550806
 20
393.2383510472
 11
1410.1253550806
 21
27.0114737758
  0
LINE
  5
2DC
100
AcDbEntity
  8
0
100
AcDbLine
 62
7
  6
CONTINUOUS
 10
1430.1253550806
 20
367.4928632303
 11
1430.1253550806
 21
65.6141204769
  0
LINE
  5
2DD
100
AcDbEntity
  8
0
100
AcDbLine
 62
9
  6
CONTINUOUS
 10
1434.1253550806
 20
249.0114737758
 11
1434.1253550806
 21
129.0114737758
  0
LINE
  5
2DE
100
AcDbEntity
  8
0
100
AcDbLine
 62
9
  6
CONTINUOUS
 10
1434.1253550806
 20
94.0114737758
 11
1434.1253550806
 21
65.2557885077
  0
LINE
  5
2DF
100
AcDbEntity
  8
02___PRT_ALL_AXES
100
AcDbLine
 62
7
  6
CONTINUOUS
 10
1440.1253550806
 20
249.0114737758
 11
1440.1253550806
 21
129.0114737758
  0
LINE
  5
2E0
100
AcDbEntity
  8
02___PRT_ALL_AXES
100
AcDbLine
 62
7
  6
CONTINUOUS
 10
1440.1253550806
 20
94.0114737758
 11
1440.1253550806
 21
34.0114737758
  0
LINE
  5
2E1
100
AcDbEntity
  8
0
100
AcDbLine
 62
7
  6
CONTINUOUS
 10
1440.1253550806
 20
274.0114737758
 11
1440.1253550806
 21
394.0114737758
  0
LINE
  5
2E2
100
AcDbEntity
  8
0
100
AcDbLine
 62
9
  6
CONTINUOUS
 10
1450.1253550806
 20
394.0114737758
 11
1450.1253550806
 21
274.0114737758
  0
LINE
  5
2E3
100
AcDbEntity
  8
0
100
AcDbLine
 62
7
  6
CONTINUOUS
 10
1453.1253550806
 20
391.0114737758
 11
1453.1253550806
 21
277.0114737758
  0
LINE
  5
2E4
100
AcDbEntity
  8
0
100
AcDbLine
 62
9
  6
CONTINUOUS
 10
1455.1253550806
 20
382.0114737756
 11
1455.1253550806
 21
286.011473776
  0
LWPOLYLINE
  5
2E5
100
AcDbEntity
  8
0
100
AcDbPolyline
 62
7
  6
CONTINUOUS
 90
4
 70
0
 10
1424.2428955374
 20
32.8447911173
 10
1425.2127357542
 20
33.556015349
 10
1426.511816057
 20
33.9728224551
 10
1427.0664082095
 20
34.0114555104
  0
LINE
  5
2E6
100
AcDbEntity
  8
0
100
AcDbLine
 62
9
  6
CONTINUOUS
 10
1501.1253550806
 20
286.011473776
 11
1501.1253550806
 21
382.0114737755
  0
LINE
  5
2E7
100
AcDbEntity
  8
0
100
AcDbLine
 62
7
  6
CONTINUOUS
 10
1503.1253550806
 20
431.0114737758
 11
1503.1253550806
 21
237.0114737758
  0
LINE
  5
2E8
100
AcDbEntity
  8
0
100
AcDbLine
 62
9
  6
CONTINUOUS
 10
1506.1253550806
 20
234.0114737758
 11
1506.1253550806
 21
434.0114737758
  0
LINE
  5
2E9
100
AcDbEntity
  8
02___PRT_ALL_AXES
100
AcDbLine
 62
7
  6
CONTINUOUS
 10
1523.1253550806
 20
434.0110446686
 11
1523.1253550806
 21
234.0119028829
  0
LINE
  5
2EA
100
AcDbEntity
  8
0
100
AcDbLine
 62
7
  6
CONTINUOUS
 10
309.9303559878
 20
24.0114737758
 11
19.9303559878
 21
24.0114737758
  0
LINE
  5
2EB
100
AcDbEntity
  8
0
100
AcDbLine
 62
7
  6
CONTINUOUS
 10
259.9303559878
 20
27.0114737758
 11
69.9303559878
 21
27.0114737758
  0
LINE
  5
2EC
100
AcDbEntity
  8
0
100
AcDbLine
 62
9
  6
CONTINUOUS
 10
19.9303559878
 20
39.0114737758
 11
66.9303559878
 21
39.0114737758
  0
LINE
  5
2ED
100
AcDbEntity
  8
0
100
AcDbLine
 62
9
  6
CONTINUOUS
 10
262.9303559878
 20
39.0114737758
 11
309.9303559878
 21
39.0114737758
  0
LINE
  5
2EE
100
AcDbEntity
  8
0
100
AcDbLine
 62
7
  6
CONTINUOUS
 10
22.9303559878
 20
42.0114737758
 11
69.9303559878
 21
42.0114737758
  0
LINE
  5
2EF
100
AcDbEntity
  8
0
100
AcDbLine
 62
7
  6
CONTINUOUS
 10
259.9303559878
 20
42.0114737758
 11
306.9303559878
 21
42.0114737758
  0
LINE
  5
2F0
100
AcDbEntity
  8
0
100
AcDbLine
 62
9
  6
CONTINUOUS
 10
249.858337669
 20
65.6141200763
 11
245.8739717869
 21
65.2557481264
  0
LINE
  5
2F1
100
AcDbEntity
  8
0
100
AcDbLine
 62
9
  6
CONTINUOUS
 10
112.0023741186
 20
65.6141202774
 11
115.9862918373
 21
65.2557884846
  0
LINE
  5
2F2
100
AcDbEntity
  8
0
100
AcDbLine
 62
7
  6
CONTINUOUS
 10
19.9303559878
 20
24.0114737758
 11
19.9303559878
 21
42.0114737758
  0
LINE
  5
2F3
100
AcDbEntity
  8
0
100
AcDbLine
 62
7
  6
CONTINUOUS
 10
23.9303559878
 20
244.3303689392
 11
23.9303559878
 21
184.0114737758
  0
LINE
  5
2F4
100
AcDbEntity
  8
0
100
AcDbLine
 62
9
  6
CONTINUOUS
 10
31.9303559878
 20
24.0114737758
 11
31.9303559878
 21
42.0114737758
  0
LINE
  5
2F5
100
AcDbEntity
  8
0
100
AcDbLine
 62
9
  6
CONTINUOUS
 10
43.9303559878
 20
244.3303689392
 11
43.9303559878
 21
184.0114737758
  0
LINE
  5
2F6
100
AcDbEntity
  8
0
100
AcDbLine
 62
7
  6
CONTINUOUS
 10
75.6032116532
 20
361.236510304
 11
75.6199082984
 21
361.2757832468
  0
LINE
  5
2F7
100
AcDbEntity
  8
0
100
AcDbLine
 62
7
  6
CONTINUOUS
 10
75.6032116532
 20
361.236510304
 11
75.4793981063
 21
360.9758254962
  0
LINE
  5
2F8
100
AcDbEntity
  8
0
100
AcDbLine
 62
7
  6
CONTINUOUS
 10
75.6199076885
 20
361.2757836376
 11
75.4572915739
 21
360.9339598554
  0
LINE
  5
2F9
100
AcDbEntity
  8
0
100
AcDbLine
 62
7
  6
CONTINUOUS
 10
75.4793981063
 20
360.9758254962
 11
75.3367660765
 21
360.7241887104
  0
LINE
  5
2FA
100
AcDbEntity
  8
0
100
AcDbLine
 62
7
  6
CONTINUOUS
 10
75.4572915739
 20
360.9339598554
 11
75.2893371906
 21
360.6490980311
  0
LINE
  5
2FB
100
AcDbEntity
  8
0
100
AcDbLine
 62
7
  6
CONTINUOUS
 10
75.3367660765
 20
360.7241887104
 11
75.1863293225
 21
360.4974776566
  0
LINE
  5
2FC
100
AcDbEntity
  8
0
100
AcDbLine
 62
7
  6
CONTINUOUS
 10
75.2893371906
 20
360.6490980311
 11
75.1125714847
 21
360.3975460587
  0
LINE
  5
2FD
100
AcDbEntity
  8
0
100
AcDbLine
 62
7
  6
CONTINUOUS
 10
75.1863293225
 20
360.4974776566
 11
75.0353514298
 21
360.2992971115
  0
LINE
  5
2FE
100
AcDbEntity
  8
0
100
AcDbLine
 62
7
  6
CONTINUOUS
 10
75.1125714847
 20
360.3975460587
 11
74.9310334927
 21
360.1761461434
  0
LWPOLYLINE
  5
2FF
100
AcDbEntity
  8
0
100
AcDbPolyline
 62
7
  6
CONTINUOUS
 90
3
 70
0
 10
75.0353514298
 20
360.2992971115
 10
74.890492618
 20
360.1307553826
 10
74.7680629104
 20
360.0019561453
  0
LINE
  5
300
100
AcDbEntity
  8
0
100
AcDbLine
 62
7
  6
CONTINUOUS
 10
74.9310334927
 20
360.1761461434
 11
74.7680162889
 21
360.0020241895
  0
LINE
  5
301
100
AcDbEntity
  8
02___PRT_ALL_AXES
100
AcDbLine
 62
7
  6
CONTINUOUS
 10
69.9303559878
 20
24.0114737758
 11
69.9303559878
 21
27.869338152
  0
LINE
  5
302
100
AcDbEntity
  8
0
100
AcDbLine
 62
7
  6
CONTINUOUS
 10
75.9303559878
 20
409.0114737758
 11
75.9303559878
 21
362.820874888
  0
LINE
  5
303
100
AcDbEntity
  8
0
100
AcDbLine
 62
9
  6
CONTINUOUS
 10
86.9303559878
 20
224.0114737758
 11
86.9303559878
 21
154.0114737758
  0
LINE
  5
304
100
AcDbEntity
  8
0
100
AcDbLine
 62
9
  6
CONTINUOUS
 10
115.9303559878
 20
125.0114737758
 11
245.9303559878
 21
125.0114737758
  0
LINE
  5
305
100
AcDbEntity
  8
02___PRT_ALL_AXES
100
AcDbLine
 62
7
  6
CONTINUOUS
 10
115.9303559878
 20
129.0114737758
 11
245.9303559878
 21
129.0114737758
  0
LINE
  5
306
100
AcDbEntity
  8
02___PRT_ALL_AXES
100
AcDbLine
 62
7
  6
CONTINUOUS
 10
246.4591091549
 20
41.3405849849
 11
259.9303559878
 21
27.869338152
  0
LINE
  5
307
100
AcDbEntity
  8
02___PRT_ALL_AXES
100
AcDbLine
 62
7
  6
CONTINUOUS
 10
90.9303559878
 20
224.0114737758
 11
90.9303559878
 21
154.0114737758
  0
LINE
  5
308
100
AcDbEntity
  8
0
100
AcDbLine
 62
9
  6
CONTINUOUS
 10
274.9303559878
 20
154.0114737758
 11
270.9303559878
 21
154.0114737758
  0
LINE
  5
309
100
AcDbEntity
  8
0
100
AcDbLine
 62
9
  6
CONTINUOUS
 10
86.9303559878
 20
154.0114737758
 11
90.9303559878
 21
154.0114737758
  0
LINE
  5
30A
100
AcDbEntity
  8
0
100
AcDbLine
 62
7
  6
CONTINUOUS
 10
262.9303559878
 20
39.0114737758
 11
255.8833972784
 21
46.0584324852
  0
LINE
  5
30B
100
AcDbEntity
  8
0
100
AcDbLine
 62
9
  6
CONTINUOUS
 10
115.9303559878
 20
253.0114737758
 11
115.9303559878
 21
249.0114737758
  0
LINE
  5
30C
100
AcDbEntity
  8
0
100
AcDbLine
 62
9
  6
CONTINUOUS
 10
115.9303559878
 20
125.0114737758
 11
115.9303559878
 21
129.0114737758
  0
LINE
  5
30D
100
AcDbEntity
  8
0
100
AcDbLine
 62
9
  6
CONTINUOUS
 10
43.9303559878
 20
184.0114737758
 11
23.9303559878
 21
184.0114737758
  0
LINE
  5
30E
100
AcDbEntity
  8
0
100
AcDbLine
 62
9
  6
CONTINUOUS
 10
317.9303559878
 20
184.0114737758
 11
337.9303559878
 21
184.0114737758
  0
LINE
  5
30F
100
AcDbEntity
  8
0
100
AcDbLine
 62
7
  6
CONTINUOUS
 10
19.9303559878
 20
42.0114737758
 11
51.0170400948
 21
95.8551900878
  0
LINE
  5
310
100
AcDbEntity
  8
0
100
AcDbLine
 62
9
  6
CONTINUOUS
 10
274.9303559878
 20
224.0114737758
 11
270.9303559878
 21
224.0114737758
  0
LINE
  5
311
100
AcDbEntity
  8
0
100
AcDbLine
 62
9
  6
CONTINUOUS
 10
86.9303559878
 20
224.0114737758
 11
90.9303559878
 21
224.0114737758
  0
LINE
  5
312
100
AcDbEntity
  8
0
100
AcDbLine
 62
7
  6
CONTINUOUS
 10
186.9303559878
 20
492.0114737758
 11
186.9303559878
 21
475.0114737758
  0
LINE
  5
313
100
AcDbEntity
  8
02___PRT_ALL_AXES
100
AcDbLine
 62
7
  6
CONTINUOUS
 10
186.9303559878
 20
475.0114737758
 11
186.9303559878
 21
492.0114737758
  0
LINE
  5
314
100
AcDbEntity
  8
0
100
AcDbLine
 62
7
  6
CONTINUOUS
 10
205.9303559878
 20
409.0114737758
 11
205.9303559878
 21
400.9597961643
  0
LINE
  5
315
100
AcDbEntity
  8
0
100
AcDbLine
 62
9
  6
CONTINUOUS
 10
43.9303559878
 20
244.3303689392
 11
23.9303559878
 21
244.3303689392
  0
LINE
  5
316
100
AcDbEntity
  8
0
100
AcDbLine
 62
9
  6
CONTINUOUS
 10
317.9303559878
 20
244.3303689392
 11
337.9303559878
 21
244.3303689392
  0
LINE
  5
317
100
AcDbEntity
  8
02___PRT_ALL_AXES
100
AcDbLine
 62
7
  6
CONTINUOUS
 10
245.9303559878
 20
249.0114737758
 11
233.3669002609
 21
249.0114737758
  0
LINE
  5
318
100
AcDbEntity
  8
02___PRT_ALL_AXES
100
AcDbLine
 62
7
  6
CONTINUOUS
 10
128.4938117148
 20
249.0114737758
 11
115.9303559878
 21
249.0114737758
  0
LINE
  5
319
100
AcDbEntity
  8
0
100
AcDbLine
 62
9
  6
CONTINUOUS
 10
245.9303559878
 20
253.0114737758
 11
239.455102518
 21
253.0114737758
  0
LINE
  5
31A
100
AcDbEntity
  8
0
100
AcDbLine
 62
9
  6
CONTINUOUS
 10
217.0872524575
 20
253.0114737758
 11
206.107326995
 21
253.0114737758
  0
LINE
  5
31B
100
AcDbEntity
  8
0
100
AcDbLine
 62
9
  6
CONTINUOUS
 10
155.7863285375
 20
253.0114737758
 11
144.8450342598
 21
253.0114737758
  0
LINE
  5
31C
100
AcDbEntity
  8
0
100
AcDbLine
 62
9
  6
CONTINUOUS
 10
122.4056094557
 20
253.0114737758
 11
115.9303559878
 21
253.0114737758
  0
LINE
  5
31D
100
AcDbEntity
  8
0
100
AcDbLine
 62
7
  6
CONTINUOUS
 10
292.0066396422
 20
73.0562611468
 11
309.9303559878
 21
42.0114737758
  0
LINE
  5
31E
100
AcDbEntity
  8
0
100
AcDbLine
 62
9
  6
CONTINUOUS
 10
238.9303559878
 20
422.0114737758
 11
238.9303559878
 21
415.4383866774
  0
LINE
  5
31F
100
AcDbEntity
  8
02___PRT_ALL_AXES
100
AcDbLine
 62
7
  6
CONTINUOUS
 10
238.9303559878
 20
424.0114737758
 11
238.9303559878
 21
470.0114737758
  0
LINE
  5
320
100
AcDbEntity
  8
0
100
AcDbLine
 62
7
  6
CONTINUOUS
 10
238.9303559878
 20
424.0114737758
 11
238.9303559878
 21
470.0114737758
  0
LINE
  5
321
100
AcDbEntity
  8
0
100
AcDbLine
 62
9
  6
CONTINUOUS
 10
245.9303559878
 20
253.0114737758
 11
245.9303559878
 21
249.0114737758
  0
LINE
  5
322
100
AcDbEntity
  8
0
100
AcDbLine
 62
9
  6
CONTINUOUS
 10
245.9303559878
 20
125.0114737758
 11
245.9303559878
 21
129.0114737758
  0
LINE
  5
323
100
AcDbEntity
  8
02___PRT_ALL_AXES
100
AcDbLine
 62
7
  6
CONTINUOUS
 10
259.9303559878
 20
24.0114737758
 11
259.9303559878
 21
27.869338152
  0
LINE
  5
324
100
AcDbEntity
  8
0
100
AcDbLine
 62
7
  6
CONTINUOUS
 10
86.5019702087
 20
58.5830879967
 11
66.9303559878
 21
39.0114737758
  0
LINE
  5
325
100
AcDbEntity
  8
02___PRT_ALL_AXES
100
AcDbLine
 62
7
  6
CONTINUOUS
 10
270.9303559878
 20
154.0114737758
 11
270.9303559878
 21
224.0114737758
  0
LINE
  5
326
100
AcDbEntity
  8
0
100
AcDbLine
 62
9
  6
CONTINUOUS
 10
274.9303559878
 20
154.0114737758
 11
274.9303559878
 21
224.0114737758
  0
LINE
  5
327
100
AcDbEntity
  8
02___PRT_ALL_AXES
100
AcDbLine
 62
7
  6
CONTINUOUS
 10
69.9303559878
 20
27.869338152
 11
94.8043819916
 21
52.7433641558
  0
LINE
  5
328
100
AcDbEntity
  8
0
100
AcDbLine
 62
9
  6
CONTINUOUS
 10
297.9303559878
 20
24.0114737758
 11
297.9303559878
 21
42.0114737758
  0
LINE
  5
329
100
AcDbEntity
  8
0
100
AcDbLine
 62
7
  6
CONTINUOUS
 10
309.9303559878
 20
24.0114737758
 11
309.9303559878
 21
42.0114737758
  0
LINE
  5
32A
100
AcDbEntity
  8
0
100
AcDbLine
 62
9
  6
CONTINUOUS
 10
314.4303559878
 20
326.9545179514
 11
314.4303559878
 21
396.0114737758
  0
LINE
  5
32B
100
AcDbEntity
  8
0
100
AcDbLine
 62
9
  6
CONTINUOUS
 10
317.9303559878
 20
184.0114737758
 11
317.9303559878
 21
244.3303689392
  0
LINE
  5
32C
100
AcDbEntity
  8
0
100
AcDbLine
 62
7
  6
CONTINUOUS
 10
329.4303559878
 20
295.2886852379
 11
329.4303559878
 21
396.0114737758
  0
LINE
  5
32D
100
AcDbEntity
  8
0
100
AcDbLine
 62
9
  6
CONTINUOUS
 10
331.9303559878
 20
409.0114737758
 11
331.9303559878
 21
396.0114737758
  0
LINE
  5
32E
100
AcDbEntity
  8
0
100
AcDbLine
 62
9
  6
CONTINUOUS
 10
334.9303559878
 20
422.0114737758
 11
334.9303559878
 21
409.0114737758
  0
LINE
  5
32F
100
AcDbEntity
  8
02___PRT_ALL_AXES
100
AcDbLine
 62
7
  6
CONTINUOUS
 10
334.9303559878
 20
424.0114737758
 11
334.9303559878
 21
470.0114737758
  0
LINE
  5
330
100
AcDbEntity
  8
0
100
AcDbLine
 62
7
  6
CONTINUOUS
 10
334.9303559878
 20
424.0114737758
 11
334.9303559878
 21
470.0114737758
  0
LINE
  5
331
100
AcDbEntity
  8
0
100
AcDbLine
 62
7
  6
CONTINUOUS
 10
337.9303559878
 20
184.0114737758
 11
337.9303559878
 21
244.3303689392
  0
LINE
  5
332
100
AcDbEntity
  8
0
100
AcDbLine
 62
7
  6
CONTINUOUS
 10
346.9303559878
 20
396.0114737758
 11
259.2841569668
 21
396.0114737758
  0
LINE
  5
333
100
AcDbEntity
  8
0
100
AcDbLine
 62
7
  6
CONTINUOUS
 10
346.9303559878
 20
419.0114737758
 11
346.9303559878
 21
396.0114737758
  0
LINE
  5
334
100
AcDbEntity
  8
0
100
AcDbLine
 62
7
  6
CONTINUOUS
 10
346.9303559878
 20
409.0114737758
 11
246.8300944223
 21
409.0114737758
  0
LINE
  5
335
100
AcDbEntity
  8
02___PRT_ALL_AXES
100
AcDbLine
 62
7
  6
CONTINUOUS
 10
75.9303559878
 20
409.0114737758
 11
115.0306175508
 21
409.0114737758
  0
LINE
  5
336
100
AcDbEntity
  8
02___PRT_ALL_AXES
100
AcDbLine
 62
7
  6
CONTINUOUS
 10
141.4308823666
 20
409.0114737758
 11
159.1991608551
 21
409.0114737758
  0
LINE
  5
337
100
AcDbEntity
  8
02___PRT_ALL_AXES
100
AcDbLine
 62
7
  6
CONTINUOUS
 10
202.677336511
 20
409.0114737758
 11
205.9303559878
 21
409.0114737758
  0
LINE
  5
338
100
AcDbEntity
  8
0
100
AcDbLine
 62
9
  6
CONTINUOUS
 10
233.3669002609
 20
419.0114737758
 11
346.9303559878
 21
419.0114737758
  0
LINE
  5
339
100
AcDbEntity
  8
0
100
AcDbLine
 62
7
  6
CONTINUOUS
 10
229.9303559878
 20
422.0114737758
 11
343.9303559878
 21
422.0114737758
  0
LINE
  5
33A
100
AcDbEntity
  8
0
100
AcDbLine
 62
9
  6
CONTINUOUS
 10
238.9303559878
 20
424.0114737758
 11
334.9303559878
 21
424.0114737758
  0
LINE
  5
33B
100
AcDbEntity
  8
0
100
AcDbLine
 62
7
  6
CONTINUOUS
 10
386.9303559878
 20
492.0114737758
 11
386.9303559878
 21
475.0114737758
  0
LINE
  5
33C
100
AcDbEntity
  8
02___PRT_ALL_AXES
100
AcDbLine
 62
7
  6
CONTINUOUS
 10
386.9303559878
 20
475.0114737758
 11
386.9303559878
 21
492.0114737758
  0
LINE
  5
33D
100
AcDbEntity
  8
0
100
AcDbLine
 62
9
  6
CONTINUOUS
 10
334.9303559878
 20
470.0114737758
 11
238.9303559878
 21
470.0114737758
  0
LINE
  5
33E
100
AcDbEntity
  8
0
100
AcDbLine
 62
7
  6
CONTINUOUS
 10
383.9303559878
 20
472.0114737758
 11
189.9303559878
 21
472.0114737758
  0
LINE
  5
33F
100
AcDbEntity
  8
0
100
AcDbLine
 62
9
  6
CONTINUOUS
 10
386.9303559878
 20
475.0114737758
 11
186.9303559878
 21
475.0114737758
  0
LINE
  5
340
100
AcDbEntity
  8
02___PRT_ALL_AXES
100
AcDbLine
 62
7
  6
CONTINUOUS
 10
186.9303559878
 20
492.0114737758
 11
386.9303559878
 21
492.0114737758
  0
LINE
  5
341
100
AcDbEntity
  8
02___PRT_ALL_AXES
100
AcDbLine
 62
7
  6
CONTINUOUS
 10
-1057.5392988783
 20
234.0119028829
 11
-1057.5392988783
 21
434.0110446686
  0
LINE
  5
342
100
AcDbEntity
  8
0
100
AcDbLine
 62
9
  6
CONTINUOUS
 10
-1040.5392988783
 20
434.0114737758
 11
-1040.5392988783
 21
234.0114737758
  0
LINE
  5
343
100
AcDbEntity
  8
0
100
AcDbLine
 62
7
  6
CONTINUOUS
 10
-1037.5392988783
 20
237.0114737758
 11
-1037.5392988783
 21
431.0114737758
  0
LINE
  5
344
100
AcDbEntity
  8
0
100
AcDbLine
 62
9
  6
CONTINUOUS
 10
-1035.5392988783
 20
382.0114737755
 11
-1035.5392988783
 21
286.011473776
  0
LINE
  5
345
100
AcDbEntity
  8
0
100
AcDbLine
 62
9
  6
CONTINUOUS
 10
-989.5392988783
 20
286.011473776
 11
-989.5392988783
 21
382.0114737756
  0
LINE
  5
346
100
AcDbEntity
  8
0
100
AcDbLine
 62
7
  6
CONTINUOUS
 10
-987.5392988783
 20
277.0114737758
 11
-987.5392988783
 21
391.0114737758
  0
LINE
  5
347
100
AcDbEntity
  8
0
100
AcDbLine
 62
9
  6
CONTINUOUS
 10
-984.5392988783
 20
274.0114737758
 11
-984.5392988783
 21
394.0114737758
  0
LINE
  5
348
100
AcDbEntity
  8
02___PRT_ALL_AXES
100
AcDbLine
 62
7
  6
CONTINUOUS
 10
-974.5392988783
 20
34.0114737758
 11
-974.5392988783
 21
94.0114737758
  0
LINE
  5
349
100
AcDbEntity
  8
02___PRT_ALL_AXES
100
AcDbLine
 62
7
  6
CONTINUOUS
 10
-974.5392988783
 20
129.0114737758
 11
-974.5392988783
 21
249.0114737758
  0
LINE
  5
34A
100
AcDbEntity
  8
0
100
AcDbLine
 62
7
  6
CONTINUOUS
 10
-974.5392988783
 20
274.0114737758
 11
-974.5392988783
 21
394.0114737758
  0
LINE
  5
34B
100
AcDbEntity
  8
0
100
AcDbLine
 62
9
  6
CONTINUOUS
 10
-968.5392988783
 20
65.2557885077
 11
-968.5392988783
 21
94.0114737717
  0
LINE
  5
34C
100
AcDbEntity
  8
0
100
AcDbLine
 62
9
  6
CONTINUOUS
 10
-968.5392988783
 20
129.0114737758
 11
-968.5392988783
 21
249.0114737758
  0
LINE
  5
34D
100
AcDbEntity
  8
0
100
AcDbLine
 62
7
  6
CONTINUOUS
 10
-964.5392988783
 20
65.614139418
 11
-964.5392988783
 21
367.4928632303
  0
LINE
  5
34E
100
AcDbEntity
  8
0
100
AcDbLine
 62
9
  6
CONTINUOUS
 10
-944.5392988783
 20
27.0114737758
 11
-944.5392988783
 21
393.2383510472
  0
LWPOLYLINE
  5
34F
100
AcDbEntity
  8
0
100
AcDbPolyline
 62
7
  6
CONTINUOUS
 90
6
 70
0
 10
-964.5392944285
 20
98.0113995263
 10
-964.7885769223
 20
96.621487097
 10
-965.505293829
 20
95.4048020044
 10
-966.6001266607
 20
94.5129749622
 10
-967.9366327819
 20
94.0571527839
 10
-968.5392988783
 20
94.011491437
  0
LINE
  5
350
100
AcDbEntity
  8
02___PRT_ALL_AXES
100
AcDbLine
 62
7
  6
CONTINUOUS
 10
-914.5392988783
 20
475.0114737758
 11
-914.5392988783
 21
492.0114737758
  0
LINE
  5
351
100
AcDbEntity
  8
0
100
AcDbLine
 62
7
  6
CONTINUOUS
 10
-874.5392988783
 20
419.0114737758
 11
-874.5392988783
 21
396.0114737758
  0
LINE
  5
352
100
AcDbEntity
  8
0
100
AcDbLine
 62
7
  6
CONTINUOUS
 10
-874.5392988783
 20
24.0114737758
 11
-874.5392988783
 21
46.0584324852
  0
LINE
  5
353
100
AcDbEntity
  8
0
100
AcDbLine
 62
7
  6
CONTINUOUS
 10
-324.0392988783
 20
24.0114737758
 11
-360.0392988783
 21
24.0114737758
  0
LINE
  5
354
100
AcDbEntity
  8
0
100
AcDbLine
 62
7
  6
CONTINUOUS
 10
-598.0392988783
 20
24.0114737758
 11
-634.0392988783
 21
24.0114737758
  0
LINE
  5
355
100
AcDbEntity
  8
0
100
AcDbLine
 62
7
  6
CONTINUOUS
 10
-814.5392988783
 20
24.0114737758
 11
-874.5392988783
 21
24.0114737758
  0
LINE
  5
356
100
AcDbEntity
  8
0
100
AcDbLine
 62
7
  6
CONTINUOUS
 10
-944.5392988783
 20
27.0114737758
 11
-874.5392988783
 21
27.0114737758
  0
LINE
  5
357
100
AcDbEntity
  8
0
100
AcDbLine
 62
7
  6
CONTINUOUS
 10
-814.5392988783
 20
27.0114737758
 11
-774.5392988783
 21
27.0114737758
  0
LINE
  5
358
100
AcDbEntity
  8
0
100
AcDbLine
 62
3
  6
CONTINUOUS
 10
-634.0392988783
 20
28.0114737758
 11
-598.0392988783
 21
28.0114737758
  0
LINE
  5
359
100
AcDbEntity
  8
0
100
AcDbLine
 62
3
  6
CONTINUOUS
 10
-360.0392988783
 20
28.0114737758
 11
-324.0392988783
 21
28.0114737758
  0
LINE
  5
35A
100
AcDbEntity
  8
0
100
AcDbLine
 62
9
  6
CONTINUOUS
 10
-594.0392988783
 20
32.0114737758
 11
-590.0392988783
 21
32.0114737758
  0
LINE
  5
35B
100
AcDbEntity
  8
0
100
AcDbLine
 62
9
  6
CONTINUOUS
 10
-364.0392988783
 20
32.0114737758
 11
-368.0392988783
 21
32.0114737758
  0
LINE
  5
35C
100
AcDbEntity
  8
02___PRT_ALL_AXES
100
AcDbLine
 62
7
  6
CONTINUOUS
 10
-974.5392988783
 20
34.0114737758
 11
-961.4803520165
 21
34.0114737758
  0
LINE
  5
35D
100
AcDbEntity
  8
0
100
AcDbLine
 62
9
  6
CONTINUOUS
 10
-874.5392988783
 20
39.0114737758
 11
-824.5392988783
 21
39.0114737758
  0
LINE
  5
35E
100
AcDbEntity
  8
0
100
AcDbLine
 62
7
  6
CONTINUOUS
 10
-814.5392988783
 20
42.0114737758
 11
-871.5392988783
 21
42.0114737758
  0
LWPOLYLINE
  5
35F
100
AcDbEntity
  8
0
100
AcDbPolyline
 62
7
  6
CONTINUOUS
 90
4
 70
0
 10
-961.4803520072
 20
34.0114555104
 10
-960.9257598547
 20
33.9728224551
 10
-959.6266795518
 20
33.556015349
 10
-958.656839335
 20
32.8447911173
  0
LINE
  5
360
100
AcDbEntity
  8
0
100
AcDbLine
 62
9
  6
CONTINUOUS
 10
-862.5392988783
 20
422.0114737758
 11
-862.5392988783
 21
409.0114737758
  0
LINE
  5
361
100
AcDbEntity
  8
0
100
AcDbLine
 62
9
  6
CONTINUOUS
 10
-862.5392988783
 20
24.0114737758
 11
-862.5392988783
 21
42.0114737758
  0
LINE
  5
362
100
AcDbEntity
  8
02___PRT_ALL_AXES
100
AcDbLine
 62
7
  6
CONTINUOUS
 10
-862.5392988783
 20
424.0114737758
 11
-862.5392988783
 21
470.0114737758
  0
LINE
  5
363
100
AcDbEntity
  8
0
100
AcDbLine
 62
9
  6
CONTINUOUS
 10
-859.5392988783
 20
409.0114737758
 11
-859.5392988783
 21
396.0114737758
  0
LINE
  5
364
100
AcDbEntity
  8
0
100
AcDbLine
 62
7
  6
CONTINUOUS
 10
-857.0392988783
 20
326.9545179514
 11
-857.0392988783
 21
396.0114737758
  0
LINE
  5
365
100
AcDbEntity
  8
0
100
AcDbLine
 62
9
  6
CONTINUOUS
 10
-842.0392988783
 20
295.2886852379
 11
-842.0392988783
 21
396.0114737758
  0
LINE
  5
366
100
AcDbEntity
  8
0
100
AcDbLine
 62
9
  6
CONTINUOUS
 10
-594.0392988783
 20
44.0114737758
 11
-590.0392988783
 21
44.0114737758
  0
LINE
  5
367
100
AcDbEntity
  8
0
100
AcDbLine
 62
9
  6
CONTINUOUS
 10
-364.0392988783
 20
44.0114737758
 11
-368.0392988783
 21
44.0114737758
  0
LINE
  5
368
100
AcDbEntity
  8
0
100
AcDbLine
 62
7
  6
CONTINUOUS
 10
-874.5392988783
 20
46.0584324852
 11
-824.5392988783
 21
46.0584324852
  0
LINE
  5
369
100
AcDbEntity
  8
0
100
AcDbLine
 62
7
  6
CONTINUOUS
 10
-586.0392988783
 20
48.0114737758
 11
-372.0392988783
 21
48.0114737758
  0
LINE
  5
36A
100
AcDbEntity
  8
0
100
AcDbLine
 62
7
  6
CONTINUOUS
 10
-754.0392988783
 20
49.0114737758
 11
-745.0392988783
 21
49.0114737758
  0
LINE
  5
36B
100
AcDbEntity
  8
0
100
AcDbLine
 62
7
  6
CONTINUOUS
 10
-588.0392988783
 20
52.0114737758
 11
-586.0392988783
 21
52.0114737758
  0
LINE
  5
36C
100
AcDbEntity
  8
0
100
AcDbLine
 62
3
  6
CONTINUOUS
 10
-586.0392988783
 20
52.0114737758
 11
-372.0392988783
 21
52.0114737758
  0
LINE
  5
36D
100
AcDbEntity
  8
0
100
AcDbLine
 62
7
  6
CONTINUOUS
 10
-372.0392988783
 20
52.0114737758
 11
-370.0392988783
 21
52.0114737758
  0
LINE
  5
36E
100
AcDbEntity
  8
02___PRT_ALL_AXES
100
AcDbLine
 62
7
  6
CONTINUOUS
 10
-267.3235455148
 20
54.0114737758
 11
-309.0392988783
 21
54.0114737758
  0
LINE
  5
36F
100
AcDbEntity
  8
02___PRT_ALL_AXES
100
AcDbLine
 62
7
  6
CONTINUOUS
 10
-319.0392988783
 20
54.0114737758
 11
-370.0392988783
 21
54.0114737758
  0
LINE
  5
370
100
AcDbEntity
  8
02___PRT_ALL_AXES
100
AcDbLine
 62
7
  6
CONTINUOUS
 10
-588.0392988783
 20
54.0114737758
 11
-637.0392988153
 21
54.0114737758
  0
LINE
  5
371
100
AcDbEntity
  8
3_ALL_AXES
100
AcDbLine
 62
7
  6
CONTINUOUS
 10
-754.5392988783
 20
61.5114737758
 11
-754.0392988783
 21
61.5114737758
  0
LINE
  5
372
100
AcDbEntity
  8
0
100
AcDbLine
 62
7
  6
CONTINUOUS
 10
-588.0392988783
 20
67.0114737758
 11
-370.0392988783
 21
67.0114737758
  0
LINE
  5
373
100
AcDbEntity
  8
0
100
AcDbLine
 62
7
  6
CONTINUOUS
 10
-824.5392988783
 20
73.0562611468
 11
-814.5392988783
 21
73.0562611468
  0
LINE
  5
374
100
AcDbEntity
  8
0
100
AcDbLine
 62
7
  6
CONTINUOUS
 10
-824.5392988783
 20
39.0114737758
 11
-824.5392988783
 21
73.0562611468
  0
LINE
  5
375
100
AcDbEntity
  8
0
100
AcDbLine
 62
7
  6
CONTINUOUS
 10
-814.5392988783
 20
24.0114737758
 11
-814.5392988783
 21
73.0562611468
  0
LINE
  5
376
100
AcDbEntity
  8
0
100
AcDbLine
 62
7
  6
CONTINUOUS
 10
-739.0392988783
 20
84.0114737758
 11
-658.0392988783
 21
84.0114737758
  0
LINE
  5
377
100
AcDbEntity
  8
0
100
AcDbLine
 62
9
  6
CONTINUOUS
 10
-672.0392988783
 20
86.0114737758
 11
-743.0392988783
 21
86.0114737755
  0
LINE
  5
378
100
AcDbEntity
  8
0
100
AcDbLine
 62
7
  6
CONTINUOUS
 10
-737.0392988783
 20
94.0114737758
 11
-675.0392988783
 21
94.0114737758
  0
LINE
  5
379
100
AcDbEntity
  8
02___PRT_ALL_AXES
100
AcDbLine
 62
7
  6
CONTINUOUS
 10
-968.5392988783
 20
94.0114737758
 11
-974.5392988783
 21
94.0114737758
  0
LINE
  5
37A
100
AcDbEntity
  8
0
100
AcDbLine
 62
9
  6
CONTINUOUS
 10
-741.0371203151
 20
95.1384904296
 11
-743.0392988783
 21
95.1384904293
  0
LINE
  5
37B
100
AcDbEntity
  8
0
100
AcDbLine
 62
9
  6
CONTINUOUS
 10
-672.0392988783
 20
97.0114737758
 11
-740.0392988783
 21
97.0114737758
  0
LINE
  5
37C
100
AcDbEntity
  8
0
100
AcDbLine
 62
9
  6
CONTINUOUS
 10
-737.0439197816
 20
107.813515129
 11
-740.0392988783
 21
107.9799605166
  0
LINE
  5
37D
100
AcDbEntity
  8
0
100
AcDbLine
 62
9
  6
CONTINUOUS
 10
-735.4625178984
 20
111.6843246898
 11
-737.385275909
 21
113.9529406654
  0
LINE
  5
37E
100
AcDbEntity
  8
0
100
AcDbLine
 62
9
  6
CONTINUOUS
 10
-735.2598430301
 20
111.8631238305
 11
-737.1815997558
 21
114.1304456226
  0
LINE
  5
37F
100
AcDbEntity
  8
0
100
AcDbLine
 62
9
  6
CONTINUOUS
 10
-787.0392988783
 20
295.2886852379
 11
-787.0392988783
 21
396.0114737758
  0
LINE
  5
380
100
AcDbEntity
  8
0
100
AcDbLine
 62
9
  6
CONTINUOUS
 10
-774.5392988783
 20
27.0114737758
 11
-774.5392988783
 21
311.7407016222
  0
LINE
  5
381
100
AcDbEntity
  8
0
100
AcDbLine
 62
7
  6
CONTINUOUS
 10
-772.0392988783
 20
326.6560571795
 11
-772.0392988783
 21
396.0114737758
  0
LINE
  5
382
100
AcDbEntity
  8
0
100
AcDbLine
 62
9
  6
CONTINUOUS
 10
-740.0392988783
 20
114.0114827685
 11
-743.0392988783
 21
114.0114737758
  0
LINE
  5
383
100
AcDbEntity
  8
0
100
AcDbLine
 62
9
  6
CONTINUOUS
 10
-657.0392988783
 20
124.0114737758
 11
-672.0392988783
 21
124.0114737758
  0
LINE
  5
384
100
AcDbEntity
  8
0
100
AcDbLine
 62
7
  6
CONTINUOUS
 10
-974.5392988783
 20
129.0114737758
 11
-968.5392988783
 21
129.0114737758
  0
LINE
  5
385
100
AcDbEntity
  8
02___PRT_ALL_AXES
100
AcDbLine
 62
7
  6
CONTINUOUS
 10
-968.5392988783
 20
129.0114737758
 11
-974.5392988783
 21
129.0114737758
  0
LINE
  5
386
100
AcDbEntity
  8
0
100
AcDbLine
 62
7
  6
CONTINUOUS
 10
-657.0393096311
 20
74.0114630737
 11
-637.0393115246
 21
54.0114610664
  0
LINE
  5
387
100
AcDbEntity
  8
0
100
AcDbLine
 62
9
  6
CONTINUOUS
 10
-769.5392988783
 20
409.0114737758
 11
-769.5392988783
 21
396.0114737758
  0
LINE
  5
388
100
AcDbEntity
  8
0
100
AcDbLine
 62
9
  6
CONTINUOUS
 10
-766.5392988783
 20
422.0114737758
 11
-766.5392988783
 21
409.0114737758
  0
LINE
  5
389
100
AcDbEntity
  8
02___PRT_ALL_AXES
100
AcDbLine
 62
7
  6
CONTINUOUS
 10
-766.5392988783
 20
424.0114737758
 11
-766.5392988783
 21
470.0114737758
  0
LINE
  5
38A
100
AcDbEntity
  8
0
100
AcDbLine
 62
7
  6
CONTINUOUS
 10
-754.5392988783
 20
419.0114737758
 11
-754.5392988783
 21
396.0114737758
  0
LINE
  5
38B
100
AcDbEntity
  8
0
100
AcDbLine
 62
7
  6
CONTINUOUS
 10
-754.5392988783
 20
374.0114737758
 11
-754.5392988783
 21
47.0114738265
  0
LINE
  5
38C
100
AcDbEntity
  8
0
100
AcDbLine
 62
7
  6
CONTINUOUS
 10
-754.0392988783
 20
49.0114737758
 11
-754.0392988783
 21
319.0114737758
  0
LINE
  5
38D
100
AcDbEntity
  8
0
100
AcDbLine
 62
9
  6
CONTINUOUS
 10
-745.0392988783
 20
49.0114737758
 11
-745.0392988783
 21
319.0114737758
  0
LINE
  5
38E
100
AcDbEntity
  8
0
100
AcDbLine
 62
7
  6
CONTINUOUS
 10
-743.0392988783
 20
51.0114737758
 11
-743.0392988783
 21
317.0114737758
  0
LINE
  5
38F
100
AcDbEntity
  8
0
100
AcDbLine
 62
9
  6
CONTINUOUS
 10
-741.5392988769
 20
254.0114737758
 11
-741.5392988783
 21
192.0114737758
  0
LINE
  5
390
100
AcDbEntity
  8
0
100
AcDbLine
 62
9
  6
CONTINUOUS
 10
-741.5392988783
 20
176.0114737758
 11
-741.5392988769
 21
114.011473775
  0
LINE
  5
391
100
AcDbEntity
  8
0
100
AcDbLine
 62
7
  6
CONTINUOUS
 10
-740.0392988783
 20
271.0114737758
 11
-740.0392988783
 21
192.0114737758
  0
LINE
  5
392
100
AcDbEntity
  8
0
100
AcDbLine
 62
7
  6
CONTINUOUS
 10
-740.0392988783
 20
176.0114737758
 11
-740.0392988783
 21
97.0114737758
  0
LINE
  5
393
100
AcDbEntity
  8
0
100
AcDbLine
 62
9
  6
CONTINUOUS
 10
-740.0392988783
 20
179.0114737758
 11
-740.0392988783
 21
189.0114737758
  0
LINE
  5
394
100
AcDbEntity
  8
0
100
AcDbLine
 62
9
  6
CONTINUOUS
 10
-739.0392988783
 20
84.0114737758
 11
-739.0392988783
 21
92.3178562961
  0
LINE
  5
395
100
AcDbEntity
  8
0
100
AcDbLine
 62
9
  6
CONTINUOUS
 10
-739.0392988783
 20
275.7050910158
 11
-739.0392988783
 21
284.0114737758
  0
LINE
  5
396
100
AcDbEntity
  8
0
100
AcDbLine
 62
9
  6
CONTINUOUS
 10
-674.9904382457
 20
138.8264084037
 11
-672.0392988783
 21
139.3656453032
  0
LINE
  5
397
100
AcDbEntity
  8
0
100
AcDbLine
 62
9
  6
CONTINUOUS
 10
-676.0392988783
 20
140.4081482145
 11
-700.2970749392
 21
140.4081482145
  0
LINE
  5
398
100
AcDbEntity
  8
0
100
AcDbLine
 62
9
  6
CONTINUOUS
 10
-676.0392988783
 20
143.283092757
 11
-700.2970749392
 21
143.283092757
  0
LINE
  5
399
100
AcDbEntity
  8
0
100
AcDbLine
 62
9
  6
CONTINUOUS
 10
-964.5392988783
 20
154.0114737758
 11
-974.5392988783
 21
154.0114737758
  0
LINE
  5
39A
100
AcDbEntity
  8
0
100
AcDbLine
 62
9
  6
CONTINUOUS
 10
-703.6331997934
 20
139.0877766539
 11
-705.4393758167
 21
141.3957726794
  0
LINE
  5
39B
100
AcDbEntity
  8
0
100
AcDbLine
 62
9
  6
CONTINUOUS
 10
-737.1815997558
 20
253.8925019289
 11
-737.1815997558
 21
191.7606702786
  0
LINE
  5
39C
100
AcDbEntity
  8
0
100
AcDbLine
 62
9
  6
CONTINUOUS
 10
-737.1815997558
 20
176.2622772729
 11
-737.1815997558
 21
114.1304456226
  0
LINE
  5
39D
100
AcDbEntity
  8
0
100
AcDbLine
 62
9
  6
CONTINUOUS
 10
-737.0392988783
 20
107.5275473044
 11
-737.0392988783
 21
92.0114492755
  0
LINE
  5
39E
100
AcDbEntity
  8
0
100
AcDbLine
 62
9
  6
CONTINUOUS
 10
-737.0392988783
 20
260.4954002472
 11
-737.0392988783
 21
276.0114982721
  0
LINE
  5
39F
100
AcDbEntity
  8
02___PRT_ALL_AXES
100
AcDbLine
 62
7
  6
CONTINUOUS
 10
-714.5392988783
 20
475.0114737758
 11
-714.5392988783
 21
492.0114737758
  0
LINE
  5
3A0
100
AcDbEntity
  8
0
100
AcDbLine
 62
9
  6
CONTINUOUS
 10
-737.385275909
 20
254.0700068862
 11
-735.4625178984
 21
256.3386228617
  0
LINE
  5
3A1
100
AcDbEntity
  8
0
100
AcDbLine
 62
9
  6
CONTINUOUS
 10
-737.1815997558
 20
253.8925019289
 11
-735.259843056
 21
256.1598237429
  0
LINE
  5
3A2
100
AcDbEntity
  8
0
100
AcDbLine
 62
9
  6
CONTINUOUS
 10
-743.0392988783
 20
176.0114737758
 11
-740.0392988783
 21
176.0114737758
  0
LINE
  5
3A3
100
AcDbEntity
  8
0
100
AcDbLine
 62
9
  6
CONTINUOUS
 10
-672.0392988783
 20
176.0114737758
 11
-670.0392988783
 21
176.0114737755
  0
LINE
  5
3A4
100
AcDbEntity
  8
0
100
AcDbLine
 62
9
  6
CONTINUOUS
 10
-700.2970749392
 20
176.5389463032
 11
-676.0392988783
 21
176.5389463032
  0
LINE
  5
3A5
100
AcDbEntity
  8
0
100
AcDbLine
 62
7
  6
CONTINUOUS
 10
-675.0392988783
 20
179.0114737758
 11
-740.0392988783
 21
179.0114737758
  0
LINE
  5
3A6
100
AcDbEntity
  8
0
100
AcDbLine
 62
9
  6
CONTINUOUS
 10
-675.0392988783
 20
181.0114737758
 11
-743.0392988783
 21
181.011473776
  0
LINE
  5
3A7
100
AcDbEntity
  8
0
100
AcDbLine
 62
9
  6
CONTINUOUS
 10
-754.5392988783
 20
184.0114737758
 11
-964.5392988783
 21
184.0114737758
  0
LINE
  5
3A8
100
AcDbEntity
  8
0
100
AcDbLine
 62
9
  6
CONTINUOUS
 10
-675.0392988783
 20
187.0114737758
 11
-743.0392988783
 21
187.0114737756
  0
LINE
  5
3A9
100
AcDbEntity
  8
0
100
AcDbLine
 62
7
  6
CONTINUOUS
 10
-740.0392988783
 20
189.0114737758
 11
-675.0392988783
 21
189.0114737758
  0
LINE
  5
3AA
100
AcDbEntity
  8
0
100
AcDbLine
 62
9
  6
CONTINUOUS
 10
-676.0392988783
 20
191.4840012483
 11
-700.2970749392
 21
191.4840012483
  0
LINE
  5
3AB
100
AcDbEntity
  8
0
100
AcDbLine
 62
9
  6
CONTINUOUS
 10
-672.0392988783
 20
192.0114737758
 11
-670.0392988783
 21
192.0114737758
  0
LINE
  5
3AC
100
AcDbEntity
  8
0
100
AcDbLine
 62
9
  6
CONTINUOUS
 10
-740.0392988783
 20
192.0114737758
 11
-743.0392988783
 21
192.0114737758
  0
LINE
  5
3AD
100
AcDbEntity
  8
0
100
AcDbLine
 62
9
  6
CONTINUOUS
 10
-705.4393758167
 20
226.6271748603
 11
-705.4393758167
 21
191.6175343248
  0
LINE
  5
3AE
100
AcDbEntity
  8
0
100
AcDbLine
 62
9
  6
CONTINUOUS
 10
-705.4393758167
 20
176.4054132267
 11
-705.4393758167
 21
141.3957726794
  0
LINE
  5
3AF
100
AcDbEntity
  8
0
100
AcDbLine
 62
9
  6
CONTINUOUS
 10
-700.2970749392
 20
140.4081482145
 11
-700.2970749392
 21
179.0114737758
  0
LINE
  5
3B0
100
AcDbEntity
  8
0
100
AcDbLine
 62
9
  6
CONTINUOUS
 10
-700.2970749392
 20
189.0114737758
 11
-700.2970749392
 21
227.614799337
  0
LINE
  5
3B1
100
AcDbEntity
  8
0
100
AcDbLine
 62
9
  6
CONTINUOUS
 10
-676.0392988783
 20
140.4081482145
 11
-676.0392988783
 21
179.0114737758
  0
LINE
  5
3B2
100
AcDbEntity
  8
0
100
AcDbLine
 62
9
  6
CONTINUOUS
 10
-676.0392988783
 20
189.0114737758
 11
-676.0392988783
 21
227.614799337
  0
LINE
  5
3B3
100
AcDbEntity
  8
0
100
AcDbLine
 62
7
  6
CONTINUOUS
 10
-657.0393096311
 20
294.0114844778
 11
-637.0393115246
 21
314.0114864851
  0
LINE
  5
3B4
100
AcDbEntity
  8
0
100
AcDbLine
 62
9
  6
CONTINUOUS
 10
-964.5392988783
 20
224.0114737758
 11
-974.5392988783
 21
224.0114737758
  0
LINE
  5
3B5
100
AcDbEntity
  8
0
100
AcDbLine
 62
9
  6
CONTINUOUS
 10
-700.2970749392
 20
224.7398547945
 11
-676.0392988783
 21
224.7398547945
  0
LINE
  5
3B6
100
AcDbEntity
  8
0
100
AcDbLine
 62
9
  6
CONTINUOUS
 10
-700.2970749392
 20
227.614799337
 11
-676.0392988783
 21
227.614799337
  0
LINE
  5
3B7
100
AcDbEntity
  8
0
100
AcDbLine
 62
9
  6
CONTINUOUS
 10
-672.0392988783
 20
228.6573022483
 11
-674.9904382457
 21
229.1965391478
  0
LINE
  5
3B8
100
AcDbEntity
  8
0
100
AcDbLine
 62
9
  6
CONTINUOUS
 10
-675.0392988783
 20
189.0114737758
 11
-675.0392988785
 21
187.0114737758
  0
LINE
  5
3B9
100
AcDbEntity
  8
0
100
AcDbLine
 62
9
  6
CONTINUOUS
 10
-675.0392988785
 20
84.0114737758
 11
-675.0392988783
 21
138.5994709571
  0
LINE
  5
3BA
100
AcDbEntity
  8
0
100
AcDbLine
 62
9
  6
CONTINUOUS
 10
-675.0392988783
 20
179.0114737758
 11
-675.0392988783
 21
181.0114737758
  0
LINE
  5
3BB
100
AcDbEntity
  8
0
100
AcDbLine
 62
9
  6
CONTINUOUS
 10
-675.0392988783
 20
229.4234765944
 11
-675.0392988783
 21
284.0114737758
  0
LINE
  5
3BC
100
AcDbEntity
  8
0
100
AcDbLine
 62
7
  6
CONTINUOUS
 10
-672.0392988783
 20
86.0114737758
 11
-672.0392988783
 21
176.0114737758
  0
LINE
  5
3BD
100
AcDbEntity
  8
0
100
AcDbLine
 62
7
  6
CONTINUOUS
 10
-672.0392988783
 20
192.0114737758
 11
-672.0392988783
 21
282.0114737758
  0
LINE
  5
3BE
100
AcDbEntity
  8
0
100
AcDbLine
 62
9
  6
CONTINUOUS
 10
-670.0392988783
 20
84.0114737758
 11
-670.0392988783
 21
176.0114737758
  0
LINE
  5
3BF
100
AcDbEntity
  8
0
100
AcDbLine
 62
9
  6
CONTINUOUS
 10
-670.0392988783
 20
192.0114737758
 11
-670.0392988783
 21
284.0114737758
  0
LINE
  5
3C0
100
AcDbEntity
  8
0
100
AcDbLine
 62
9
  6
CONTINUOUS
 10
-658.0392988783
 20
284.0114737758
 11
-658.0392988783
 21
84.0114737758
  0
LINE
  5
3C1
100
AcDbEntity
  8
0
100
AcDbLine
 62
7
  6
CONTINUOUS
 10
-657.0392988783
 20
74.0127519633
 11
-657.0392988783
 21
294.0101955883
  0
LINE
  5
3C2
100
AcDbEntity
  8
0
100
AcDbLine
 62
9
  6
CONTINUOUS
 10
-705.4393758167
 20
226.6271748603
 11
-703.633196798
 21
228.935168553
  0
LINE
  5
3C3
100
AcDbEntity
  8
02___PRT_ALL_AXES
100
AcDbLine
 62
7
  6
CONTINUOUS
 10
-1040.5392988783
 20
234.0114737758
 11
-1057.5392988783
 21
234.0114737758
  0
LINE
  5
3C4
100
AcDbEntity
  8
0
100
AcDbLine
 62
9
  6
CONTINUOUS
 10
-657.0392988783
 20
244.0114737758
 11
-672.0392988783
 21
244.0114737758
  0
LINE
  5
3C5
100
AcDbEntity
  8
0
100
AcDbLine
 62
9
  6
CONTINUOUS
 10
-754.5392988783
 20
244.3303689392
 11
-964.5392988783
 21
244.3303689392
  0
LINE
  5
3C6
100
AcDbEntity
  8
0
100
AcDbLine
 62
7
  6
CONTINUOUS
 10
-974.5392988783
 20
249.0114737758
 11
-968.5392988783
 21
249.0114737758
  0
LINE
  5
3C7
100
AcDbEntity
  8
0
100
AcDbLine
 62
9
  6
CONTINUOUS
 10
-743.0392988783
 20
254.0114737758
 11
-740.0392988783
 21
254.0114647463
  0
LINE
  5
3C8
100
AcDbEntity
  8
0
100
AcDbLine
 62
7
  6
CONTINUOUS
 10
-637.0392989391
 20
54.0114737758
 11
-637.0392989391
 21
314.0114737758
  0
LINE
  5
3C9
100
AcDbEntity
  8
0
100
AcDbLine
 62
7
  6
CONTINUOUS
 10
-634.0392988783
 20
24.0114737758
 11
-634.0392988783
 21
28.0114737758
  0
LINE
  5
3CA
100
AcDbEntity
  8
0
100
AcDbLine
 62
9
  6
CONTINUOUS
 10
-619.0392988783
 20
24.0114737758
 11
-619.0392988783
 21
28.0114737758
  0
LINE
  5
3CB
100
AcDbEntity
  8
0
100
AcDbLine
 62
9
  6
CONTINUOUS
 10
-740.0392988783
 20
260.042987035
 11
-737.0439197816
 21
260.2094324225
  0
LINE
  5
3CC
100
AcDbEntity
  8
0
100
AcDbLine
 62
9
  6
CONTINUOUS
 10
-672.0392988783
 20
271.0114737758
 11
-740.0392988783
 21
271.0114737758
  0
LINE
  5
3CD
100
AcDbEntity
  8
0
100
AcDbLine
 62
9
  6
CONTINUOUS
 10
-743.0392988783
 20
272.8844571223
 11
-741.0371201681
 21
272.884457122
  0
LINE
  5
3CE
100
AcDbEntity
  8
0
100
AcDbLine
 62
7
  6
CONTINUOUS
 10
-984.5392988783
 20
274.0114737758
 11
-964.5392988783
 21
274.0114737758
  0
LINE
  5
3CF
100
AcDbEntity
  8
0
100
AcDbLine
 62
7
  6
CONTINUOUS
 10
-675.0392988783
 20
274.0114737758
 11
-737.0392988783
 21
274.0114737758
  0
LINE
  5
3D0
100
AcDbEntity
  8
0
100
AcDbLine
 62
9
  6
CONTINUOUS
 10
-672.0392988783
 20
282.0114737758
 11
-743.0392988783
 21
282.011473776
  0
LINE
  5
3D1
100
AcDbEntity
  8
3_ALL_AXES
100
AcDbLine
 62
7
  6
CONTINUOUS
 10
-670.0392988783
 20
284.0114737758
 11
-658.0392988783
 21
284.0114737758
  0
LINE
  5
3D2
100
AcDbEntity
  8
0
100
AcDbLine
 62
7
  6
CONTINUOUS
 10
-658.0392988783
 20
284.0114737758
 11
-739.0392988783
 21
284.0114737758
  0
LINE
  5
3D3
100
AcDbEntity
  8
0
100
AcDbLine
 62
9
  6
CONTINUOUS
 10
-987.5392988783
 20
286.0114737758
 11
-974.5392988783
 21
286.0114737758
  0
LINE
  5
3D4
100
AcDbEntity
  8
02___PRT_ALL_AXES
100
AcDbLine
 62
7
  6
CONTINUOUS
 10
-989.5392988783
 20
286.0114737758
 11
-1035.5392988783
 21
286.0114737758
  0
LINE
  5
3D5
100
AcDbEntity
  8
0
100
AcDbLine
 62
9
  6
CONTINUOUS
 10
-974.5392988783
 20
289.0114737758
 11
-964.5392988783
 21
289.0114737758
  0
LINE
  5
3D6
100
AcDbEntity
  8
0
100
AcDbLine
 62
7
  6
CONTINUOUS
 10
-467.0392988783
 20
293.5559852768
 11
-607.0392988783
 21
293.5559852768
  0
LINE
  5
3D7
100
AcDbEntity
  8
0
100
AcDbLine
 62
7
  6
CONTINUOUS
 10
-607.0392988783
 20
293.5559852768
 11
-607.0392988783
 21
364.0114737758
  0
LINE
  5
3D8
100
AcDbEntity
  8
0
100
AcDbLine
 62
9
  6
CONTINUOUS
 10
-598.0392988783
 20
28.0114737758
 11
-598.0392988783
 21
24.0114737758
  0
LINE
  5
3D9
100
AcDbEntity
  8
0
100
AcDbLine
 62
3
  6
CONTINUOUS
 10
-594.0392988783
 20
32.0114737758
 11
-594.0392988783
 21
44.0114737758
  0
LINE
  5
3DA
100
AcDbEntity
  8
0
100
AcDbLine
 62
7
  6
CONTINUOUS
 10
-590.0392988783
 20
32.0114737758
 11
-590.0392988783
 21
44.0114737758
  0
LINE
  5
3DB
100
AcDbEntity
  8
0
100
AcDbLine
 62
7
  6
CONTINUOUS
 10
-588.0392988783
 20
52.0114737758
 11
-588.0392988783
 21
67.0114737758
  0
LINE
  5
3DC
100
AcDbEntity
  8
0
100
AcDbLine
 62
9
  6
CONTINUOUS
 10
-586.0392988783
 20
52.0114737758
 11
-586.0392988783
 21
48.0114737758
  0
LINE
  5
3DD
100
AcDbEntity
  8
0
100
AcDbLine
 62
7
  6
CONTINUOUS
 10
-842.0392988783
 20
295.2886852379
 11
-787.0392988783
 21
295.2886852379
  0
LINE
  5
3DE
100
AcDbEntity
  8
3_ALL_AXES
100
AcDbLine
 62
7
  6
CONTINUOUS
 10
-754.5392988783
 20
306.5114737758
 11
-754.0392988783
 21
306.5114737758
  0
LINE
  5
3DF
100
AcDbEntity
  8
02___PRT_ALL_AXES
100
AcDbLine
 62
7
  6
CONTINUOUS
 10
-267.3235455148
 20
314.0114737758
 11
-309.0392988783
 21
314.0114737758
  0
LINE
  5
3E0
100
AcDbEntity
  8
02___PRT_ALL_AXES
100
AcDbLine
 62
7
  6
CONTINUOUS
 10
-319.0392988783
 20
314.0114737758
 11
-467.0392988783
 21
314.0114737758
  0
LINE
  5
3E1
100
AcDbEntity
  8
02___PRT_ALL_AXES
100
AcDbLine
 62
7
  6
CONTINUOUS
 10
-607.0392988783
 20
314.0114737758
 11
-637.0392988153
 21
314.0114737758
  0
LINE
  5
3E2
100
AcDbEntity
  8
0
100
AcDbLine
 62
7
  6
CONTINUOUS
 10
-754.0392988783
 20
319.0114737758
 11
-745.0392988783
 21
319.0114737758
  0
LINE
  5
3E3
100
AcDbEntity
  8
0
100
AcDbLine
 62
7
  6
CONTINUOUS
 10
-607.0392988783
 20
364.0114737758
 11
-467.0392988783
 21
364.0114737758
  0
LINE
  5
3E4
100
AcDbEntity
  8
0
100
AcDbLine
 62
9
  6
CONTINUOUS
 10
-961.5972820232
 20
379.0114737758
 11
-974.5392988783
 21
379.0114737758
  0
LINE
  5
3E5
100
AcDbEntity
  8
0
100
AcDbLine
 62
9
  6
CONTINUOUS
 10
-987.5392988783
 20
382.0114737758
 11
-974.5392988783
 21
382.0114737758
  0
LINE
  5
3E6
100
AcDbEntity
  8
02___PRT_ALL_AXES
100
AcDbLine
 62
7
  6
CONTINUOUS
 10
-989.5392988783
 20
382.0114737758
 11
-1035.5392988783
 21
382.0114737758
  0
LINE
  5
3E7
100
AcDbEntity
  8
0
100
AcDbLine
 62
9
  6
CONTINUOUS
 10
-857.0392988783
 20
393.2383581539
 11
-944.5392988783
 21
393.2383510472
  0
LINE
  5
3E8
100
AcDbEntity
  8
0
100
AcDbLine
 62
7
  6
CONTINUOUS
 10
-984.5392988783
 20
394.0114737758
 11
-857.0392988783
 21
394.0114737758
  0
LINE
  5
3E9
100
AcDbEntity
  8
0
100
AcDbLine
 62
7
  6
CONTINUOUS
 10
-754.5392988783
 20
396.0114737758
 11
-874.5392988783
 21
396.0114737758
  0
LINE
  5
3EA
100
AcDbEntity
  8
0
100
AcDbLine
 62
7
  6
CONTINUOUS
 10
-754.5392988783
 20
409.0114737758
 11
-874.5392988783
 21
409.0114737758
  0
LINE
  5
3EB
100
AcDbEntity
  8
0
100
AcDbLine
 62
9
  6
CONTINUOUS
 10
-874.5392988783
 20
419.0114737758
 11
-754.5392988783
 21
419.0114737758
  0
LINE
  5
3EC
100
AcDbEntity
  8
0
100
AcDbLine
 62
7
  6
CONTINUOUS
 10
-467.0392988783
 20
293.5559852768
 11
-467.0392988783
 21
364.0114737758
  0
LINE
  5
3ED
100
AcDbEntity
  8
0
100
AcDbLine
 62
7
  6
CONTINUOUS
 10
-871.5392988783
 20
422.0114737758
 11
-757.5392988783
 21
422.0114737758
  0
LINE
  5
3EE
100
AcDbEntity
  8
0
100
AcDbLine
 62
9
  6
CONTINUOUS
 10
-862.5392988781
 20
424.0114737758
 11
-766.5392988785
 21
424.0114737758
  0
LINE
  5
3EF
100
AcDbEntity
  8
02___PRT_ALL_AXES
100
AcDbLine
 62
7
  6
CONTINUOUS
 10
-1040.5392988783
 20
434.0114737758
 11
-1057.5392988783
 21
434.0114737758
  0
LINE
  5
3F0
100
AcDbEntity
  8
0
100
AcDbLine
 62
9
  6
CONTINUOUS
 10
-766.5392988785
 20
470.0114737758
 11
-862.539298878
 21
470.0114737758
  0
LINE
  5
3F1
100
AcDbEntity
  8
0
100
AcDbLine
 62
7
  6
CONTINUOUS
 10
-911.5392988783
 20
472.0114737758
 11
-717.5392988783
 21
472.0114737758
  0
LINE
  5
3F2
100
AcDbEntity
  8
0
100
AcDbLine
 62
9
  6
CONTINUOUS
 10
-714.5392988783
 20
475.0114737758
 11
-914.5392988783
 21
475.0114737758
  0
LINE
  5
3F3
100
AcDbEntity
  8
02___PRT_ALL_AXES
100
AcDbLine
 62
7
  6
CONTINUOUS
 10
-914.5388697711
 20
492.0114737758
 11
-714.5397279854
 21
492.0114737758
  0
LINE
  5
3F4
100
AcDbEntity
  8
0
100
AcDbLine
 62
9
  6
CONTINUOUS
 10
-372.0392988783
 20
52.0114737758
 11
-372.0392988783
 21
48.0114737758
  0
LINE
  5
3F5
100
AcDbEntity
  8
0
100
AcDbLine
 62
7
  6
CONTINUOUS
 10
-370.0392988783
 20
52.0114737758
 11
-370.0392988783
 21
67.0114737758
  0
LINE
  5
3F6
100
AcDbEntity
  8
0
100
AcDbLine
 62
7
  6
CONTINUOUS
 10
-368.0392988783
 20
44.0114737758
 11
-368.0392988783
 21
32.0114737758
  0
LINE
  5
3F7
100
AcDbEntity
  8
0
100
AcDbLine
 62
3
  6
CONTINUOUS
 10
-364.0392988783
 20
44.0114737758
 11
-364.0392988783
 21
32.0114737758
  0
LINE
  5
3F8
100
AcDbEntity
  8
0
100
AcDbLine
 62
7
  6
CONTINUOUS
 10
-309.0392988783
 20
304.0114737758
 11
-319.0392988783
 21
314.0114737758
  0
LINE
  5
3F9
100
AcDbEntity
  8
0
100
AcDbLine
 62
9
  6
CONTINUOUS
 10
-360.0392988783
 20
28.0114737758
 11
-360.0392988783
 21
24.0114737758
  0
LINE
  5
3FA
100
AcDbEntity
  8
0
100
AcDbLine
 62
9
  6
CONTINUOUS
 10
-339.0392988783
 20
24.0114737758
 11
-339.0392988783
 21
28.0114737758
  0
LINE
  5
3FB
100
AcDbEntity
  8
0
100
AcDbLine
 62
7
  6
CONTINUOUS
 10
-244.8971618069
 20
299.8693596768
 11
-253.181408496
 21
308.1536080085
  0
LINE
  5
3FC
100
AcDbEntity
  8
0
100
AcDbLine
 62
7
  6
CONTINUOUS
 10
-324.0392988783
 20
24.0114737758
 11
-324.0392988783
 21
28.0114737758
  0
LINE
  5
3FD
100
AcDbEntity
  8
0
100
AcDbLine
 62
7
  6
CONTINUOUS
 10
-319.0392988783
 20
54.0114737758
 11
-319.0392988783
 21
314.0114737758
  0
LINE
  5
3FE
100
AcDbEntity
  8
0
100
AcDbLine
 62
7
  6
CONTINUOUS
 10
-309.0392988783
 20
54.0129974129
 11
-309.0392988783
 21
314.0099501386
  0
LINE
  5
3FF
100
AcDbEntity
  8
0
100
AcDbLine
 62
9
  6
CONTINUOUS
 10
-267.3235455236
 20
54.0114737886
 11
-267.3235455236
 21
314.0114737629
  0
LINE
  5
400
100
AcDbEntity
  8
0
100
AcDbLine
 62
7
  6
CONTINUOUS
 10
-309.0392988783
 20
64.0114737758
 11
-319.0392988783
 21
54.0114737758
  0
LINE
  5
401
100
AcDbEntity
  8
0
100
AcDbLine
 62
9
  6
CONTINUOUS
 10
-253.1814085202
 20
59.8693395311
 11
-253.1814085202
 21
308.1536080204
  0
LINE
  5
402
100
AcDbEntity
  8
0
100
AcDbLine
 62
9
  6
CONTINUOUS
 10
-244.8971618069
 20
299.8693596768
 11
-244.8971618069
 21
68.1535878748
  0
LINE
  5
403
100
AcDbEntity
  8
0
100
AcDbLine
 62
7
  6
CONTINUOUS
 10
-239.0392988783
 20
285.7272254765
 11
-239.0392988783
 21
82.295722075
  0
LINE
  5
404
100
AcDbEntity
  8
0
100
AcDbLine
 62
7
  6
CONTINUOUS
 10
-244.8971618069
 20
68.1535878748
 11
-253.181408496
 21
59.8693395431
  0
LINE
  5
405
100
AcDbEntity
  8
0
100
AcDbLine
 62
7
  6
CONTINUOUS
 10
1883.0769790627
 20
24.0114737758
 11
2173.0769790627
 21
24.0114737758
  0
LINE
  5
406
100
AcDbEntity
  8
0
100
AcDbLine
 62
3
  6
CONTINUOUS
 10
1898.0769790627
 20
28.0114737758
 11
2158.0769790627
 21
28.0114737758
  0
LINE
  5
407
100
AcDbEntity
  8
0
100
AcDbLine
 62
9
  6
CONTINUOUS
 10
1898.0769790627
 20
32.0114737758
 11
2158.0769790627
 21
32.0114737758
  0
LINE
  5
408
100
AcDbEntity
  8
0
100
AcDbLine
 62
9
  6
CONTINUOUS
 10
1898.0769790627
 20
44.0114737758
 11
2158.0769790627
 21
44.0114737758
  0
LINE
  5
409
100
AcDbEntity
  8
0
100
AcDbLine
 62
7
  6
CONTINUOUS
 10
1898.0769790627
 20
52.0114737758
 11
2158.0769790627
 21
52.0114737758
  0
LINE
  5
40A
100
AcDbEntity
  8
0
100
AcDbLine
 62
7
  6
CONTINUOUS
 10
1806.0769790627
 20
492.0114737758
 11
1806.0769790627
 21
475.0114737758
  0
LINE
  5
40B
100
AcDbEntity
  8
02___PRT_ALL_AXES
100
AcDbLine
 62
7
  6
CONTINUOUS
 10
1806.0769790627
 20
475.0114737758
 11
1806.0769790627
 21
492.0114737758
  0
LINE
  5
40C
100
AcDbEntity
  8
0
100
AcDbLine
 62
7
  6
CONTINUOUS
 10
1898.0769790627
 20
67.0114737758
 11
1971.4112927967
 21
67.0114737758
  0
LINE
  5
40D
100
AcDbEntity
  8
0
100
AcDbLine
 62
7
  6
CONTINUOUS
 10
2084.7426653288
 20
67.0114737758
 11
2158.0769790627
 21
67.0114737758
  0
LINE
  5
40E
100
AcDbEntity
  8
0
100
AcDbLine
 62
7
  6
CONTINUOUS
 10
1846.0769790627
 20
419.0114737758
 11
1846.0769790627
 21
396.0114737758
  0
LINE
  5
40F
100
AcDbEntity
  8
0
100
AcDbLine
 62
7
  6
CONTINUOUS
 10
1855.0769790627
 20
244.3303689392
 11
1855.0769790627
 21
184.0114737758
  0
LINE
  5
410
100
AcDbEntity
  8
0
100
AcDbLine
 62
9
  6
CONTINUOUS
 10
1858.0769790627
 20
422.0114737758
 11
1858.0769790627
 21
409.0114737758
  0
LINE
  5
411
100
AcDbEntity
  8
02___PRT_ALL_AXES
100
AcDbLine
 62
7
  6
CONTINUOUS
 10
1858.0769790627
 20
424.0114737758
 11
1858.0769790627
 21
470.0114737758
  0
LINE
  5
412
100
AcDbEntity
  8
0
100
AcDbLine
 62
7
  6
CONTINUOUS
 10
1858.0769790627
 20
424.0114737758
 11
1858.0769790627
 21
470.0114737758
  0
LINE
  5
413
100
AcDbEntity
  8
0
100
AcDbLine
 62
9
  6
CONTINUOUS
 10
1861.0769790627
 20
409.0114737758
 11
1861.0769790627
 21
396.0114737758
  0
LINE
  5
414
100
AcDbEntity
  8
0
100
AcDbLine
 62
7
  6
CONTINUOUS
 10
1863.5769790627
 20
295.2886852379
 11
1863.5769790627
 21
396.0114737758
  0
LINE
  5
415
100
AcDbEntity
  8
0
100
AcDbLine
 62
7
  6
CONTINUOUS
 10
1962.323457936
 20
393.2383510472
 11
1941.8685410386
 21
384.7574860862
  0
LINE
  5
416
100
AcDbEntity
  8
0
100
AcDbLine
 62
9
  6
CONTINUOUS
 10
1875.0769790627
 20
244.3303689392
 11
1875.0769790627
 21
184.0114737758
  0
LINE
  5
417
100
AcDbEntity
  8
0
100
AcDbLine
 62
9
  6
CONTINUOUS
 10
1878.5769790627
 20
326.6560571795
 11
1878.5769790627
 21
396.0114737758
  0
LINE
  5
418
100
AcDbEntity
  8
0
100
AcDbLine
 62
7
  6
CONTINUOUS
 10
1883.0769790627
 20
24.0114737758
 11
1883.0769790627
 21
42.0114737758
  0
LINE
  5
419
100
AcDbEntity
  8
0
100
AcDbLine
 62
3
  6
CONTINUOUS
 10
1898.0769790627
 20
52.0114737758
 11
1898.0769790627
 21
28.0114737758
  0
LINE
  5
41A
100
AcDbEntity
  8
0
100
AcDbLine
 62
7
  6
CONTINUOUS
 10
1898.0769790627
 20
24.0114737758
 11
1898.0769790627
 21
28.0114737758
  0
LINE
  5
41B
100
AcDbEntity
  8
0
100
AcDbLine
 62
7
  6
CONTINUOUS
 10
1898.0769790627
 20
52.0114737758
 11
1898.0769790627
 21
67.0114737758
  0
LINE
  5
41C
100
AcDbEntity
  8
0
100
AcDbLine
 62
9
  6
CONTINUOUS
 10
1913.0769790627
 20
24.0114737758
 11
1913.0769790627
 21
28.0114737758
  0
LINE
  5
41D
100
AcDbEntity
  8
0
100
AcDbLine
 62
9
  6
CONTINUOUS
 10
1875.0769790627
 20
184.0114737758
 11
1855.0769790627
 21
184.0114737758
  0
LINE
  5
41E
100
AcDbEntity
  8
0
100
AcDbLine
 62
9
  6
CONTINUOUS
 10
2162.9947407113
 20
184.0114737758
 11
2169.0769790627
 21
184.0114737758
  0
LINE
  5
41F
100
AcDbEntity
  8
0
100
AcDbLine
 62
9
  6
CONTINUOUS
 10
1933.5769790627
 20
380.1151948375
 11
1933.5769790627
 21
396.0114737758
  0
LINE
  5
420
100
AcDbEntity
  8
0
100
AcDbLine
 62
7
  6
CONTINUOUS
 10
1948.5769790627
 20
387.9157094166
 11
1948.5769790627
 21
396.0114737758
  0
LINE
  5
421
100
AcDbEntity
  8
0
100
AcDbLine
 62
9
  6
CONTINUOUS
 10
1951.0769790627
 20
409.0114737758
 11
1951.0769790627
 21
396.0114737758
  0
LINE
  5
422
100
AcDbEntity
  8
0
100
AcDbLine
 62
9
  6
CONTINUOUS
 10
1954.0769790627
 20
422.0114737758
 11
1954.0769790627
 21
409.0114737758
  0
LINE
  5
423
100
AcDbEntity
  8
02___PRT_ALL_AXES
100
AcDbLine
 62
7
  6
CONTINUOUS
 10
1954.0769790627
 20
424.0114737758
 11
1954.0769790627
 21
470.0114737758
  0
LINE
  5
424
100
AcDbEntity
  8
0
100
AcDbLine
 62
7
  6
CONTINUOUS
 10
1954.0769790627
 20
424.0114737758
 11
1954.0769790627
 21
470.0114737758
  0
LINE
  5
425
100
AcDbEntity
  8
0
100
AcDbLine
 62
7
  6
CONTINUOUS
 10
1958.0769790627
 20
293.5559852768
 11
1958.0769790627
 21
364.0114737758
  0
LINE
  5
426
100
AcDbEntity
  8
0
100
AcDbLine
 62
7
  6
CONTINUOUS
 10
1966.0769790627
 20
419.0114737758
 11
1966.0769790627
 21
396.0114737758
  0
LINE
  5
427
100
AcDbEntity
  8
0
100
AcDbLine
 62
7
  6
CONTINUOUS
 10
1987.0769790627
 20
409.0114737758
 11
1987.0769790627
 21
398.0114737758
  0
LINE
  5
428
100
AcDbEntity
  8
0
100
AcDbLine
 62
9
  6
CONTINUOUS
 10
1875.0769790627
 20
244.3303689392
 11
1855.0769790627
 21
244.3303689392
  0
LINE
  5
429
100
AcDbEntity
  8
0
100
AcDbLine
 62
9
  6
CONTINUOUS
 10
2149.0769790627
 20
244.3303689392
 11
2169.0769790627
 21
244.3303689392
  0
LINE
  5
42A
100
AcDbEntity
  8
0
100
AcDbLine
 62
7
  6
CONTINUOUS
 10
2006.0769790627
 20
492.0114737758
 11
2006.0769790627
 21
475.0114737758
  0
LINE
  5
42B
100
AcDbEntity
  8
02___PRT_ALL_AXES
100
AcDbLine
 62
7
  6
CONTINUOUS
 10
2006.0769790627
 20
475.0114737758
 11
2006.0769790627
 21
492.0114737758
  0
LINE
  5
42C
100
AcDbEntity
  8
0
100
AcDbLine
 62
7
  6
CONTINUOUS
 10
1901.0006954084
 20
73.0562611468
 11
1883.0769790627
 21
42.0114737758
  0
LINE
  5
42D
100
AcDbEntity
  8
0
100
AcDbLine
 62
7
  6
CONTINUOUS
 10
2173.0769790627
 20
42.0114737758
 11
2141.9902949558
 21
95.8551900878
  0
LINE
  5
42E
100
AcDbEntity
  8
0
100
AcDbLine
 62
7
  6
CONTINUOUS
 10
2098.0769790627
 20
293.5559852768
 11
2098.0769790627
 21
364.0114737758
  0
LINE
  5
42F
100
AcDbEntity
  8
0
100
AcDbLine
 62
7
  6
CONTINUOUS
 10
1958.0769790627
 20
364.0114737758
 11
2098.0769790627
 21
364.0114737758
  0
LINE
  5
430
100
AcDbEntity
  8
0
100
AcDbLine
 62
9
  6
CONTINUOUS
 10
2056.256135323
 20
374.0114737758
 11
1967.8978255538
 21
374.0114737758
  0
LINE
  5
431
100
AcDbEntity
  8
0
100
AcDbLine
 62
7
  6
CONTINUOUS
 10
2117.0769790627
 20
409.0114737758
 11
2117.0769790627
 21
362.820874888
  0
LINE
  5
432
100
AcDbEntity
  8
0
100
AcDbLine
 62
7
  6
CONTINUOUS
 10
1964.0769790627
 20
394.0114737758
 11
2057.076976356
 21
394.0114737758
  0
LINE
  5
433
100
AcDbEntity
  8
0
100
AcDbLine
 62
7
  6
CONTINUOUS
 10
1966.0769790627
 20
396.0114737758
 11
1846.0769790627
 21
396.0114737758
  0
LINE
  5
434
100
AcDbEntity
  8
0
100
AcDbLine
 62
9
  6
CONTINUOUS
 10
1987.0769790627
 20
398.0114737758
 11
2056.9385927681
 21
398.0114737758
  0
LINE
  5
435
100
AcDbEntity
  8
0
100
AcDbLine
 62
9
  6
CONTINUOUS
 10
2143.0769790627
 20
24.0114737758
 11
2143.0769790627
 21
28.0114737758
  0
LINE
  5
436
100
AcDbEntity
  8
0
100
AcDbLine
 62
9
  6
CONTINUOUS
 10
2149.0769790627
 20
243.8257524829
 11
2149.0769790627
 21
244.3303689392
  0
LINE
  5
437
100
AcDbEntity
  8
0
100
AcDbLine
 62
7
  6
CONTINUOUS
 10
1966.0769790627
 20
409.0114737758
 11
1846.0769790627
 21
409.0114737758
  0
LINE
  5
438
100
AcDbEntity
  8
02___PRT_ALL_AXES
100
AcDbLine
 62
7
  6
CONTINUOUS
 10
1987.0769790627
 20
409.0114737758
 11
2117.0769790627
 21
409.0114737758
  0
LINE
  5
439
100
AcDbEntity
  8
0
100
AcDbLine
 62
9
  6
CONTINUOUS
 10
1846.0769790627
 20
419.0114737758
 11
1966.0769790627
 21
419.0114737758
  0
LINE
  5
43A
100
AcDbEntity
  8
0
100
AcDbLine
 62
7
  6
CONTINUOUS
 10
2117.5894351175
 20
360.8620835784
 11
2117.4744334296
 21
361.0825869373
  0
LWPOLYLINE
  5
43B
100
AcDbEntity
  8
0
100
AcDbPolyline
 62
7
  6
CONTINUOUS
 90
3
 70
0
 10
2117.5345108347
 20
360.9632753608
 10
2117.4170007757
 20
361.2070019256
 10
2117.3874638624
 20
361.2756965098
  0
LINE
  5
43C
100
AcDbEntity
  8
0
100
AcDbLine
 62
7
  6
CONTINUOUS
 10
2117.4744334296
 20
361.0825869373
 11
2117.4042280028
 21
361.2362678793
  0
LINE
  5
43D
100
AcDbEntity
  8
0
100
AcDbLine
 62
3
  6
CONTINUOUS
 10
2158.0769790627
 20
52.0114737758
 11
2158.0769790627
 21
28.0114737758
  0
LINE
  5
43E
100
AcDbEntity
  8
0
100
AcDbLine
 62
7
  6
CONTINUOUS
 10
2158.0769790627
 20
24.0114737758
 11
2158.0769790627
 21
28.0114737758
  0
LINE
  5
43F
100
AcDbEntity
  8
0
100
AcDbLine
 62
7
  6
CONTINUOUS
 10
2158.0769790627
 20
52.0114737758
 11
2158.0769790627
 21
67.0114737758
  0
LINE
  5
440
100
AcDbEntity
  8
0
100
AcDbLine
 62
7
  6
CONTINUOUS
 10
2169.0769790627
 20
184.0114737758
 11
2169.0769790627
 21
244.3303689392
  0
LINE
  5
441
100
AcDbEntity
  8
0
100
AcDbLine
 62
7
  6
CONTINUOUS
 10
1849.0769790627
 20
422.0114737758
 11
1963.0769790627
 21
422.0114737758
  0
LINE
  5
442
100
AcDbEntity
  8
0
100
AcDbLine
 62
9
  6
CONTINUOUS
 10
1858.0769790627
 20
424.0114737758
 11
1954.0769790627
 21
424.0114737758
  0
LWPOLYLINE
  5
443
100
AcDbEntity
  8
0
100
AcDbPolyline
 62
7
  6
CONTINUOUS
 90
3
 70
0
 10
2118.2392721401
 20
360.0019561453
 10
2118.1162100087
 20
360.1314512644
 10
2118.1067984105
 20
360.1423642058
  0
LINE
  5
444
100
AcDbEntity
  8
0
100
AcDbLine
 62
7
  6
CONTINUOUS
 10
2118.2393187617
 20
360.0020241895
 11
2118.0989942742
 21
360.1506288429
  0
LINE
  5
445
100
AcDbEntity
  8
0
100
AcDbLine
 62
7
  6
CONTINUOUS
 10
2118.0632251819
 20
360.1928882593
 11
2117.9811150959
 21
360.2880965905
  0
LINE
  5
446
100
AcDbEntity
  8
0
100
AcDbLine
 62
7
  6
CONTINUOUS
 10
2118.0989942742
 20
360.1506288429
 11
2117.9505744283
 21
360.3259795623
  0
LINE
  5
447
100
AcDbEntity
  8
0
100
AcDbLine
 62
7
  6
CONTINUOUS
 10
2117.9811150959
 20
360.2880965905
 11
2117.8460735548
 21
360.4627493422
  0
LINE
  5
448
100
AcDbEntity
  8
0
100
AcDbLine
 62
7
  6
CONTINUOUS
 10
2117.9505744283
 20
360.3259795623
 11
2117.8047260737
 21
360.5205367015
  0
LINE
  5
449
100
AcDbEntity
  8
0
100
AcDbLine
 62
7
  6
CONTINUOUS
 10
2117.8460735548
 20
360.4627493422
 11
2117.7143005727
 21
360.6547582239
  0
LINE
  5
44A
100
AcDbEntity
  8
0
100
AcDbLine
 62
7
  6
CONTINUOUS
 10
2117.8047260737
 20
360.5205367015
 11
2117.6648320845
 21
360.733596377
  0
LINE
  5
44B
100
AcDbEntity
  8
0
100
AcDbLine
 62
7
  6
CONTINUOUS
 10
2117.7143005727
 20
360.6547582239
 11
2117.5894351175
 21
360.8620835784
  0
LINE
  5
44C
100
AcDbEntity
  8
0
100
AcDbLine
 62
7
  6
CONTINUOUS
 10
2117.6648320845
 20
360.733596377
 11
2117.5345108347
 21
360.9632753608
  0
LINE
  5
44D
100
AcDbEntity
  8
0
100
AcDbLine
 62
7
  6
CONTINUOUS
 10
2173.0769790627
 20
24.0114737758
 11
2173.0769790627
 21
42.0114737758
  0
LINE
  5
44E
100
AcDbEntity
  8
0
100
AcDbLine
 62
9
  6
CONTINUOUS
 10
1954.0769790627
 20
470.0114737758
 11
1858.0769790627
 21
470.0114737758
  0
LINE
  5
44F
100
AcDbEntity
  8
0
100
AcDbLine
 62
7
  6
CONTINUOUS
 10
2003.0769790627
 20
472.0114737758
 11
1809.0769790627
 21
472.0114737758
  0
LINE
  5
450
100
AcDbEntity
  8
0
100
AcDbLine
 62
9
  6
CONTINUOUS
 10
2006.0769790627
 20
475.0114737758
 11
1806.0769790627
 21
475.0114737758
  0
LINE
  5
451
100
AcDbEntity
  8
02___PRT_ALL_AXES
100
AcDbLine
 62
7
  6
CONTINUOUS
 10
1806.0769790627
 20
492.0114737758
 11
2006.0769790627
 21
492.0114737758
  0
LINE
  5
452
100
AcDbEntity
  8
0
100
AcDbLine
 62
7
  6
CONTINUOUS
 10
704.6253550806
 20
-473.3285359426
 11
704.6253550806
 21
-269.8970324934
  0
LINE
  5
453
100
AcDbEntity
  8
0
100
AcDbLine
 62
9
  6
CONTINUOUS
 10
710.4832180549
 20
-487.4706701649
 11
710.4832180549
 21
-255.7548982717
  0
LINE
  5
454
100
AcDbEntity
  8
0
100
AcDbLine
 62
9
  6
CONTINUOUS
 10
718.7674646873
 20
-247.4706499967
 11
718.7674646873
 21
-495.75491844
  0
LINE
  5
455
100
AcDbEntity
  8
0
100
AcDbLine
 62
7
  6
CONTINUOUS
 10
710.4832180549
 20
-487.4706701649
 11
718.7674646873
 21
-495.75491844
  0
LINE
  5
456
100
AcDbEntity
  8
0
100
AcDbLine
 62
9
  6
CONTINUOUS
 10
732.9096017131
 20
-241.6127842183
 11
732.9096017131
 21
-501.6127842183
  0
LINE
  5
457
100
AcDbEntity
  8
0
100
AcDbLine
 62
7
  6
CONTINUOUS
 10
774.6253550806
 20
-241.6127842183
 11
774.6253550806
 21
-501.6127842183
  0
LINE
  5
458
100
AcDbEntity
  8
0
100
AcDbLine
 62
7
  6
CONTINUOUS
 10
784.6253550806
 20
-241.6127842183
 11
784.6253550806
 21
-501.6127842183
  0
LINE
  5
459
100
AcDbEntity
  8
0
100
AcDbLine
 62
7
  6
CONTINUOUS
 10
710.4832180549
 20
-255.7548982717
 11
718.7674646873
 21
-247.4706499967
  0
LINE
  5
45A
100
AcDbEntity
  8
0
100
AcDbLine
 62
7
  6
CONTINUOUS
 10
774.6253550806
 20
-491.6127842183
 11
784.6253550806
 21
-501.6127842183
  0
LINE
  5
45B
100
AcDbEntity
  8
0
100
AcDbLine
 62
7
  6
CONTINUOUS
 10
774.6253550806
 20
-251.6127842183
 11
784.6253550806
 21
-241.6127842183
  0
LINE
  5
45C
100
AcDbEntity
  8
0
100
AcDbLine
 62
7
  6
CONTINUOUS
 10
932.6253550806
 20
-301.6127842183
 11
932.6253550806
 21
-441.6127842183
  0
LINE
  5
45D
100
AcDbEntity
  8
0
100
AcDbLine
 62
7
  6
CONTINUOUS
 10
1280.1253550806
 20
-516.6127842183
 11
1328.1253550806
 21
-516.6127842183
  0
LINE
  5
45E
100
AcDbEntity
  8
0
100
AcDbLine
 62
9
  6
CONTINUOUS
 10
1290.1253550806
 20
-513.6127842183
 11
1328.1253550806
 21
-513.6127842183
  0
LINE
  5
45F
100
AcDbEntity
  8
0
100
AcDbLine
 62
7
  6
CONTINUOUS
 10
1410.1253550806
 20
-512.6127842183
 11
1240.1253550806
 21
-512.6127842183
  0
LINE
  5
460
100
AcDbEntity
  8
0
100
AcDbLine
 62
7
  6
CONTINUOUS
 10
1219.6253550806
 20
-506.6127842183
 11
1210.6253550806
 21
-506.6127842183
  0
LINE
  5
461
100
AcDbEntity
  8
0
100
AcDbLine
 62
7
  6
CONTINUOUS
 10
732.9096017131
 20
-501.6127842183
 11
774.6253550806
 21
-501.6127842183
  0
LINE
  5
462
100
AcDbEntity
  8
02___PRT_ALL_AXES
100
AcDbLine
 62
7
  6
CONTINUOUS
 10
732.9096017131
 20
-501.6127842183
 11
774.6253550806
 21
-501.6127842183
  0
LINE
  5
463
100
AcDbEntity
  8
02___PRT_ALL_AXES
100
AcDbLine
 62
7
  6
CONTINUOUS
 10
784.6253550806
 20
-501.6127842183
 11
1102.6253550806
 21
-501.6127842183
  0
LINE
  5
464
100
AcDbEntity
  8
0
100
AcDbLine
 62
7
  6
CONTINUOUS
 10
784.6253550806
 20
-501.6127842183
 11
1102.6253550806
 21
-501.6127842183
  0
LINE
  5
465
100
AcDbEntity
  8
3_ALL_AXES
100
AcDbLine
 62
7
  6
CONTINUOUS
 10
1219.6253550806
 20
-494.1127842183
 11
1220.1253550806
 21
-494.1127842183
  0
LINE
  5
466
100
AcDbEntity
  8
3_ALL_AXES
100
AcDbLine
 62
7
  6
CONTINUOUS
 10
1135.6253550806
 20
-471.6127842183
 11
1123.6253550806
 21
-471.6127842183
  0
LINE
  5
467
100
AcDbEntity
  8
0
100
AcDbLine
 62
7
  6
CONTINUOUS
 10
1123.6253550806
 20
-471.6127842183
 11
1205.6253550806
 21
-471.6127842183
  0
LINE
  5
468
100
AcDbEntity
  8
0
100
AcDbLine
 62
9
  6
CONTINUOUS
 10
1137.6253550806
 20
-469.6127842183
 11
1208.6253550806
 21
-469.6127842184
  0
LINE
  5
469
100
AcDbEntity
  8
0
100
AcDbLine
 62
9
  6
CONTINUOUS
 10
1208.6253550806
 20
-460.4857675646
 11
1205.6253550806
 21
-460.4857675646
  0
LINE
  5
46A
100
AcDbEntity
  8
0
100
AcDbLine
 62
7
  6
CONTINUOUS
 10
1523.1253550806
 20
-455.6127842183
 11
1506.1253550806
 21
-455.6127842183
  0
LINE
  5
46B
100
AcDbEntity
  8
02___PRT_ALL_AXES
100
AcDbLine
 62
7
  6
CONTINUOUS
 10
1506.1253550806
 20
-455.6127842183
 11
1523.1253550806
 21
-455.6127842183
  0
LINE
  5
46C
100
AcDbEntity
  8
0
100
AcDbLine
 62
9
  6
CONTINUOUS
 10
1205.6253550806
 20
-454.2407695662
 11
1202.6253550806
 21
-454.2407695662
  0
LINE
  5
46D
100
AcDbEntity
  8
0
100
AcDbLine
 62
9
  6
CONTINUOUS
 10
1205.6253550806
 20
-448.3316932857
 11
1202.6253550806
 21
-448.3316932857
  0
LINE
  5
46E
100
AcDbEntity
  8
0
100
AcDbLine
 62
7
  6
CONTINUOUS
 10
1440.1253550806
 20
-445.6127842183
 11
1434.1253550806
 21
-445.6127842183
  0
LINE
  5
46F
100
AcDbEntity
  8
0
100
AcDbLine
 62
7
  6
CONTINUOUS
 10
932.6253550806
 20
-441.6127842183
 11
1072.6253550806
 21
-441.6127842183
  0
LINE
  5
470
100
AcDbEntity
  8
0
100
AcDbLine
 62
9
  6
CONTINUOUS
 10
1205.6253550806
 20
-441.6127751889
 11
1208.6253550806
 21
-441.6127842183
  0
LINE
  5
471
100
AcDbEntity
  8
0
100
AcDbLine
 62
9
  6
CONTINUOUS
 10
1122.6253550806
 20
-431.6127842183
 11
1137.6253550806
 21
-431.6127842183
  0
LINE
  5
472
100
AcDbEntity
  8
0
100
AcDbLine
 62
9
  6
CONTINUOUS
 10
1430.1253550806
 20
-420.6127842183
 11
1440.1253550806
 21
-420.6127842183
  0
LINE
  5
473
100
AcDbEntity
  8
0
100
AcDbLine
 62
9
  6
CONTINUOUS
 10
1246.2117795873
 20
-400.6127841771
 11
1250.2093609436
 21
-400.4743987567
  0
LINE
  5
474
100
AcDbEntity
  8
0
100
AcDbLine
 62
9
  6
CONTINUOUS
 10
1137.6253550806
 20
-417.4194431229
 11
1140.6253550806
 21
-417.4194431229
  0
LINE
  5
475
100
AcDbEntity
  8
0
100
AcDbLine
 62
9
  6
CONTINUOUS
 10
1165.8831311416
 20
-416.4039663863
 11
1141.6253550806
 21
-416.4039663863
  0
LINE
  5
476
100
AcDbEntity
  8
0
100
AcDbLine
 62
7
  6
CONTINUOUS
 10
1450.1253550806
 20
-415.6127842183
 11
1427.1833382256
 21
-415.6127842183
  0
LINE
  5
477
100
AcDbEntity
  8
0
100
AcDbLine
 62
9
  6
CONTINUOUS
 10
1205.6253550806
 20
-415.6127842183
 11
1208.6253550806
 21
-415.6127842183
  0
LINE
  5
478
100
AcDbEntity
  8
0
100
AcDbLine
 62
9
  6
CONTINUOUS
 10
1137.6253550806
 20
-414.6127842183
 11
1135.6253550806
 21
-414.6127842183
  0
LINE
  5
479
100
AcDbEntity
  8
0
100
AcDbLine
 62
9
  6
CONTINUOUS
 10
1165.8831311416
 20
-413.4507016279
 11
1141.6253550806
 21
-413.4507016279
  0
LINE
  5
47A
100
AcDbEntity
  8
0
100
AcDbLine
 62
7
  6
CONTINUOUS
 10
1204.6253550806
 20
-411.6127842183
 11
1140.6253550806
 21
-411.6127842183
  0
LINE
  5
47B
100
AcDbEntity
  8
0
100
AcDbLine
 62
9
  6
CONTINUOUS
 10
1140.6253550806
 20
-409.6127842183
 11
1208.6253550806
 21
-409.6127842184
  0
LINE
  5
47C
100
AcDbEntity
  8
0
100
AcDbLine
 62
9
  6
CONTINUOUS
 10
1313.7032027151
 20
-405.3663053451
 11
1410.1253550806
 21
-405.3663053451
  0
LINE
  5
47D
100
AcDbEntity
  8
0
100
AcDbLine
 62
9
  6
CONTINUOUS
 10
1240.1253551122
 20
-405.3662640167
 11
1246.5475074462
 21
-405.3663053449
  0
LINE
  5
47E
100
AcDbEntity
  8
0
100
AcDbLine
 62
9
  6
CONTINUOUS
 10
1453.1253550806
 20
-403.6127842183
 11
1440.1253550806
 21
-403.6127842183
  0
LINE
  5
47F
100
AcDbEntity
  8
02___PRT_ALL_AXES
100
AcDbLine
 62
7
  6
CONTINUOUS
 10
1455.1253550806
 20
-403.6127842183
 11
1501.1253550806
 21
-403.6127842183
  0
LINE
  5
480
100
AcDbEntity
  8
0
100
AcDbLine
 62
7
  6
CONTINUOUS
 10
1455.1253550806
 20
-403.6127842183
 11
1501.1253550806
 21
-403.6127842183
  0
LINE
  5
481
100
AcDbEntity
  8
0
100
AcDbLine
 62
9
  6
CONTINUOUS
 10
1440.1253550806
 20
-400.6127842183
 11
1314.0389305698
 21
-400.6127842183
  0
LINE
  5
482
100
AcDbEntity
  8
0
100
AcDbLine
 62
9
  6
CONTINUOUS
 10
1246.2117795915
 20
-400.6127842183
 11
1240.1253550806
 21
-400.6127815116
  0
LINE
  5
483
100
AcDbEntity
  8
0
100
AcDbLine
 62
9
  6
CONTINUOUS
 10
1314.0389305698
 20
-400.6127842183
 11
1310.0413275934
 21
-400.4743980089
  0
LINE
  5
484
100
AcDbEntity
  8
0
100
AcDbLine
 62
7
  6
CONTINUOUS
 10
1072.6253550806
 20
-441.6127842183
 11
1072.6253550806
 21
-301.6127842183
  0
LINE
  5
485
100
AcDbEntity
  8
0
100
AcDbLine
 62
7
  6
CONTINUOUS
 10
1102.6253550806
 20
-241.6127842183
 11
1102.6253550806
 21
-501.6127842183
  0
LINE
  5
486
100
AcDbEntity
  8
0
100
AcDbLine
 62
9
  6
CONTINUOUS
 10
1140.6253550806
 20
-333.6127842183
 11
1208.6253550806
 21
-333.6127842183
  0
LINE
  5
487
100
AcDbEntity
  8
0
100
AcDbLine
 62
7
  6
CONTINUOUS
 10
1140.6253550806
 20
-331.6127842183
 11
1204.6253550806
 21
-331.6127842183
  0
LINE
  5
488
100
AcDbEntity
  8
0
100
AcDbLine
 62
9
  6
CONTINUOUS
 10
1141.6253550806
 20
-329.7748668087
 11
1165.8831311416
 21
-329.7748668087
  0
LINE
  5
489
100
AcDbEntity
  8
0
100
AcDbLine
 62
7
  6
CONTINUOUS
 10
1122.6253550806
 20
-261.6127842184
 11
1122.6253550806
 21
-481.6127842183
  0
LINE
  5
48A
100
AcDbEntity
  8
0
100
AcDbLine
 62
9
  6
CONTINUOUS
 10
1123.6253550806
 20
-471.6127842183
 11
1123.6253550806
 21
-271.6127842183
  0
LINE
  5
48B
100
AcDbEntity
  8
0
100
AcDbLine
 62
9
  6
CONTINUOUS
 10
1135.6253550806
 20
-271.6127842183
 11
1135.6253550806
 21
-328.6127842183
  0
LINE
  5
48C
100
AcDbEntity
  8
0
100
AcDbLine
 62
9
  6
CONTINUOUS
 10
1135.6253550806
 20
-414.6127842183
 11
1135.6253550806
 21
-471.6127842183
  0
LINE
  5
48D
100
AcDbEntity
  8
0
100
AcDbLine
 62
7
  6
CONTINUOUS
 10
1137.6253550806
 20
-273.6127842183
 11
1137.6253550806
 21
-328.6127842183
  0
LINE
  5
48E
100
AcDbEntity
  8
0
100
AcDbLine
 62
7
  6
CONTINUOUS
 10
1137.6253550806
 20
-414.6127842183
 11
1137.6253550806
 21
-469.6127842183
  0
LINE
  5
48F
100
AcDbEntity
  8
0
100
AcDbLine
 62
9
  6
CONTINUOUS
 10
1140.6253550806
 20
-411.6127842183
 11
1140.6253550809
 21
-409.6127842184
  0
LINE
  5
490
100
AcDbEntity
  8
0
100
AcDbLine
 62
9
  6
CONTINUOUS
 10
1140.6253550809
 20
-271.6127842183
 11
1140.6253550806
 21
-325.8061253138
  0
LINE
  5
491
100
AcDbEntity
  8
0
100
AcDbLine
 62
9
  6
CONTINUOUS
 10
1140.6253550806
 20
-331.6127842183
 11
1140.6253550806
 21
-333.6127842183
  0
LINE
  5
492
100
AcDbEntity
  8
0
100
AcDbLine
 62
9
  6
CONTINUOUS
 10
1140.6253550806
 20
-417.4194431229
 11
1140.6253550806
 21
-471.6127842183
  0
LINE
  5
493
100
AcDbEntity
  8
0
100
AcDbLine
 62
9
  6
CONTINUOUS
 10
1141.6253550806
 20
-326.8216020504
 11
1141.6253550806
 21
-331.6127842183
  0
LINE
  5
494
100
AcDbEntity
  8
0
100
AcDbLine
 62
9
  6
CONTINUOUS
 10
1141.6253550806
 20
-411.6127842183
 11
1141.6253550806
 21
-416.4039663863
  0
LINE
  5
495
100
AcDbEntity
  8
0
100
AcDbLine
 62
9
  6
CONTINUOUS
 10
1137.6253550806
 20
-328.6127842183
 11
1135.6253550807
 21
-328.6127842181
  0
LINE
  5
496
100
AcDbEntity
  8
0
100
AcDbLine
 62
9
  6
CONTINUOUS
 10
1205.6253550806
 20
-327.6127842183
 11
1208.6253550806
 21
-327.6127842183
  0
LINE
  5
497
100
AcDbEntity
  8
0
100
AcDbLine
 62
9
  6
CONTINUOUS
 10
1141.6253550806
 20
-326.8216020504
 11
1165.8831311416
 21
-326.8216020504
  0
LINE
  5
498
100
AcDbEntity
  8
0
100
AcDbLine
 62
9
  6
CONTINUOUS
 10
1137.6253550806
 20
-325.8061253138
 11
1140.6253550806
 21
-325.8061253138
  0
LINE
  5
499
100
AcDbEntity
  8
0
100
AcDbLine
 62
9
  6
CONTINUOUS
 10
1122.6253550806
 20
-311.6127842183
 11
1137.6253550806
 21
-311.6127842183
  0
LINE
  5
49A
100
AcDbEntity
  8
0
100
AcDbLine
 62
9
  6
CONTINUOUS
 10
1440.1253550806
 20
-310.6127842183
 11
1359.2601513414
 21
-310.6127853126
  0
LINE
  5
49B
100
AcDbEntity
  8
0
100
AcDbLine
 62
9
  6
CONTINUOUS
 10
1453.1253550806
 20
-307.6127842183
 11
1440.1253550806
 21
-307.6127842183
  0
LINE
  5
49C
100
AcDbEntity
  8
02___PRT_ALL_AXES
100
AcDbLine
 62
7
  6
CONTINUOUS
 10
1455.1253550806
 20
-307.6127842183
 11
1501.1253550806
 21
-307.6127842183
  0
LINE
  5
49D
100
AcDbEntity
  8
0
100
AcDbLine
 62
7
  6
CONTINUOUS
 10
1455.1253550806
 20
-307.6127842183
 11
1501.1253550806
 21
-307.6127842183
  0
LINE
  5
49E
100
AcDbEntity
  8
0
100
AcDbLine
 62
9
  6
CONTINUOUS
 10
1362.6868035413
 20
-305.8592746231
 11
1410.1253550806
 21
-305.8592630916
  0
LINE
  5
49F
100
AcDbEntity
  8
0
100
AcDbLine
 62
7
  6
CONTINUOUS
 10
1072.6253550806
 20
-301.6127842183
 11
932.6253550806
 21
-301.6127842183
  0
LINE
  5
4A0
100
AcDbEntity
  8
0
100
AcDbLine
 62
9
  6
CONTINUOUS
 10
1165.8831311416
 20
-331.6127842183
 11
1165.8831311416
 21
-326.8216020504
  0
LINE
  5
4A1
100
AcDbEntity
  8
0
100
AcDbLine
 62
9
  6
CONTINUOUS
 10
1165.8831311416
 20
-411.6127842183
 11
1165.8831311416
 21
-416.4039663863
  0
LINE
  5
4A2
100
AcDbEntity
  8
0
100
AcDbLine
 62
9
  6
CONTINUOUS
 10
1171.0254320191
 20
-415.3276635453
 11
1171.0254320191
 21
-411.6127842183
  0
LINE
  5
4A3
100
AcDbEntity
  8
0
100
AcDbLine
 62
9
  6
CONTINUOUS
 10
1171.0254320191
 20
-331.6127842183
 11
1171.0254320191
 21
-327.8979048914
  0
LINE
  5
4A4
100
AcDbEntity
  8
0
100
AcDbLine
 62
7
  6
CONTINUOUS
 10
1427.1833382256
 20
-295.6127842183
 11
1450.1253550806
 21
-295.6127842183
  0
LINE
  5
4A5
100
AcDbEntity
  8
0
100
AcDbLine
 62
9
  6
CONTINUOUS
 10
1430.1253550806
 20
-290.6127842183
 11
1440.1253550806
 21
-290.6127842183
  0
LINE
  5
4A6
100
AcDbEntity
  8
0
100
AcDbLine
 62
9
  6
CONTINUOUS
 10
1205.6253550806
 20
-288.9847988705
 11
1204.2870641233
 21
-288.9847988705
  0
LINE
  5
4A7
100
AcDbEntity
  8
0
100
AcDbLine
 62
9
  6
CONTINUOUS
 10
1208.6253550806
 20
-282.7398008721
 11
1205.6253550806
 21
-282.7398008721
  0
LINE
  5
4A8
100
AcDbEntity
  8
0
100
AcDbLine
 62
9
  6
CONTINUOUS
 10
1183.2171468568
 20
-273.6127842183
 11
1137.6253550806
 21
-273.6127842183
  0
LINE
  5
4A9
100
AcDbEntity
  8
0
100
AcDbLine
 62
9
  6
CONTINUOUS
 10
1200.1710436627
 20
-273.6127842183
 11
1208.6253550806
 21
-273.6127842183
  0
LINE
  5
4AA
100
AcDbEntity
  8
0
100
AcDbLine
 62
7
  6
CONTINUOUS
 10
1205.6253550806
 20
-271.6127842183
 11
1203.6585343932
 21
-271.6127842183
  0
LINE
  5
4AB
100
AcDbEntity
  8
0
100
AcDbLine
 62
7
  6
CONTINUOUS
 10
1182.6804871971
 20
-271.6127842183
 11
1123.6253550806
 21
-271.6127842183
  0
LINE
  5
4AC
100
AcDbEntity
  8
0
100
AcDbLine
 62
7
  6
CONTINUOUS
 10
1122.6253658085
 20
-261.6127734913
 11
1102.625367759
 21
-241.612771541
  0
LINE
  5
4AD
100
AcDbEntity
  8
0
100
AcDbLine
 62
9
  6
CONTINUOUS
 10
1171.025432014
 20
-327.8979048854
 11
1169.09706919
 21
-325.633787291
  0
LINE
  5
4AE
100
AcDbEntity
  8
0
100
AcDbLine
 62
9
  6
CONTINUOUS
 10
1202.6253550806
 20
-454.2407695662
 11
1202.6253550806
 21
-448.3316932857
  0
LINE
  5
4AF
100
AcDbEntity
  8
0
100
AcDbLine
 62
9
  6
CONTINUOUS
 10
1202.7676559581
 20
-442.1952017291
 11
1202.7676559581
 21
-411.6127842183
  0
LINE
  5
4B0
100
AcDbEntity
  8
0
100
AcDbLine
 62
9
  6
CONTINUOUS
 10
1202.7676559581
 20
-331.6127842183
 11
1202.7676559581
 21
-312.7306472115
  0
LINE
  5
4B1
100
AcDbEntity
  8
0
100
AcDbLine
 62
9
  6
CONTINUOUS
 10
1204.6253550806
 20
-331.6127842183
 11
1204.6253550806
 21
-411.6127842183
  0
LINE
  5
4B2
100
AcDbEntity
  8
0
100
AcDbLine
 62
7
  6
CONTINUOUS
 10
1205.6253550806
 20
-454.2407695607
 11
1205.6253550806
 21
-411.7401334505
  0
LINE
  5
4B3
100
AcDbEntity
  8
0
100
AcDbLine
 62
7
  6
CONTINUOUS
 10
1205.6253550806
 20
-331.4854261239
 11
1205.6253550806
 21
-316.1271053143
  0
LINE
  5
4B4
100
AcDbEntity
  8
0
100
AcDbLine
 62
7
  6
CONTINUOUS
 10
1205.6253550806
 20
-289.1425022676
 11
1205.6253550806
 21
-288.9847988759
  0
LINE
  5
4B5
100
AcDbEntity
  8
0
100
AcDbLine
 62
9
  6
CONTINUOUS
 10
1205.6253550806
 20
-271.6127842183
 11
1205.6253550806
 21
-282.7398008721
  0
LINE
  5
4B6
100
AcDbEntity
  8
0
100
AcDbLine
 62
9
  6
CONTINUOUS
 10
1205.6253550806
 20
-460.4857675646
 11
1205.6253550806
 21
-471.6127842183
  0
LINE
  5
4B7
100
AcDbEntity
  8
0
100
AcDbLine
 62
9
  6
CONTINUOUS
 10
1207.1253550793
 20
-441.6127842183
 11
1207.1253455364
 21
-415.6127842183
  0
LINE
  5
4B8
100
AcDbEntity
  8
0
100
AcDbLine
 62
9
  6
CONTINUOUS
 10
1207.1253455355
 20
-327.6127842183
 11
1207.1253485406
 21
-317.9461652649
  0
LINE
  5
4B9
100
AcDbEntity
  8
0
100
AcDbLine
 62
7
  6
CONTINUOUS
 10
1440.1253550806
 20
-265.6127842183
 11
1434.1253550806
 21
-265.6127842183
  0
LINE
  5
4BA
100
AcDbEntity
  8
0
100
AcDbLine
 62
7
  6
CONTINUOUS
 10
1523.1253550806
 20
-255.6127842183
 11
1506.1253550806
 21
-255.6127842183
  0
LINE
  5
4BB
100
AcDbEntity
  8
02___PRT_ALL_AXES
100
AcDbLine
 62
7
  6
CONTINUOUS
 10
1506.1253550806
 20
-255.6127842183
 11
1523.1253550806
 21
-255.6127842183
  0
LINE
  5
4BC
100
AcDbEntity
  8
0
100
AcDbLine
 62
7
  6
CONTINUOUS
 10
732.9096017131
 20
-241.6127842183
 11
774.6253550806
 21
-241.6127842183
  0
LINE
  5
4BD
100
AcDbEntity
  8
02___PRT_ALL_AXES
100
AcDbLine
 62
7
  6
CONTINUOUS
 10
732.9096017131
 20
-241.6127842183
 11
774.6253550806
 21
-241.6127842183
  0
LINE
  5
4BE
100
AcDbEntity
  8
0
100
AcDbLine
 62
7
  6
CONTINUOUS
 10
784.6253550806
 20
-241.6127842183
 11
1102.6253550806
 21
-241.6127842183
  0
LINE
  5
4BF
100
AcDbEntity
  8
02___PRT_ALL_AXES
100
AcDbLine
 62
7
  6
CONTINUOUS
 10
784.6253550806
 20
-241.6127842183
 11
1102.6253550806
 21
-241.6127842183
  0
LINE
  5
4C0
100
AcDbEntity
  8
0
100
AcDbLine
 62
7
  6
CONTINUOUS
 10
1208.6253550806
 20
-504.6127842183
 11
1208.6253550806
 21
-319.4043408793
  0
LINE
  5
4C1
100
AcDbEntity
  8
0
100
AcDbLine
 62
7
  6
CONTINUOUS
 10
1208.6253550806
 20
-288.8689063881
 11
1208.6253550806
 21
-271.620451335
  0
LINE
  5
4C2
100
AcDbEntity
  8
0
100
AcDbLine
 62
9
  6
CONTINUOUS
 10
1210.6253550806
 20
-272.4535886207
 11
1210.6253550806
 21
-288.0400608275
  0
LINE
  5
4C3
100
AcDbEntity
  8
0
100
AcDbLine
 62
9
  6
CONTINUOUS
 10
1210.6253550806
 20
-321.2912435622
 11
1210.6253550806
 21
-506.6127842183
  0
LINE
  5
4C4
100
AcDbEntity
  8
0
100
AcDbLine
 62
7
  6
CONTINUOUS
 10
1219.6253550806
 20
-329.0254010551
 11
1219.6253550806
 21
-506.6127090875
  0
LINE
  5
4C5
100
AcDbEntity
  8
0
100
AcDbLine
 62
7
  6
CONTINUOUS
 10
1220.1253550806
 20
-492.6127842183
 11
1220.1253550806
 21
-329.3783396751
  0
LINE
  5
4C6
100
AcDbEntity
  8
3_ALL_AXES
100
AcDbLine
 62
7
  6
CONTINUOUS
 10
1220.1253550806
 20
-493.0041300349
 11
1220.1253550806
 21
-494.1127842183
  0
LINE
  5
4C7
100
AcDbEntity
  8
0
100
AcDbLine
 62
9
  6
CONTINUOUS
 10
1171.025429988
 20
-415.3276659302
 11
1169.09706919
 21
-417.5917811457
  0
LINE
  5
4C8
100
AcDbEntity
  8
0
100
AcDbLine
 62
7
  6
CONTINUOUS
 10
1122.6253658088
 20
-481.612794945
 11
1102.6253677594
 21
-501.6127968953
  0
LINE
  5
4C9
100
AcDbEntity
  8
0
100
AcDbLine
 62
9
  6
CONTINUOUS
 10
1207.1253550803
 20
-285.8622998716
 11
1205.2503550806
 21
-283.5204256219
  0
LINE
  5
4CA
100
AcDbEntity
  8
0
100
AcDbLine
 62
9
  6
CONTINUOUS
 10
1240.1253550806
 20
-512.6127842183
 11
1240.1253550806
 21
-341.2510665724
  0
LINE
  5
4CB
100
AcDbEntity
  8
0
100
AcDbLine
 62
9
  6
CONTINUOUS
 10
1207.1253550808
 20
-457.3632685655
 11
1205.2503550808
 21
-459.7051428149
  0
LINE
  5
4CC
100
AcDbEntity
  8
0
100
AcDbLine
 62
9
  6
CONTINUOUS
 10
1202.7676559571
 20
-442.1952017304
 11
1200.8392931291
 21
-444.4796085241
  0
LINE
  5
4CD
100
AcDbEntity
  8
0
100
AcDbLine
 62
7
  6
CONTINUOUS
 10
1366.0701851124
 20
-198.6127842183
 11
1410.1253550806
 21
-198.6127842183
  0
LINE
  5
4CE
100
AcDbEntity
  8
0
100
AcDbLine
 62
7
  6
CONTINUOUS
 10
1280.1253550806
 20
-516.6127842183
 11
1280.1253550806
 21
-512.6127842183
  0
LINE
  5
4CF
100
AcDbEntity
  8
0
100
AcDbLine
 62
7
  6
CONTINUOUS
 10
1290.1253550806
 20
-516.6127842183
 11
1290.1253550806
 21
-512.6127842183
  0
LINE
  5
4D0
100
AcDbEntity
  8
0
100
AcDbLine
 62
9
  6
CONTINUOUS
 10
1328.1253550806
 20
-513.6127842183
 11
1328.1253550495
 21
-516.6127842183
  0
LINE
  5
4D1
100
AcDbEntity
  8
0
100
AcDbLine
 62
9
  6
CONTINUOUS
 10
1410.1253550806
 20
-198.6127842183
 11
1410.1253550806
 21
-305.8592630916
  0
LINE
  5
4D2
100
AcDbEntity
  8
0
100
AcDbLine
 62
9
  6
CONTINUOUS
 10
1410.1253550806
 20
-405.3663053451
 11
1410.1253550806
 21
-512.6127842183
  0
LINE
  5
4D3
100
AcDbEntity
  8
0
100
AcDbLine
 62
7
  6
CONTINUOUS
 10
1430.1253550806
 20
-295.6127842183
 11
1430.1253550806
 21
-218.6127842183
  0
LINE
  5
4D4
100
AcDbEntity
  8
0
100
AcDbLine
 62
7
  6
CONTINUOUS
 10
1430.1253550806
 20
-415.6127842183
 11
1430.1253550806
 21
-492.6127842183
  0
LINE
  5
4D5
100
AcDbEntity
  8
0
100
AcDbLine
 62
9
  6
CONTINUOUS
 10
1434.1253550806
 20
-265.6127842183
 11
1434.1253550806
 21
-295.6127842183
  0
LINE
  5
4D6
100
AcDbEntity
  8
0
100
AcDbLine
 62
9
  6
CONTINUOUS
 10
1434.1253550806
 20
-415.6127842183
 11
1434.1253550806
 21
-445.6127842183
  0
LINE
  5
4D7
100
AcDbEntity
  8
02___PRT_ALL_AXES
100
AcDbLine
 62
7
  6
CONTINUOUS
 10
1440.1253550806
 20
-265.6127842183
 11
1440.1253550806
 21
-295.6127842183
  0
LINE
  5
4D8
100
AcDbEntity
  8
0
100
AcDbLine
 62
7
  6
CONTINUOUS
 10
1440.1253550806
 20
-295.6127842183
 11
1440.1253550806
 21
-415.6127842183
  0
LINE
  5
4D9
100
AcDbEntity
  8
02___PRT_ALL_AXES
100
AcDbLine
 62
7
  6
CONTINUOUS
 10
1440.1253550806
 20
-415.6127842183
 11
1440.1253550806
 21
-445.6127842183
  0
LINE
  5
4DA
100
AcDbEntity
  8
0
100
AcDbLine
 62
9
  6
CONTINUOUS
 10
1450.1253550806
 20
-295.6127842183
 11
1450.1253550806
 21
-415.6127842183
  0
LINE
  5
4DB
100
AcDbEntity
  8
0
100
AcDbLine
 62
7
  6
CONTINUOUS
 10
1453.1253550806
 20
-298.6127842183
 11
1453.1253550806
 21
-412.6127842183
  0
LINE
  5
4DC
100
AcDbEntity
  8
0
100
AcDbLine
 62
9
  6
CONTINUOUS
 10
1455.1253550806
 20
-307.6127842183
 11
1455.1253550806
 21
-403.6127842183
  0
LINE
  5
4DD
100
AcDbEntity
  8
0
100
AcDbLine
 62
9
  6
CONTINUOUS
 10
1501.1253550806
 20
-403.6127842183
 11
1501.1253550806
 21
-307.6127842183
  0
LINE
  5
4DE
100
AcDbEntity
  8
0
100
AcDbLine
 62
7
  6
CONTINUOUS
 10
1503.1253550806
 20
-452.6127842183
 11
1503.1253550806
 21
-258.6127842183
  0
LINE
  5
4DF
100
AcDbEntity
  8
0
100
AcDbLine
 62
9
  6
CONTINUOUS
 10
1506.1253550806
 20
-455.6127842183
 11
1506.1253550806
 21
-255.6127842183
  0
LINE
  5
4E0
100
AcDbEntity
  8
02___PRT_ALL_AXES
100
AcDbLine
 62
7
  6
CONTINUOUS
 10
1523.1253550806
 20
-255.6127842183
 11
1523.1253550806
 21
-455.6127842183
  0
ARC
  5
4E1
100
AcDbEntity
  8
0
100
AcDbCircle
 62
7
  6
CONTINUOUS
 10
724.6253550806
 20
82.2957220508
 40
20.0
100
AcDbArc
 50
179.999999797
 51
224.999994135
  0
ARC
  5
4E2
100
AcDbEntity
  8
0
100
AcDbCircle
 62
7
  6
CONTINUOUS
 10
732.9096017131
 20
74.0114737758
 40
20.0
100
AcDbArc
 50
224.9999943643
 51
270.0
  0
ARC
  5
4E3
100
AcDbEntity
  8
0
100
AcDbCircle
 62
7
  6
CONTINUOUS
 10
825.6253550806
 20
32.0114737758
 40
8.0
100
AcDbArc
 50
270.0
 51
360.0
  0
ARC
  5
4E4
100
AcDbEntity
  8
0
100
AcDbCircle
 62
7
  6
CONTINUOUS
 10
1063.6253550806
 20
32.0114737758
 40
8.0
100
AcDbArc
 50
180.0
 51
270.0
  0
ARC
  5
4E5
100
AcDbEntity
  8
0
100
AcDbCircle
 62
3
  6
CONTINUOUS
 10
837.6253550806
 20
44.0114737758
 40
8.0
100
AcDbArc
 50
90.0
 51
180.0
  0
ARC
  5
4E6
100
AcDbEntity
  8
0
100
AcDbCircle
 62
3
  6
CONTINUOUS
 10
1051.6253550806
 20
44.0114737758
 40
8.0
100
AcDbArc
 50
0.0
 51
90.0
  0
ARC
  5
4E7
100
AcDbEntity
  8
0
100
AcDbCircle
 62
7
  6
CONTINUOUS
 10
837.6253550806
 20
44.0114737758
 40
4.0
100
AcDbArc
 50
90.0
 51
180.0
  0
ARC
  5
4E8
100
AcDbEntity
  8
0
100
AcDbCircle
 62
7
  6
CONTINUOUS
 10
1051.6253550806
 20
44.0114737758
 40
4.0
100
AcDbArc
 50
0.0
 51
90.0
  0
ARC
  5
4E9
100
AcDbEntity
  8
0
100
AcDbCircle
 62
3
  6
CONTINUOUS
 10
825.6253550806
 20
32.0114737758
 40
4.0
100
AcDbArc
 50
270.0
 51
360.0
  0
ARC
  5
4EA
100
AcDbEntity
  8
0
100
AcDbCircle
 62
3
  6
CONTINUOUS
 10
1063.6253550806
 20
32.0114737758
 40
4.0
100
AcDbArc
 50
180.0
 51
270.0
  0
ARC
  5
4EB
100
AcDbEntity
  8
0
100
AcDbCircle
 62
9
  6
CONTINUOUS
 10
1222.6360089892
 20
-7733.9932400747
 40
7925.7788133995
100
AcDbArc
 50
90.1436292879
 51
90.3730976105
  0
ARC
  5
4EC
100
AcDbEntity
  8
0
100
AcDbCircle
 62
7
  6
CONTINUOUS
 10
1140.6260775812
 20
97.011531413
 40
3.0007225011
100
AcDbArc
 50
180.0011005245
 51
189.001436173
  0
ARC
  5
4ED
100
AcDbEntity
  8
0
100
AcDbCircle
 62
7
  6
CONTINUOUS
 10
1123.6253550806
 20
87.0114737758
 40
3.0
100
AcDbArc
 50
250.5287793655
 51
270.0
  0
ARC
  5
4EE
100
AcDbEntity
  8
0
100
AcDbCircle
 62
7
  6
CONTINUOUS
 10
1140.625354489
 20
97.0114731842
 40
2.9999994084
100
AcDbArc
 50
179.9999887013
 51
270.0000112987
  0
ARC
  5
4EF
100
AcDbEntity
  8
0
100
AcDbCircle
 62
7
  6
CONTINUOUS
 10
1135.6253550806
 20
86.0114737758
 40
2.0
100
AcDbArc
 50
270.0
 51
360.0
  0
ARC
  5
4F0
100
AcDbEntity
  8
0
100
AcDbCircle
 62
7
  6
CONTINUOUS
 10
1240.1253550806
 20
47.0114737758
 40
20.0
100
AcDbArc
 50
179.9999999156
 51
270.0
  0
ARC
  5
4F1
100
AcDbEntity
  8
0
100
AcDbCircle
 62
7
  6
CONTINUOUS
 10
1210.6253550806
 20
51.0114737758
 40
2.0
100
AcDbArc
 50
180.0
 51
270.0
  0
ARC
  5
4F2
100
AcDbEntity
  8
0
100
AcDbCircle
 62
9
  6
CONTINUOUS
 10
1197.5644100746
 20
107.979895725
 40
8.0609450063
100
AcDbArc
 50
0.0004605273
 51
3.748799154
  0
ARC
  5
4F3
100
AcDbEntity
  8
0
100
AcDbCircle
 62
9
  6
CONTINUOUS
 10
1197.5671622671
 20
107.9800045089
 40
8.0581915904
100
AcDbArc
 50
3.749306778
 51
4.5876920569
  0
ARC
  5
4F4
100
AcDbEntity
  8
0
100
AcDbCircle
 62
9
  6
CONTINUOUS
 10
1195.6505798721
 20
105.7697847948
 40
8.0075042218
100
AcDbArc
 50
47.614387124
 51
49.5483357646
  0
ARC
  5
4F5
100
AcDbEntity
  8
0
100
AcDbCircle
 62
9
  6
CONTINUOUS
 10
1197.6406198402
 20
108.0418777115
 40
7.9597210103
100
AcDbArc
 50
47.9552407641
 51
49.9000778349
  0
ARC
  5
4F6
100
AcDbEntity
  8
0
100
AcDbCircle
 62
7
  6
CONTINUOUS
 10
1202.6253550254
 20
97.0114738275
 40
3.0000000693
100
AcDbArc
 50
270.0000004485
 51
359.9999919412
  0
ARC
  5
4F7
100
AcDbEntity
  8
0
100
AcDbCircle
 62
7
  6
CONTINUOUS
 10
1204.6253550806
 20
80.0114737758
 40
4.0
100
AcDbArc
 50
0.0
 51
90.0
  0
ARC
  5
4F8
100
AcDbEntity
  8
0
100
AcDbCircle
 62
9
  6
CONTINUOUS
 10
1211.4718329265
 20
107.5276198864
 40
8.8464778462
100
AcDbArc
 50
178.1480263931
 51
180.0004700902
  0
ARC
  5
4F9
100
AcDbEntity
  8
0
100
AcDbCircle
 62
7
  6
CONTINUOUS
 10
1204.6253550806
 20
95.1384904296
 40
4.0
100
AcDbArc
 50
0.0
 51
51.3178125718
  0
ARC
  5
4FA
100
AcDbEntity
  8
0
100
AcDbCircle
 62
7
  6
CONTINUOUS
 10
1209.6253041733
 20
101.3834639728
 40
3.9999490926
100
AcDbArc
 50
180.0
 51
231.3179876942
  0
ARC
  5
4FB
100
AcDbEntity
  8
0
100
AcDbCircle
 62
9
  6
CONTINUOUS
 10
1176.3879389722
 20
146.8392617992
 40
10.5581979605
100
AcDbArc
 50
227.2368936971
 51
228.6664716416
  0
ARC
  5
4FC
100
AcDbEntity
  8
0
100
AcDbCircle
 62
9
  6
CONTINUOUS
 10
1140.6253550806
 20
176.0114737758
 40
5.0
100
AcDbArc
 50
90.0
 51
180.0
  0
ARC
  5
4FD
100
AcDbEntity
  8
0
100
AcDbCircle
 62
7
  6
CONTINUOUS
 10
1140.6253550806
 20
176.0114737758
 40
3.0
100
AcDbArc
 50
90.0
 51
180.0
  0
ARC
  5
4FE
100
AcDbEntity
  8
0
100
AcDbCircle
 62
7
  6
CONTINUOUS
 10
1202.6253550806
 20
176.0114737758
 40
3.0
100
AcDbArc
 50
0.0
 51
90.0
  0
ARC
  5
4FF
100
AcDbEntity
  8
0
100
AcDbCircle
 62
7
  6
CONTINUOUS
 10
1205.6253550806
 20
176.0114737758
 40
3.0
100
AcDbArc
 50
0.0
 51
90.0
  0
ARC
  5
500
100
AcDbEntity
  8
0
100
AcDbCircle
 62
9
  6
CONTINUOUS
 10
1205.2341384626
 20
177.7540277109
 40
1.2591502095
100
AcDbArc
 50
73.0336775364
 51
74.2489304771
  0
ARC
  5
501
100
AcDbEntity
  8
0
100
AcDbCircle
 62
9
  6
CONTINUOUS
 10
1401.6243133922
 20
65.6332864295
 40
28.5010481328
100
AcDbArc
 50
357.1518880587
 51
359.961470199
  0
ARC
  5
502
100
AcDbEntity
  8
0
100
AcDbCircle
 62
7
  6
CONTINUOUS
 10
1410.1253550806
 20
47.0114737758
 40
20.0
100
AcDbArc
 50
270.0
 51
314.9089822191
  0
ARC
  5
503
100
AcDbEntity
  8
0
100
AcDbCircle
 62
9
  6
CONTINUOUS
 10
1415.3367343293
 20
65.2707026824
 40
18.7886266707
100
AcDbArc
 50
356.1571100879
 51
359.9545193288
  0
ARC
  5
504
100
AcDbEntity
  8
0
100
AcDbCircle
 62
7
  6
CONTINUOUS
 10
1337.1253550806
 20
39.0114737758
 40
3.0
100
AcDbArc
 50
0.0
 51
90.0
  0
ARC
  5
505
100
AcDbEntity
  8
0
100
AcDbCircle
 62
7
  6
CONTINUOUS
 10
1434.1253550806
 20
125.0114737758
 40
4.0
100
AcDbArc
 50
90.0
 51
180.0
  0
ARC
  5
506
100
AcDbEntity
  8
0
100
AcDbCircle
 62
7
  6
CONTINUOUS
 10
724.6253550806
 20
285.7272255007
 40
20.0
100
AcDbArc
 50
135.000005865
 51
180.000000203
  0
ARC
  5
507
100
AcDbEntity
  8
0
100
AcDbCircle
 62
7
  6
CONTINUOUS
 10
732.9096017131
 20
294.0114737758
 40
20.0
100
AcDbArc
 50
90.0
 51
135.0000056357
  0
ARC
  5
508
100
AcDbEntity
  8
0
100
AcDbCircle
 62
9
  6
CONTINUOUS
 10
1140.6253550806
 20
192.0114737758
 40
5.0
100
AcDbArc
 50
180.0
 51
270.0
  0
ARC
  5
509
100
AcDbEntity
  8
0
100
AcDbCircle
 62
7
  6
CONTINUOUS
 10
1140.6253550806
 20
192.0114737758
 40
3.0
100
AcDbArc
 50
180.0
 51
270.0
  0
ARC
  5
50A
100
AcDbEntity
  8
0
100
AcDbCircle
 62
7
  6
CONTINUOUS
 10
1140.6260731853
 20
271.0114180045
 40
3.0007181052
100
AcDbArc
 50
170.9985765912
 51
179.9989351027
  0
ARC
  5
50B
100
AcDbEntity
  8
0
100
AcDbCircle
 62
7
  6
CONTINUOUS
 10
1123.6253550806
 20
281.0114737758
 40
3.0
100
AcDbArc
 50
90.0
 51
109.4712206345
  0
ARC
  5
50C
100
AcDbEntity
  8
0
100
AcDbCircle
 62
7
  6
CONTINUOUS
 10
1140.6253549507
 20
271.0114739057
 40
2.99999987
100
AcDbArc
 50
89.9999975178
 51
180.0000024822
  0
ARC
  5
50D
100
AcDbEntity
  8
0
100
AcDbCircle
 62
7
  6
CONTINUOUS
 10
1140.6252161952
 20
271.0128052469
 40
2.9986621881
100
AcDbArc
 50
93.9123904454
 51
99.5825752564
  0
ARC
  5
50E
100
AcDbEntity
  8
0
100
AcDbCircle
 62
7
  6
CONTINUOUS
 10
1135.6253550806
 20
282.0114737758
 40
2.0
100
AcDbArc
 50
0.0
 51
90.0
  0
ARC
  5
50F
100
AcDbEntity
  8
0
100
AcDbCircle
 62
9
  6
CONTINUOUS
 10
1176.3825711803
 20
221.1896558738
 40
10.5501700184
100
AcDbArc
 50
131.3330523951
 51
132.7636975953
  0
ARC
  5
510
100
AcDbEntity
  8
0
100
AcDbCircle
 62
7
  6
CONTINUOUS
 10
1205.6253550806
 20
192.0114737758
 40
3.0
100
AcDbArc
 50
270.0
 51
360.0
  0
ARC
  5
511
100
AcDbEntity
  8
0
100
AcDbCircle
 62
7
  6
CONTINUOUS
 10
1202.6253550806
 20
192.0114737758
 40
3.0
100
AcDbArc
 50
270.0
 51
360.0
  0
ARC
  5
512
100
AcDbEntity
  8
0
100
AcDbCircle
 62
9
  6
CONTINUOUS
 10
1205.234138462
 20
190.2689198426
 40
1.2591502116
100
AcDbArc
 50
285.7510699033
 51
286.9663224514
  0
ARC
  5
513
100
AcDbEntity
  8
0
100
AcDbCircle
 62
9
  6
CONTINUOUS
 10
1197.5645735504
 20
260.0430468406
 40
8.0607815305
100
AcDbArc
 50
356.2516062747
 51
359.9995749031
  0
ARC
  5
514
100
AcDbEntity
  8
0
100
AcDbCircle
 62
9
  6
CONTINUOUS
 10
1197.5671750389
 20
260.0429408646
 40
8.0581786793
100
AcDbArc
 50
355.4184332805
 51
356.2511489183
  0
ARC
  5
515
100
AcDbEntity
  8
0
100
AcDbCircle
 62
9
  6
CONTINUOUS
 10
1195.6505686465
 20
262.2531754857
 40
8.0075211912
100
AcDbArc
 50
310.4516660214
 51
312.3856108057
  0
ARC
  5
516
100
AcDbEntity
  8
0
100
AcDbCircle
 62
9
  6
CONTINUOUS
 10
1197.6406209174
 20
259.981068604
 40
7.9597193711
100
AcDbArc
 50
310.0999219651
 51
312.0447594365
  0
ARC
  5
517
100
AcDbEntity
  8
0
100
AcDbCircle
 62
7
  6
CONTINUOUS
 10
1202.6253585781
 20
271.0114743742
 40
2.9999965026
100
AcDbArc
 50
359.9999885715
 51
89.9999993565
  0
ARC
  5
518
100
AcDbEntity
  8
0
100
AcDbCircle
 62
9
  6
CONTINUOUS
 10
1211.4574716234
 20
260.4950956034
 40
8.832116548
100
AcDbArc
 50
179.9980237126
 51
181.8534798042
  0
ARC
  5
519
100
AcDbEntity
  8
0
100
AcDbCircle
 62
7
  6
CONTINUOUS
 10
1204.6253550806
 20
272.884457122
 40
4.0
100
AcDbArc
 50
308.6820123058
 51
360.0
  0
ARC
  5
51A
100
AcDbEntity
  8
0
100
AcDbCircle
 62
7
  6
CONTINUOUS
 10
1204.6253550806
 20
288.0114737758
 40
4.0
100
AcDbArc
 50
270.0
 51
360.0
  0
ARC
  5
51B
100
AcDbEntity
  8
0
100
AcDbCircle
 62
7
  6
CONTINUOUS
 10
1209.6253041733
 20
266.6394835787
 40
3.9999490926
100
AcDbArc
 50
128.6820123237
 51
180.0
  0
ARC
  5
51C
100
AcDbEntity
  8
0
100
AcDbCircle
 62
7
  6
CONTINUOUS
 10
1210.6253550806
 20
317.0114737758
 40
2.0
100
AcDbArc
 50
90.0
 51
180.0
  0
ARC
  5
51D
100
AcDbEntity
  8
0
100
AcDbCircle
 62
7
  6
CONTINUOUS
 10
1240.1253550806
 20
374.0114737758
 40
20.0
100
AcDbArc
 50
89.9878940521
 51
180.0
  0
ARC
  5
51E
100
AcDbEntity
  8
0
100
AcDbCircle
 62
7
  6
CONTINUOUS
 10
1223.1253550806
 20
419.0114737758
 40
3.0
100
AcDbArc
 50
90.0
 51
180.0
  0
ARC
  5
51F
100
AcDbEntity
  8
0
100
AcDbCircle
 62
7
  6
CONTINUOUS
 10
1183.1253550806
 20
475.0114737758
 40
3.0
100
AcDbArc
 50
180.0
 51
270.0
  0
ARC
  5
520
100
AcDbEntity
  8
0
100
AcDbCircle
 62
7
  6
CONTINUOUS
 10
1230.1253550806
 20
424.0114737758
 40
2.0
100
AcDbArc
 50
270.0000038815
 51
360.0
  0
ARC
  5
521
100
AcDbEntity
  8
0
100
AcDbCircle
 62
7
  6
CONTINUOUS
 10
1230.1253550806
 20
470.0114737758
 40
2.0
100
AcDbArc
 50
0.0
 51
89.9999960806
  0
ARC
  5
522
100
AcDbEntity
  8
0
100
AcDbCircle
 62
7
  6
CONTINUOUS
 10
1434.1253550806
 20
253.0114737758
 40
4.0
100
AcDbArc
 50
180.0
 51
270.0
  0
ARC
  5
523
100
AcDbEntity
  8
0
100
AcDbCircle
 62
7
  6
CONTINUOUS
 10
1450.1253550806
 20
277.0114737758
 40
3.0
100
AcDbArc
 50
270.0
 51
360.0
  0
ARC
  5
524
100
AcDbEntity
  8
0
100
AcDbCircle
 62
7
  6
CONTINUOUS
 10
1506.1253550806
 20
237.0114737758
 40
3.0
100
AcDbArc
 50
180.0
 51
270.0
  0
ARC
  5
525
100
AcDbEntity
  8
0
100
AcDbCircle
 62
7
  6
CONTINUOUS
 10
1455.1253550806
 20
284.0114737758
 40
2.0
100
AcDbArc
 50
90.0
 51
179.9999961185
  0
ARC
  5
526
100
AcDbEntity
  8
0
100
AcDbCircle
 62
7
  6
CONTINUOUS
 10
1501.1253550806
 20
284.0114737758
 40
2.0
100
AcDbArc
 50
0.0000039194
 51
90.0
  0
ARC
  5
527
100
AcDbEntity
  8
0
100
AcDbCircle
 62
7
  6
CONTINUOUS
 10
1337.1253550806
 20
419.0114737758
 40
3.0
100
AcDbArc
 50
0.0
 51
90.0
  0
ARC
  5
528
100
AcDbEntity
  8
0
100
AcDbCircle
 62
7
  6
CONTINUOUS
 10
1377.1253550806
 20
475.0114737758
 40
3.0
100
AcDbArc
 50
270.0
 51
360.0
  0
ARC
  5
529
100
AcDbEntity
  8
0
100
AcDbCircle
 62
7
  6
CONTINUOUS
 10
1450.1253550806
 20
391.0114737758
 40
3.0
100
AcDbArc
 50
0.0
 51
90.0
  0
ARC
  5
52A
100
AcDbEntity
  8
0
100
AcDbCircle
 62
7
  6
CONTINUOUS
 10
1506.1253550806
 20
431.0114737758
 40
3.0
100
AcDbArc
 50
90.0
 51
180.0
  0
ARC
  5
52B
100
AcDbEntity
  8
0
100
AcDbCircle
 62
7
  6
CONTINUOUS
 10
1330.1253550806
 20
424.0114737758
 40
2.0
100
AcDbArc
 50
180.0
 51
269.9999961185
  0
ARC
  5
52C
100
AcDbEntity
  8
0
100
AcDbCircle
 62
7
  6
CONTINUOUS
 10
1330.1253550806
 20
470.0114737758
 40
2.0
100
AcDbArc
 50
90.0000039194
 51
180.0
  0
ARC
  5
52D
100
AcDbEntity
  8
0
100
AcDbCircle
 62
7
  6
CONTINUOUS
 10
1455.1253550806
 20
384.0114737758
 40
2.0
100
AcDbArc
 50
180.0000038815
 51
270.0
  0
ARC
  5
52E
100
AcDbEntity
  8
0
100
AcDbCircle
 62
7
  6
CONTINUOUS
 10
1501.1253550806
 20
384.0114737758
 40
2.0
100
AcDbArc
 50
270.0
 51
359.9999960806
  0
ARC
  5
52F
100
AcDbEntity
  8
0
100
AcDbCircle
 62
9
  6
CONTINUOUS
 10
1222.6360089822
 20
8102.0161860619
 40
7925.7788118352
100
AcDbArc
 50
269.6269023894
 51
269.8563707121
  0
ARC
  5
530
100
AcDbEntity
  8
0
100
AcDbCircle
 62
9
  6
CONTINUOUS
 10
3895.9350883175
 20
-2913.6560483865
 40
4157.7054534114
100
AcDbArc
 50
130.3724238013
 51
130.9435448796
  0
ARC
  5
531
100
AcDbEntity
  8
0
100
AcDbCircle
 62
9
  6
CONTINUOUS
 10
3895.9350829998
 20
3281.6789897461
 40
4157.7054452495
100
AcDbArc
 50
229.0564551198
 51
229.6275761992
  0
ARC
  5
532
100
AcDbEntity
  8
0
100
AcDbCircle
 62
7
  6
CONTINUOUS
 10
22.9303559878
 20
39.0114737758
 40
3.0
100
AcDbArc
 50
90.0
 51
180.0
  0
ARC
  5
533
100
AcDbEntity
  8
0
100
AcDbCircle
 62
9
  6
CONTINUOUS
 10
126.4128982667
 20
65.3916711411
 40
14.4122409723
100
AcDbArc
 50
179.1156196457
 51
184.6746326878
  0
ARC
  5
534
100
AcDbEntity
  8
0
100
AcDbCircle
 62
7
  6
CONTINUOUS
 10
180.9303559878
 20
184.0114737758
 40
157.0
100
AcDbArc
 50
180.0
 51
360.0
  0
ARC
  5
535
100
AcDbEntity
  8
0
100
AcDbCircle
 62
7
  6
CONTINUOUS
 10
180.9303559878
 20
244.3303689392
 40
157.0
100
AcDbArc
 50
0.0
 51
53.7248016875
  0
ARC
  5
536
100
AcDbEntity
  8
0
100
AcDbCircle
 62
7
  6
CONTINUOUS
 10
180.9303559878
 20
244.3303689392
 40
157.0
100
AcDbArc
 50
126.2753277589
 51
180.0
  0
ARC
  5
537
100
AcDbEntity
  8
0
100
AcDbCircle
 62
9
  6
CONTINUOUS
 10
180.9303559878
 20
244.3303689392
 40
137.0
100
AcDbArc
 50
0.0
 51
43.2623399594
  0
ARC
  5
538
100
AcDbEntity
  8
0
100
AcDbCircle
 62
9
  6
CONTINUOUS
 10
180.9303559878
 20
244.3303689392
 40
137.0
100
AcDbArc
 50
55.1779941378
 51
61.6721790534
  0
ARC
  5
539
100
AcDbEntity
  8
0
100
AcDbCircle
 62
9
  6
CONTINUOUS
 10
180.9303559878
 20
184.0114737758
 40
137.0
100
AcDbArc
 50
300.2068978894
 51
360.0
  0
ARC
  5
53A
100
AcDbEntity
  8
0
100
AcDbCircle
 62
9
  6
CONTINUOUS
 10
180.9303559878
 20
184.0114737758
 40
137.0
100
AcDbArc
 50
180.0
 51
239.7931046338
  0
ARC
  5
53B
100
AcDbEntity
  8
0
100
AcDbCircle
 62
9
  6
CONTINUOUS
 10
180.9303559878
 20
244.3303689392
 40
137.0
100
AcDbArc
 50
118.3423499467
 51
124.8334518858
  0
ARC
  5
53C
100
AcDbEntity
  8
0
100
AcDbCircle
 62
9
  6
CONTINUOUS
 10
180.9303559878
 20
244.3303689392
 40
137.0
100
AcDbArc
 50
136.7376266861
 51
180.0
  0
ARC
  5
53D
100
AcDbEntity
  8
0
100
AcDbCircle
 62
9
  6
CONTINUOUS
 10
115.9303559878
 20
224.0114737758
 40
29.0
100
AcDbArc
 50
90.0
 51
180.0
  0
ARC
  5
53E
100
AcDbEntity
  8
0
100
AcDbCircle
 62
9
  6
CONTINUOUS
 10
115.9303559878
 20
154.0114737758
 40
29.0
100
AcDbArc
 50
180.0
 51
270.0
  0
ARC
  5
53F
100
AcDbEntity
  8
02___PRT_ALL_AXES
100
AcDbCircle
 62
7
  6
CONTINUOUS
 10
115.9303559878
 20
154.0114737758
 40
25.0
100
AcDbArc
 50
180.0
 51
270.0
  0
ARC
  5
540
100
AcDbEntity
  8
02___PRT_ALL_AXES
100
AcDbCircle
 62
7
  6
CONTINUOUS
 10
115.9303559878
 20
224.0114737758
 40
25.0
100
AcDbArc
 50
90.0
 51
180.0
  0
CIRCLE
  5
541
100
AcDbEntity
  8
02___PRT_ALL_AXES
100
AcDbCircle
 62
7
  6
CONTINUOUS
 10
180.9303559878
 20
334.0114737758
 40
100.0
  0
CIRCLE
  5
542
100
AcDbEntity
  8
0
100
AcDbCircle
 62
7
  6
CONTINUOUS
 10
180.9303559878
 20
334.0114737758
 40
40.0
  0
CIRCLE
  5
543
100
AcDbEntity
  8
02___PRT_ALL_AXES
100
AcDbCircle
 62
7
  6
CONTINUOUS
 10
150.3156813986
 20
407.9218363767
 40
9.0
  0
CIRCLE
  5
544
100
AcDbEntity
  8
02___PRT_ALL_AXES
100
AcDbCircle
 62
7
  6
CONTINUOUS
 10
107.0199933869
 20
364.626148365
 40
9.0
  0
CIRCLE
  5
545
100
AcDbEntity
  8
02___PRT_ALL_AXES
100
AcDbCircle
 62
7
  6
CONTINUOUS
 10
107.0199933869
 20
303.3967991866
 40
9.0
  0
CIRCLE
  5
546
100
AcDbEntity
  8
02___PRT_ALL_AXES
100
AcDbCircle
 62
7
  6
CONTINUOUS
 10
150.3156813986
 20
260.1011111749
 40
9.0
  0
ARC
  5
547
100
AcDbEntity
  8
0
100
AcDbCircle
 62
7
  6
CONTINUOUS
 10
71.9305095873
 20
362.8210281767
 40
3.9999485365
100
AcDbArc
 50
337.2744162704
 51
359.9978042171
  0
ARC
  5
548
100
AcDbEntity
  8
0
100
AcDbCircle
 62
7
  6
CONTINUOUS
 10
71.9305095873
 20
362.8210281767
 40
3.9999485365
100
AcDbArc
 50
312.6079998495
 51
336.6631306327
  0
ARC
  5
549
100
AcDbEntity
  8
0
100
AcDbCircle
 62
7
  6
CONTINUOUS
 10
189.9303559878
 20
475.0114737758
 40
3.0
100
AcDbArc
 50
180.0
 51
270.0
  0
ARC
  5
54A
100
AcDbEntity
  8
0
100
AcDbCircle
 62
9
  6
CONTINUOUS
 10
245.9303559878
 20
154.0114737758
 40
29.0
100
AcDbArc
 50
270.0
 51
360.0
  0
ARC
  5
54B
100
AcDbEntity
  8
0
100
AcDbCircle
 62
9
  6
CONTINUOUS
 10
245.9303559878
 20
224.0114737758
 40
29.0
100
AcDbArc
 50
0.0
 51
90.0
  0
ARC
  5
54C
100
AcDbEntity
  8
02___PRT_ALL_AXES
100
AcDbCircle
 62
7
  6
CONTINUOUS
 10
245.9303559878
 20
154.0114737758
 40
25.0
100
AcDbArc
 50
270.0
 51
360.0
  0
ARC
  5
54D
100
AcDbEntity
  8
02___PRT_ALL_AXES
100
AcDbCircle
 62
7
  6
CONTINUOUS
 10
245.9303559878
 20
224.0114737758
 40
25.0
100
AcDbArc
 50
0.0
 51
90.0
  0
ARC
  5
54E
100
AcDbEntity
  8
0
100
AcDbCircle
 62
9
  6
CONTINUOUS
 10
235.4453246007
 20
65.3917535013
 40
14.4147285133
100
AcDbArc
 50
355.3258473465
 51
0.88390032
  0
ARC
  5
54F
100
AcDbEntity
  8
0
100
AcDbCircle
 62
7
  6
CONTINUOUS
 10
306.9303559878
 20
39.0114737758
 40
3.0
100
AcDbArc
 50
0.0
 51
90.0
  0
CIRCLE
  5
550
100
AcDbEntity
  8
02___PRT_ALL_AXES
100
AcDbCircle
 62
7
  6
CONTINUOUS
 10
254.8407185887
 20
303.3967991866
 40
9.0
  0
CIRCLE
  5
551
100
AcDbEntity
  8
02___PRT_ALL_AXES
100
AcDbCircle
 62
7
  6
CONTINUOUS
 10
254.8407185887
 20
364.626148365
 40
9.0
  0
CIRCLE
  5
552
100
AcDbEntity
  8
02___PRT_ALL_AXES
100
AcDbCircle
 62
7
  6
CONTINUOUS
 10
211.5450305771
 20
407.9218363767
 40
9.0
  0
CIRCLE
  5
553
100
AcDbEntity
  8
02___PRT_ALL_AXES
100
AcDbCircle
 62
7
  6
CONTINUOUS
 10
211.5450305771
 20
260.1011111749
 40
9.0
  0
ARC
  5
554
100
AcDbEntity
  8
0
100
AcDbCircle
 62
7
  6
CONTINUOUS
 10
343.9303559878
 20
419.0114737758
 40
3.0
100
AcDbArc
 50
0.0
 51
90.0
  0
ARC
  5
555
100
AcDbEntity
  8
0
100
AcDbCircle
 62
7
  6
CONTINUOUS
 10
229.9303559878
 20
419.0114737758
 40
3.0
100
AcDbArc
 50
90.0
 51
114.1871640011
  0
ARC
  5
556
100
AcDbEntity
  8
0
100
AcDbCircle
 62
7
  6
CONTINUOUS
 10
383.9303559878
 20
475.0114737758
 40
3.0
100
AcDbArc
 50
270.0
 51
360.0
  0
ARC
  5
557
100
AcDbEntity
  8
0
100
AcDbCircle
 62
7
  6
CONTINUOUS
 10
236.9303559878
 20
470.0114737758
 40
2.0
100
AcDbArc
 50
0.0
 51
90.0
  0
ARC
  5
558
100
AcDbEntity
  8
0
100
AcDbCircle
 62
7
  6
CONTINUOUS
 10
336.9303559878
 20
470.0114737758
 40
2.0
100
AcDbArc
 50
90.0
 51
180.0
  0
ARC
  5
559
100
AcDbEntity
  8
0
100
AcDbCircle
 62
7
  6
CONTINUOUS
 10
236.9303559878
 20
424.0114737758
 40
2.0
100
AcDbArc
 50
270.0
 51
360.0
  0
ARC
  5
55A
100
AcDbEntity
  8
0
100
AcDbCircle
 62
7
  6
CONTINUOUS
 10
336.9303559878
 20
424.0114737758
 40
2.0
100
AcDbArc
 50
180.0
 51
270.0
  0
ARC
  5
55B
100
AcDbEntity
  8
0
100
AcDbCircle
 62
9
  6
CONTINUOUS
 10
-3430.3490267958
 20
-2913.6560421927
 40
4157.705445247
100
AcDbArc
 50
49.0564551198
 51
49.6275761992
  0
ARC
  5
55C
100
AcDbEntity
  8
0
100
AcDbCircle
 62
9
  6
CONTINUOUS
 10
-3430.3490321155
 20
3281.6789959384
 40
4157.7054534119
100
AcDbArc
 50
310.3724238013
 51
310.9435448796
  0
ARC
  5
55D
100
AcDbEntity
  8
0
100
AcDbCircle
 62
9
  6
CONTINUOUS
 10
-757.0499527798
 20
-7733.9932385101
 40
7925.7788118349
100
AcDbArc
 50
89.6269023894
 51
89.8563707121
  0
ARC
  5
55E
100
AcDbEntity
  8
0
100
AcDbCircle
 62
9
  6
CONTINUOUS
 10
-936.041213492
 20
65.6332119424
 40
28.4980917813
100
AcDbArc
 50
180.0383840407
 51
182.8482577015
  0
ARC
  5
55F
100
AcDbEntity
  8
0
100
AcDbCircle
 62
7
  6
CONTINUOUS
 10
-944.5392988783
 20
47.0114737758
 40
20.0
100
AcDbArc
 50
225.0910177809
 51
270.0
  0
ARC
  5
560
100
AcDbEntity
  8
0
100
AcDbCircle
 62
9
  6
CONTINUOUS
 10
-949.7480963452
 20
65.2707903222
 40
18.7912085214
100
AcDbArc
 50
180.0457416426
 51
183.8426289408
  0
ARC
  5
561
100
AcDbEntity
  8
0
100
AcDbCircle
 62
7
  6
CONTINUOUS
 10
-871.5392988783
 20
39.0114737758
 40
3.0
100
AcDbArc
 50
90.0
 51
180.0
  0
ARC
  5
562
100
AcDbEntity
  8
0
100
AcDbCircle
 62
7
  6
CONTINUOUS
 10
-968.5392988783
 20
125.0114737758
 40
4.0
100
AcDbArc
 50
0.0
 51
90.0
  0
ARC
  5
563
100
AcDbEntity
  8
0
100
AcDbCircle
 62
7
  6
CONTINUOUS
 10
-774.5392988783
 20
47.0114737758
 40
20.0
100
AcDbArc
 50
270.0
 51
0.0000000844
  0
ARC
  5
564
100
AcDbEntity
  8
0
100
AcDbCircle
 62
7
  6
CONTINUOUS
 10
-745.0392988783
 20
51.0114737758
 40
2.0
100
AcDbArc
 50
270.0
 51
360.0
  0
ARC
  5
565
100
AcDbEntity
  8
0
100
AcDbCircle
 62
7
  6
CONTINUOUS
 10
-739.0392988783
 20
80.0114737758
 40
4.0
100
AcDbArc
 50
90.0
 51
180.0
  0
ARC
  5
566
100
AcDbEntity
  8
0
100
AcDbCircle
 62
9
  6
CONTINUOUS
 10
-745.8714154217
 20
107.5278519481
 40
8.8321165486
100
AcDbArc
 50
359.9980237126
 51
1.8534798041
  0
ARC
  5
567
100
AcDbEntity
  8
0
100
AcDbCircle
 62
7
  6
CONTINUOUS
 10
-739.0392988783
 20
95.1384904296
 40
4.0
100
AcDbArc
 50
128.6821874282
 51
180.0
  0
ARC
  5
568
100
AcDbEntity
  8
0
100
AcDbCircle
 62
7
  6
CONTINUOUS
 10
-744.0392479761
 20
101.3834639753
 40
3.9999490979
100
AcDbArc
 50
308.6820123237
 51
360.0
  0
ARC
  5
569
100
AcDbEntity
  8
0
100
AcDbCircle
 62
9
  6
CONTINUOUS
 10
-731.9785173479
 20
107.9799007109
 40
8.0607815306
100
AcDbArc
 50
176.2516062747
 51
179.9995749031
  0
ARC
  5
56A
100
AcDbEntity
  8
0
100
AcDbCircle
 62
9
  6
CONTINUOUS
 10
-731.9811188334
 20
107.9800066867
 40
8.0581786824
100
AcDbArc
 50
175.4184332808
 51
176.2511489182
  0
ARC
  5
56B
100
AcDbEntity
  8
0
100
AcDbCircle
 62
9
  6
CONTINUOUS
 10
-730.0645124439
 20
105.7697720656
 40
8.0075211915
100
AcDbArc
 50
130.4516660215
 51
132.3856108056
  0
ARC
  5
56C
100
AcDbEntity
  8
0
100
AcDbCircle
 62
9
  6
CONTINUOUS
 10
-732.0545647156
 20
108.0418789482
 40
7.9597193702
100
AcDbArc
 50
130.099921965
 51
132.0447594366
  0
ARC
  5
56D
100
AcDbEntity
  8
0
100
AcDbCircle
 62
7
  6
CONTINUOUS
 10
-737.0393023757
 20
97.0114731774
 40
2.9999965026
100
AcDbArc
 50
179.9999885715
 51
269.9999993565
  0
ARC
  5
56E
100
AcDbEntity
  8
0
100
AcDbCircle
 62
7
  6
CONTINUOUS
 10
-675.040016983
 20
97.011529547
 40
3.0007181052
100
AcDbArc
 50
350.9985765911
 51
359.9989351027
  0
ARC
  5
56F
100
AcDbEntity
  8
0
100
AcDbCircle
 62
7
  6
CONTINUOUS
 10
-658.0392988783
 20
87.0114737758
 40
3.0
100
AcDbArc
 50
270.0
 51
289.4712206345
  0
ARC
  5
570
100
AcDbEntity
  8
0
100
AcDbCircle
 62
7
  6
CONTINUOUS
 10
-675.0392987483
 20
97.0114736458
 40
2.99999987
100
AcDbArc
 50
269.9999975178
 51
0.0000024822
  0
ARC
  5
571
100
AcDbEntity
  8
0
100
AcDbCircle
 62
7
  6
CONTINUOUS
 10
-675.0391599929
 20
97.0101423046
 40
2.9986621881
100
AcDbArc
 50
273.9123904454
 51
279.5825752564
  0
ARC
  5
572
100
AcDbEntity
  8
0
100
AcDbCircle
 62
7
  6
CONTINUOUS
 10
-670.0392988783
 20
86.0114737758
 40
2.0
100
AcDbArc
 50
180.0
 51
270.0
  0
ARC
  5
573
100
AcDbEntity
  8
0
100
AcDbCircle
 62
9
  6
CONTINUOUS
 10
-710.7965149781
 20
146.833291678
 40
10.5501700187
100
AcDbArc
 50
311.3330523951
 51
312.7636975953
  0
ARC
  5
574
100
AcDbEntity
  8
0
100
AcDbCircle
 62
9
  6
CONTINUOUS
 10
-675.0392988783
 20
176.0114737758
 40
5.0
100
AcDbArc
 50
0.0
 51
90.0
  0
ARC
  5
575
100
AcDbEntity
  8
0
100
AcDbCircle
 62
7
  6
CONTINUOUS
 10
-675.0392988783
 20
176.0114737758
 40
3.0
100
AcDbArc
 50
0.0
 51
90.0
  0
ARC
  5
576
100
AcDbEntity
  8
0
100
AcDbCircle
 62
7
  6
CONTINUOUS
 10
-737.0392988783
 20
176.0114737758
 40
3.0
100
AcDbArc
 50
90.0
 51
180.0
  0
ARC
  5
577
100
AcDbEntity
  8
0
100
AcDbCircle
 62
7
  6
CONTINUOUS
 10
-740.0392988783
 20
176.0114737758
 40
3.0
100
AcDbArc
 50
90.0
 51
180.0
  0
ARC
  5
578
100
AcDbEntity
  8
0
100
AcDbCircle
 62
9
  6
CONTINUOUS
 10
-739.6480822596
 20
177.7540277087
 40
1.2591502118
100
AcDbArc
 50
105.7510699032
 51
106.9663224511
  0
ARC
  5
579
100
AcDbEntity
  8
0
100
AcDbCircle
 62
7
  6
CONTINUOUS
 10
-259.0392988783
 20
82.2957220508
 40
20.0
100
AcDbArc
 50
315.000005865
 51
0.000000203
  0
ARC
  5
57A
100
AcDbEntity
  8
0
100
AcDbCircle
 62
7
  6
CONTINUOUS
 10
-267.3235455107
 20
74.0114737758
 40
20.0
100
AcDbArc
 50
270.0
 51
315.0000056357
  0
ARC
  5
57B
100
AcDbEntity
  8
0
100
AcDbCircle
 62
7
  6
CONTINUOUS
 10
-360.0392988783
 20
32.0114737758
 40
8.0
100
AcDbArc
 50
180.0
 51
270.0
  0
ARC
  5
57C
100
AcDbEntity
  8
0
100
AcDbCircle
 62
7
  6
CONTINUOUS
 10
-598.0392988783
 20
32.0114737758
 40
8.0
100
AcDbArc
 50
270.0
 51
360.0
  0
ARC
  5
57D
100
AcDbEntity
  8
0
100
AcDbCircle
 62
3
  6
CONTINUOUS
 10
-372.0392988783
 20
44.0114737758
 40
8.0
100
AcDbArc
 50
0.0
 51
90.0
  0
ARC
  5
57E
100
AcDbEntity
  8
0
100
AcDbCircle
 62
3
  6
CONTINUOUS
 10
-586.0392988783
 20
44.0114737758
 40
8.0
100
AcDbArc
 50
90.0
 51
180.0
  0
ARC
  5
57F
100
AcDbEntity
  8
0
100
AcDbCircle
 62
7
  6
CONTINUOUS
 10
-372.0392988783
 20
44.0114737758
 40
4.0
100
AcDbArc
 50
0.0
 51
90.0
  0
ARC
  5
580
100
AcDbEntity
  8
0
100
AcDbCircle
 62
7
  6
CONTINUOUS
 10
-586.0392988783
 20
44.0114737758
 40
4.0
100
AcDbArc
 50
90.0
 51
180.0
  0
ARC
  5
581
100
AcDbEntity
  8
0
100
AcDbCircle
 62
3
  6
CONTINUOUS
 10
-360.0392988783
 20
32.0114737758
 40
4.0
100
AcDbArc
 50
180.0
 51
270.0
  0
ARC
  5
582
100
AcDbEntity
  8
0
100
AcDbCircle
 62
3
  6
CONTINUOUS
 10
-598.0392988783
 20
32.0114737758
 40
4.0
100
AcDbArc
 50
270.0
 51
360.0
  0
ARC
  5
583
100
AcDbEntity
  8
0
100
AcDbCircle
 62
7
  6
CONTINUOUS
 10
-968.5392988783
 20
253.0114737758
 40
4.0
100
AcDbArc
 50
270.0
 51
360.0
  0
ARC
  5
584
100
AcDbEntity
  8
0
100
AcDbCircle
 62
7
  6
CONTINUOUS
 10
-984.5392988783
 20
277.0114737758
 40
3.0
100
AcDbArc
 50
180.0
 51
270.0
  0
ARC
  5
585
100
AcDbEntity
  8
0
100
AcDbCircle
 62
7
  6
CONTINUOUS
 10
-1040.5392988783
 20
237.0114737758
 40
3.0
100
AcDbArc
 50
270.0
 51
360.0
  0
ARC
  5
586
100
AcDbEntity
  8
0
100
AcDbCircle
 62
7
  6
CONTINUOUS
 10
-989.5392988783
 20
284.0114737758
 40
2.0
100
AcDbArc
 50
0.0000038815
 51
90.0
  0
ARC
  5
587
100
AcDbEntity
  8
0
100
AcDbCircle
 62
7
  6
CONTINUOUS
 10
-1035.5392988783
 20
284.0114737758
 40
2.0
100
AcDbArc
 50
90.0
 51
179.9999960806
  0
ARC
  5
588
100
AcDbEntity
  8
0
100
AcDbCircle
 62
7
  6
CONTINUOUS
 10
-984.5392988783
 20
391.0114737758
 40
3.0
100
AcDbArc
 50
90.0
 51
180.0
  0
ARC
  5
589
100
AcDbEntity
  8
0
100
AcDbCircle
 62
7
  6
CONTINUOUS
 10
-1040.5392988783
 20
431.0114737758
 40
3.0
100
AcDbArc
 50
0.0
 51
90.0
  0
ARC
  5
58A
100
AcDbEntity
  8
0
100
AcDbCircle
 62
7
  6
CONTINUOUS
 10
-871.5392988783
 20
419.0114737758
 40
3.0
100
AcDbArc
 50
90.0
 51
180.0
  0
ARC
  5
58B
100
AcDbEntity
  8
0
100
AcDbCircle
 62
7
  6
CONTINUOUS
 10
-911.5392988783
 20
475.0114737758
 40
3.0
100
AcDbArc
 50
180.0
 51
270.0
  0
ARC
  5
58C
100
AcDbEntity
  8
0
100
AcDbCircle
 62
7
  6
CONTINUOUS
 10
-989.5392988783
 20
384.0114737758
 40
2.0
100
AcDbArc
 50
270.0
 51
359.9999961185
  0
ARC
  5
58D
100
AcDbEntity
  8
0
100
AcDbCircle
 62
7
  6
CONTINUOUS
 10
-1035.5392988783
 20
384.0114737758
 40
2.0
100
AcDbArc
 50
180.0000039194
 51
270.0
  0
ARC
  5
58E
100
AcDbEntity
  8
0
100
AcDbCircle
 62
7
  6
CONTINUOUS
 10
-864.5392988783
 20
424.0114737758
 40
2.0
100
AcDbArc
 50
270.0000038815
 51
360.0
  0
ARC
  5
58F
100
AcDbEntity
  8
0
100
AcDbCircle
 62
7
  6
CONTINUOUS
 10
-864.5392988783
 20
470.0114737758
 40
2.0
100
AcDbArc
 50
0.0
 51
89.9999960806
  0
ARC
  5
590
100
AcDbEntity
  8
0
100
AcDbCircle
 62
9
  6
CONTINUOUS
 10
-710.8018577578
 20
221.1837134839
 40
10.5581606185
100
AcDbArc
 50
47.2368911689
 51
48.6664741698
  0
ARC
  5
591
100
AcDbEntity
  8
0
100
AcDbCircle
 62
7
  6
CONTINUOUS
 10
-740.0392988783
 20
192.0114737758
 40
3.0
100
AcDbArc
 50
180.0
 51
270.0
  0
ARC
  5
592
100
AcDbEntity
  8
0
100
AcDbCircle
 62
7
  6
CONTINUOUS
 10
-737.0392988783
 20
192.0114737758
 40
3.0
100
AcDbArc
 50
180.0
 51
270.0
  0
ARC
  5
593
100
AcDbEntity
  8
0
100
AcDbCircle
 62
9
  6
CONTINUOUS
 10
-739.6480822602
 20
190.2689198407
 40
1.2591502096
100
AcDbArc
 50
253.0336775364
 51
254.2489304771
  0
ARC
  5
594
100
AcDbEntity
  8
0
100
AcDbCircle
 62
9
  6
CONTINUOUS
 10
-745.8857767241
 20
260.4953276652
 40
8.8464778462
100
AcDbArc
 50
358.1480263931
 51
0.0004700902
  0
ARC
  5
595
100
AcDbEntity
  8
0
100
AcDbCircle
 62
7
  6
CONTINUOUS
 10
-739.0392988783
 20
272.884457122
 40
4.0
100
AcDbArc
 50
180.0
 51
231.3179876942
  0
ARC
  5
596
100
AcDbEntity
  8
0
100
AcDbCircle
 62
7
  6
CONTINUOUS
 10
-739.0392988783
 20
288.0114737758
 40
4.0
100
AcDbArc
 50
180.0
 51
270.0
  0
ARC
  5
597
100
AcDbEntity
  8
0
100
AcDbCircle
 62
7
  6
CONTINUOUS
 10
-744.0392479709
 20
266.6394835787
 40
3.9999490926
100
AcDbArc
 50
0.0
 51
51.3179876942
  0
ARC
  5
598
100
AcDbEntity
  8
0
100
AcDbCircle
 62
7
  6
CONTINUOUS
 10
-745.0392988783
 20
317.0114737758
 40
2.0
100
AcDbArc
 50
0.0
 51
90.0
  0
ARC
  5
599
100
AcDbEntity
  8
0
100
AcDbCircle
 62
9
  6
CONTINUOUS
 10
-731.9783538986
 20
260.0430518255
 40
8.06094498
100
AcDbArc
 50
180.0004605196
 51
183.7487991038
  0
ARC
  5
59A
100
AcDbEntity
  8
0
100
AcDbCircle
 62
9
  6
CONTINUOUS
 10
-731.9811060188
 20
260.0429430472
 40
8.0581916366
100
AcDbArc
 50
183.7493067346
 51
184.5876603111
  0
ARC
  5
59B
100
AcDbEntity
  8
0
100
AcDbCircle
 62
9
  6
CONTINUOUS
 10
-730.0645198068
 20
262.2531671354
 40
8.0075100601
100
AcDbArc
 50
227.614387829
 51
229.5483350595
  0
ARC
  5
59C
100
AcDbEntity
  8
0
100
AcDbCircle
 62
9
  6
CONTINUOUS
 10
-732.0545591136
 20
259.9810750313
 40
7.9597278954
100
AcDbArc
 50
227.9552416053
 51
229.9000769937
  0
ARC
  5
59D
100
AcDbEntity
  8
0
100
AcDbCircle
 62
7
  6
CONTINUOUS
 10
-737.0392988231
 20
271.011473724
 40
3.0000000693
100
AcDbArc
 50
90.0000004485
 51
179.9999919413
  0
ARC
  5
59E
100
AcDbEntity
  8
0
100
AcDbCircle
 62
9
  6
CONTINUOUS
 10
-675.0392988783
 20
192.0114737758
 40
5.0
100
AcDbArc
 50
270.0
 51
360.0
  0
ARC
  5
59F
100
AcDbEntity
  8
0
100
AcDbCircle
 62
7
  6
CONTINUOUS
 10
-675.0392988783
 20
192.0114737758
 40
3.0
100
AcDbArc
 50
270.0
 51
360.0
  0
ARC
  5
5A0
100
AcDbEntity
  8
0
100
AcDbCircle
 62
7
  6
CONTINUOUS
 10
-675.0477743951
 20
271.0103100824
 40
3.0085530896
100
AcDbArc
 50
8.9991394987
 51
9.5433290826
  0
ARC
  5
5A1
100
AcDbEntity
  8
0
100
AcDbCircle
 62
7
  6
CONTINUOUS
 10
-675.0400213789
 20
271.0114161386
 40
3.0007225012
100
AcDbArc
 50
0.0011005245
 51
9.0014361727
  0
ARC
  5
5A2
100
AcDbEntity
  8
0
100
AcDbCircle
 62
7
  6
CONTINUOUS
 10
-675.039374277
 20
271.0109763701
 40
3.0005013524
100
AcDbArc
 50
80.4122201983
 51
86.0859102689
  0
ARC
  5
5A3
100
AcDbEntity
  8
0
100
AcDbCircle
 62
7
  6
CONTINUOUS
 10
-658.0392988783
 20
281.0114737758
 40
3.0
100
AcDbArc
 50
70.5287793655
 51
90.0
  0
ARC
  5
5A4
100
AcDbEntity
  8
0
100
AcDbCircle
 62
7
  6
CONTINUOUS
 10
-675.0392982867
 20
271.0114743674
 40
2.9999994084
100
AcDbArc
 50
359.9999887013
 51
90.0000112987
  0
ARC
  5
5A5
100
AcDbEntity
  8
0
100
AcDbCircle
 62
7
  6
CONTINUOUS
 10
-670.0392988783
 20
282.0114737758
 40
2.0
100
AcDbArc
 50
90.0
 51
180.0
  0
ARC
  5
5A6
100
AcDbEntity
  8
0
100
AcDbCircle
 62
7
  6
CONTINUOUS
 10
-774.5392988783
 20
374.0114737758
 40
20.0
100
AcDbArc
 50
0.0
 51
82.7759940652
  0
ARC
  5
5A7
100
AcDbEntity
  8
0
100
AcDbCircle
 62
7
  6
CONTINUOUS
 10
-757.5392988783
 20
419.0114737758
 40
3.0
100
AcDbArc
 50
0.0
 51
90.0
  0
ARC
  5
5A8
100
AcDbEntity
  8
0
100
AcDbCircle
 62
7
  6
CONTINUOUS
 10
-717.5392988783
 20
475.0114737758
 40
3.0
100
AcDbArc
 50
270.0
 51
360.0
  0
ARC
  5
5A9
100
AcDbEntity
  8
0
100
AcDbCircle
 62
7
  6
CONTINUOUS
 10
-764.5392988783
 20
424.0114737758
 40
2.0
100
AcDbArc
 50
180.0
 51
269.9999961185
  0
ARC
  5
5AA
100
AcDbEntity
  8
0
100
AcDbCircle
 62
7
  6
CONTINUOUS
 10
-764.5392988783
 20
470.0114737758
 40
2.0
100
AcDbArc
 50
90.0000039194
 51
180.0
  0
ARC
  5
5AB
100
AcDbEntity
  8
0
100
AcDbCircle
 62
9
  6
CONTINUOUS
 10
-757.0499527867
 20
8102.0161875915
 40
7925.7788133648
100
AcDbArc
 50
270.1436292879
 51
270.3730976105
  0
ARC
  5
5AC
100
AcDbEntity
  8
0
100
AcDbCircle
 62
7
  6
CONTINUOUS
 10
-259.0392988783
 20
285.7272255007
 40
20.0
100
AcDbArc
 50
359.999999797
 51
44.999994135
  0
ARC
  5
5AD
100
AcDbEntity
  8
0
100
AcDbCircle
 62
7
  6
CONTINUOUS
 10
-267.3235455107
 20
294.0114737758
 40
20.0
100
AcDbArc
 50
44.9999943643
 51
90.0
  0
ARC
  5
5AE
100
AcDbEntity
  8
3_ALL_AXES
100
AcDbCircle
 62
7
  6
CONTINUOUS
 10
1912.5920374988
 20
136.1760447301
 40
5.5
100
AcDbArc
 50
172.2140392775
 51
230.4968713939
  0
ARC
  5
5AF
100
AcDbEntity
  8
3_ALL_AXES
100
AcDbCircle
 62
7
  6
CONTINUOUS
 10
1912.5920374988
 20
231.8469028214
 40
5.5
100
AcDbArc
 50
129.3846007652
 51
188.403464439
  0
ARC
  5
5B0
100
AcDbEntity
  8
0
100
AcDbCircle
 62
7
  6
CONTINUOUS
 10
1967.0769790627
 20
379.0114737758
 40
15.0
100
AcDbArc
 50
89.9999896628
 51
108.4754718889
  0
ARC
  5
5B1
100
AcDbEntity
  8
0
100
AcDbCircle
 62
7
  6
CONTINUOUS
 10
1964.0769790627
 20
382.0114737758
 40
12.0
100
AcDbArc
 50
90.0
 51
131.3611017228
  0
ARC
  5
5B2
100
AcDbEntity
  8
0
100
AcDbCircle
 62
7
  6
CONTINUOUS
 10
1849.0769790627
 20
419.0114737758
 40
3.0
100
AcDbArc
 50
90.0
 51
180.0
  0
ARC
  5
5B3
100
AcDbEntity
  8
0
100
AcDbCircle
 62
7
  6
CONTINUOUS
 10
1963.0769790627
 20
419.0114737758
 40
3.0
100
AcDbArc
 50
0.0
 51
90.0
  0
ARC
  5
5B4
100
AcDbEntity
  8
0
100
AcDbCircle
 62
7
  6
CONTINUOUS
 10
1809.0769790627
 20
475.0114737758
 40
3.0
100
AcDbArc
 50
180.0
 51
270.0
  0
ARC
  5
5B5
100
AcDbEntity
  8
0
100
AcDbCircle
 62
7
  6
CONTINUOUS
 10
1856.0769790627
 20
470.0114737758
 40
2.0
100
AcDbArc
 50
0.0
 51
90.0
  0
ARC
  5
5B6
100
AcDbEntity
  8
0
100
AcDbCircle
 62
7
  6
CONTINUOUS
 10
1956.0769790627
 20
470.0114737758
 40
2.0
100
AcDbArc
 50
90.0
 51
180.0
  0
ARC
  5
5B7
100
AcDbEntity
  8
0
100
AcDbCircle
 62
7
  6
CONTINUOUS
 10
1856.0769790627
 20
424.0114737758
 40
2.0
100
AcDbArc
 50
270.0
 51
360.0
  0
ARC
  5
5B8
100
AcDbEntity
  8
0
100
AcDbCircle
 62
7
  6
CONTINUOUS
 10
1956.0769790627
 20
424.0114737758
 40
2.0
100
AcDbArc
 50
180.0
 51
270.0
  0
ARC
  5
5B9
100
AcDbEntity
  8
0
100
AcDbCircle
 62
7
  6
CONTINUOUS
 10
2012.0769790627
 20
184.0114737758
 40
157.0
100
AcDbArc
 50
311.7627739363
 51
360.0
  0
ARC
  5
5BA
100
AcDbEntity
  8
0
100
AcDbCircle
 62
7
  6
CONTINUOUS
 10
2012.0769790627
 20
184.0114737758
 40
157.0
100
AcDbArc
 50
180.0
 51
228.2372260637
  0
ARC
  5
5BB
100
AcDbEntity
  8
0
100
AcDbCircle
 62
9
  6
CONTINUOUS
 10
2012.0769790627
 20
184.0114737758
 40
136.9999998838
100
AcDbArc
 50
180.0
 51
238.6666095043
  0
ARC
  5
5BC
100
AcDbEntity
  8
0
100
AcDbCircle
 62
7
  6
CONTINUOUS
 10
2028.0769790627
 20
184.0114737758
 40
135.0
100
AcDbArc
 50
121.2455795379
 51
240.133964357
  0
ARC
  5
5BD
100
AcDbEntity
  8
0
100
AcDbCircle
 62
7
  6
CONTINUOUS
 10
2028.0769790627
 20
184.0114737758
 40
135.0
100
AcDbArc
 50
299.866035643
 51
58.7544204621
  0
ARC
  5
5BE
100
AcDbEntity
  8
0
100
AcDbCircle
 62
9
  6
CONTINUOUS
 10
2028.0769790627
 20
184.0114737758
 40
133.0
100
AcDbArc
 50
121.7616627414
 51
241.6280456692
  0
ARC
  5
5BF
100
AcDbEntity
  8
0
100
AcDbCircle
 62
9
  6
CONTINUOUS
 10
2028.0769790627
 20
184.0114737758
 40
133.0
100
AcDbArc
 50
298.3719542882
 51
58.2383372421
  0
CIRCLE
  5
5C0
100
AcDbEntity
  8
0
100
AcDbCircle
 62
7
  6
CONTINUOUS
 10
2028.0769790627
 20
184.0114737758
 40
130.0
  0
CIRCLE
  5
5C1
100
AcDbEntity
  8
0
100
AcDbCircle
 62
9
  6
CONTINUOUS
 10
2028.0769790627
 20
184.0114737758
 40
124.142132737
  0
CIRCLE
  5
5C2
100
AcDbEntity
  8
0
100
AcDbCircle
 62
9
  6
CONTINUOUS
 10
2028.0769790627
 20
184.0114737758
 40
115.8578858013
  0
CIRCLE
  5
5C3
100
AcDbEntity
  8
0
100
AcDbCircle
 62
9
  6
CONTINUOUS
 10
2028.0769790627
 20
184.0114737758
 40
101.7157515143
  0
ARC
  5
5C4
100
AcDbEntity
  8
0
100
AcDbCircle
 62
7
  6
CONTINUOUS
 10
2012.0769790627
 20
244.3303689392
 40
157.0
100
AcDbArc
 50
0.0
 51
71.5243775882
  0
ARC
  5
5C5
100
AcDbEntity
  8
0
100
AcDbCircle
 62
7
  6
CONTINUOUS
 10
2012.0769790627
 20
244.3303689392
 40
157.0
100
AcDbArc
 50
154.5727206154
 51
180.0
  0
ARC
  5
5C6
100
AcDbEntity
  8
0
100
AcDbCircle
 62
7
  6
CONTINUOUS
 10
2012.0769790627
 20
244.3303689392
 40
157.0
100
AcDbArc
 50
108.4756224134
 51
116.5633797612
  0
ARC
  5
5C7
100
AcDbEntity
  8
0
100
AcDbCircle
 62
7
  6
CONTINUOUS
 10
2012.0769790627
 20
244.3303689392
 40
156.843134833
100
AcDbArc
 50
120.033089899
 51
148.3390349033
  0
ARC
  5
5C8
100
AcDbEntity
  8
0
100
AcDbCircle
 62
9
  6
CONTINUOUS
 10
2012.0769790627
 20
244.3303689392
 40
137.0
100
AcDbArc
 50
108.8127102885
 51
180.0
  0
ARC
  5
5C9
100
AcDbEntity
  8
0
100
AcDbCircle
 62
9
  6
CONTINUOUS
 10
2012.0769790627
 20
244.3303689392
 40
137.0
100
AcDbArc
 50
0.0
 51
51.0818109014
  0
ARC
  5
5CA
100
AcDbEntity
  8
0
100
AcDbCircle
 62
9
  6
CONTINUOUS
 10
2012.0769790627
 20
244.3303689392
 40
137.0
100
AcDbArc
 50
60.9434271554
 51
71.1872886223
  0
ARC
  5
5CB
100
AcDbEntity
  8
3_ALL_AXES
100
AcDbCircle
 62
7
  6
CONTINUOUS
 10
2143.5619206267
 20
136.1760447301
 40
5.5
100
AcDbArc
 50
309.3846007652
 51
8.4034644597
  0
ARC
  5
5CC
100
AcDbEntity
  8
3_ALL_AXES
100
AcDbCircle
 62
7
  6
CONTINUOUS
 10
2143.5619206267
 20
231.8469028214
 40
5.5
100
AcDbArc
 50
352.2140394306
 51
50.4968713939
  0
ARC
  5
5CD
100
AcDbEntity
  8
0
100
AcDbCircle
 62
7
  6
CONTINUOUS
 10
2012.0769790627
 20
334.0114737758
 40
100.0
100
AcDbArc
 50
48.6977564825
 51
118.5851839893
  0
ARC
  5
5CE
100
AcDbEntity
  8
0
100
AcDbCircle
 62
9
  6
CONTINUOUS
 10
2012.0769790627
 20
334.0114737758
 40
97.0
100
AcDbArc
 50
50.8052351684
 51
118.3686281931
  0
ARC
  5
5CF
100
AcDbEntity
  8
0
100
AcDbCircle
 62
9
  6
CONTINUOUS
 10
2056.9346257692
 20
380.0135276007
 40
17.9979466123
100
AcDbArc
 50
71.0123687797
 51
89.9873712097
  0
ARC
  5
5D0
100
AcDbEntity
  8
0
100
AcDbCircle
 62
7
  6
CONTINUOUS
 10
2057.0769790627
 20
379.0114737758
 40
15.0
100
AcDbArc
 50
71.5243616861
 51
90.000010339
  0
ARC
  5
5D1
100
AcDbEntity
  8
02___PRT_ALL_AXES
100
AcDbCircle
 62
7
  6
CONTINUOUS
 10
2042.691653652
 20
407.9218363767
 40
9.0
100
AcDbArc
 50
6.9918760128
 51
173.0070956778
  0
ARC
  5
5D2
100
AcDbEntity
  8
02___PRT_ALL_AXES
100
AcDbCircle
 62
7
  6
CONTINUOUS
 10
1981.4623044735
 20
407.9218363767
 40
9.0
100
AcDbArc
 50
7.0548039992
 51
308.8851248963
  0
ARC
  5
5D3
100
AcDbEntity
  8
0
100
AcDbCircle
 62
7
  6
CONTINUOUS
 10
2121.0768254633
 20
362.8210281767
 40
3.9999485365
100
AcDbArc
 50
180.0021957829
 51
202.7269368559
  0
ARC
  5
5D4
100
AcDbEntity
  8
0
100
AcDbCircle
 62
7
  6
CONTINUOUS
 10
2121.0768254633
 20
362.8210281767
 40
3.9999485365
100
AcDbArc
 50
203.3406513891
 51
227.3920001505
  0
ARC
  5
5D5
100
AcDbEntity
  8
0
100
AcDbCircle
 62
7
  6
CONTINUOUS
 10
1983.0771227693
 20
398.0114737758
 40
3.9999431807
100
AcDbArc
 50
269.9979415554
 51
360.0
  0
ARC
  5
5D6
100
AcDbEntity
  8
0
100
AcDbCircle
 62
7
  6
CONTINUOUS
 10
2003.0769790627
 20
475.0114737758
 40
3.0
100
AcDbArc
 50
270.0
 51
360.0
  0
ARC
  5
5D7
100
AcDbEntity
  8
0
100
AcDbCircle
 62
7
  6
CONTINUOUS
 10
732.9096017131
 20
-481.6127842183
 40
20.0
100
AcDbArc
 50
224.9999943197
 51
270.0
  0
ARC
  5
5D8
100
AcDbEntity
  8
0
100
AcDbCircle
 62
7
  6
CONTINUOUS
 10
724.6253550806
 20
-473.3285359433
 40
20.0
100
AcDbArc
 50
180.0
 51
224.9999943197
  0
ARC
  5
5D9
100
AcDbEntity
  8
0
100
AcDbCircle
 62
7
  6
CONTINUOUS
 10
732.9096017131
 20
-261.6127842183
 40
20.0
100
AcDbArc
 50
90.0
 51
135.0000056803
  0
ARC
  5
5DA
100
AcDbEntity
  8
0
100
AcDbCircle
 62
7
  6
CONTINUOUS
 10
724.6253550806
 20
-269.8970324934
 40
20.0
100
AcDbArc
 50
135.0000056803
 51
180.0
  0
ARC
  5
5DB
100
AcDbEntity
  8
0
100
AcDbCircle
 62
7
  6
CONTINUOUS
 10
1123.6253550806
 20
-468.6127842183
 40
3.0
100
AcDbArc
 50
250.5287793655
 51
270.0
  0
ARC
  5
5DC
100
AcDbEntity
  8
0
100
AcDbCircle
 62
7
  6
CONTINUOUS
 10
1135.6253550806
 20
-469.6127842183
 40
2.0
100
AcDbArc
 50
270.0
 51
360.0
  0
ARC
  5
5DD
100
AcDbEntity
  8
0
100
AcDbCircle
 62
7
  6
CONTINUOUS
 10
1240.1253550806
 20
-492.6127842183
 40
20.0
100
AcDbArc
 50
180.0
 51
270.0
  0
ARC
  5
5DE
100
AcDbEntity
  8
0
100
AcDbCircle
 62
7
  6
CONTINUOUS
 10
1210.6253550806
 20
-504.6127842183
 40
2.0
100
AcDbArc
 50
180.0
 51
270.0
  0
ARC
  5
5DF
100
AcDbEntity
  8
0
100
AcDbCircle
 62
9
  6
CONTINUOUS
 10
1197.591818142
 20
-448.3325717823
 40
8.0335369867
100
AcDbArc
 50
0.0062655027
 51
8.5826575895
  0
ARC
  5
5E0
100
AcDbEntity
  8
0
100
AcDbCircle
 62
9
  6
CONTINUOUS
 10
1197.6121505567
 20
-448.3292752787
 40
8.0129054238
100
AcDbArc
 50
8.5810468988
 51
49.9539524809
  0
ARC
  5
5E1
100
AcDbEntity
  8
0
100
AcDbCircle
 62
9
  6
CONTINUOUS
 10
1209.6253550806
 20
-454.2407695662
 40
7.0
100
AcDbArc
 50
180.0
 51
231.3178125465
  0
ARC
  5
5E2
100
AcDbEntity
  8
0
100
AcDbCircle
 62
7
  6
CONTINUOUS
 10
1204.6253550806
 20
-460.4857675646
 40
4.0
100
AcDbArc
 50
0.0
 51
51.3178125719
  0
ARC
  5
5E3
100
AcDbEntity
  8
0
100
AcDbCircle
 62
7
  6
CONTINUOUS
 10
1209.6253550806
 20
-454.2407695567
 40
4.0
100
AcDbArc
 50
180.0000000571
 51
231.3178126055
  0
ARC
  5
5E4
100
AcDbEntity
  8
0
100
AcDbCircle
 62
7
  6
CONTINUOUS
 10
1205.6253550806
 20
-474.6127842183
 40
3.0
100
AcDbArc
 50
0.0
 51
90.0
  0
ARC
  5
5E5
100
AcDbEntity
  8
0
100
AcDbCircle
 62
9
  6
CONTINUOUS
 10
1204.6253550806
 20
-460.4857675646
 40
1.0
100
AcDbArc
 50
0.0
 51
51.3178125465
  0
ARC
  5
5E6
100
AcDbEntity
  8
0
100
AcDbCircle
 62
9
  6
CONTINUOUS
 10
1225.1763630146
 20
-396.7252868192
 40
88.9475606665
100
AcDbArc
 50
354.4250751275
 51
357.4950615374
  0
ARC
  5
5E7
100
AcDbEntity
  8
0
100
AcDbCircle
 62
9
  6
CONTINUOUS
 10
1165.8818240101
 20
-421.4365738737
 40
7.9859094114
100
AcDbArc
 50
49.9031399537
 51
89.9906217986
  0
ARC
  5
5E8
100
AcDbEntity
  8
0
100
AcDbCircle
 62
2
  6
CONTINUOUS
 10
1146.1253550806
 20
-371.6127842183
 40
6.6
100
AcDbArc
 50
255.0
 51
195.0
  0
CIRCLE
  5
5E9
100
AcDbEntity
  8
3_ALL_AXES
100
AcDbCircle
 62
7
  6
CONTINUOUS
 10
1146.1253550806
 20
-371.6127842183
 40
5.875
  0
ARC
  5
5EA
100
AcDbEntity
  8
0
100
AcDbCircle
 62
9
  6
CONTINUOUS
 10
1140.6253550806
 20
-414.6127842183
 40
5.0
100
AcDbArc
 50
90.0
 51
180.0
  0
ARC
  5
5EB
100
AcDbEntity
  8
0
100
AcDbCircle
 62
7
  6
CONTINUOUS
 10
1204.6253550806
 20
-415.6127842183
 40
4.0
100
AcDbArc
 50
0.0
 51
90.0
  0
CIRCLE
  5
5EC
100
AcDbEntity
  8
3_ALL_AXES
100
AcDbCircle
 62
7
  6
CONTINUOUS
 10
1146.1253550806
 20
-371.6127842183
 40
3.0
  0
ARC
  5
5ED
100
AcDbEntity
  8
0
100
AcDbCircle
 62
7
  6
CONTINUOUS
 10
1140.6253550806
 20
-414.6127842183
 40
3.0
100
AcDbArc
 50
90.0
 51
180.0
  0
ARC
  5
5EE
100
AcDbEntity
  8
0
100
AcDbCircle
 62
9
  6
CONTINUOUS
 10
1208.2805476309
 20
-410.2207339677
 40
2.6692627896
100
AcDbArc
 50
229.5005707199
 51
238.4838985372
  0
ARC
  5
5EF
100
AcDbEntity
  8
0
100
AcDbCircle
 62
9
  6
CONTINUOUS
 10
1208.2622079456
 20
-410.243257394
 40
2.6402252503
100
AcDbArc
 50
228.7788664411
 51
229.4857727435
  0
ARC
  5
5F0
100
AcDbEntity
  8
0
100
AcDbCircle
 62
9
  6
CONTINUOUS
 10
1208.2594589696
 20
-410.24648502
 40
2.6359860371
100
AcDbArc
 50
221.4000896357
 51
228.777579749
  0
ARC
  5
5F1
100
AcDbEntity
  8
0
100
AcDbCircle
 62
9
  6
CONTINUOUS
 10
1208.2512463497
 20
-410.2541213795
 40
2.6247756611
100
AcDbArc
 50
220.8356643326
 51
221.393606535
  0
ARC
  5
5F2
100
AcDbEntity
  8
0
100
AcDbCircle
 62
9
  6
CONTINUOUS
 10
1206.3560616916
 20
-412.6496719371
 40
0.5674494643
100
AcDbArc
 50
47.7642369325
 51
51.2454361041
  0
ARC
  5
5F3
100
AcDbEntity
  8
0
100
AcDbCircle
 62
7
  6
CONTINUOUS
 10
1410.1253550806
 20
-492.6127842183
 40
20.0
100
AcDbArc
 50
270.0
 51
360.0
  0
ARC
  5
5F4
100
AcDbEntity
  8
0
100
AcDbCircle
 62
7
  6
CONTINUOUS
 10
1328.1253550806
 20
-504.6127842183
 40
12.0
100
AcDbArc
 50
270.0
 51
317.9289321853
  0
ARC
  5
5F5
100
AcDbEntity
  8
0
100
AcDbCircle
 62
9
  6
CONTINUOUS
 10
1328.1253550806
 20
-504.6127842183
 40
9.0
100
AcDbArc
 50
270.0
 51
296.5842713611
  0
ARC
  5
5F6
100
AcDbEntity
  8
0
100
AcDbCircle
 62
7
  6
CONTINUOUS
 10
1434.1253550806
 20
-449.6127842183
 40
4.0
100
AcDbArc
 50
90.0
 51
180.0
  0
ARC
  5
5F7
100
AcDbEntity
  8
0
100
AcDbCircle
 62
7
  6
CONTINUOUS
 10
1506.1253550806
 20
-452.6127842183
 40
3.0
100
AcDbArc
 50
180.0
 51
270.0
  0
ARC
  5
5F8
100
AcDbEntity
  8
0
100
AcDbCircle
 62
9
  6
CONTINUOUS
 10
1335.5128505124
 20
-396.6943165572
 40
89.3869993703
100
AcDbArc
 50
182.5124864916
 51
185.5673768434
  0
ARC
  5
5F9
100
AcDbEntity
  8
0
100
AcDbCircle
 62
7
  6
CONTINUOUS
 10
1450.1253550806
 20
-412.6127842183
 40
3.0
100
AcDbArc
 50
270.0
 51
360.0
  0
ARC
  5
5FA
100
AcDbEntity
  8
0
100
AcDbCircle
 62
7
  6
CONTINUOUS
 10
1501.1253550806
 20
-405.6127842183
 40
2.0
100
AcDbArc
 50
0.0
 51
90.0
  0
ARC
  5
5FB
100
AcDbEntity
  8
0
100
AcDbCircle
 62
7
  6
CONTINUOUS
 10
1455.1253550806
 20
-405.6127842183
 40
2.0
100
AcDbArc
 50
90.0
 51
180.0
  0
ARC
  5
5FC
100
AcDbEntity
  8
0
100
AcDbCircle
 62
9
  6
CONTINUOUS
 10
1165.8818240398
 20
-321.7889946442
 40
7.9859094111
100
AcDbArc
 50
270.0093779881
 51
310.096860258
  0
ARC
  5
5FD
100
AcDbEntity
  8
0
100
AcDbCircle
 62
9
  6
CONTINUOUS
 10
1140.6253550806
 20
-328.6127842183
 40
5.0
100
AcDbArc
 50
180.0
 51
270.0
  0
ARC
  5
5FE
100
AcDbEntity
  8
0
100
AcDbCircle
 62
7
  6
CONTINUOUS
 10
1204.6253550806
 20
-327.6127842183
 40
4.0
100
AcDbArc
 50
270.0
 51
360.0
  0
ARC
  5
5FF
100
AcDbEntity
  8
0
100
AcDbCircle
 62
7
  6
CONTINUOUS
 10
1140.6253550806
 20
-328.6127842183
 40
3.0
100
AcDbArc
 50
180.0
 51
270.0
  0
ARC
  5
600
100
AcDbEntity
  8
0
100
AcDbCircle
 62
9
  6
CONTINUOUS
 10
1208.2736766347
 20
-332.9987182903
 40
2.660458396
100
AcDbArc
 50
121.4588113029
 51
130.4699096226
  0
ARC
  5
601
100
AcDbEntity
  8
0
100
AcDbCircle
 62
9
  6
CONTINUOUS
 10
1208.2560135976
 20
-332.9769962161
 40
2.6324693081
100
AcDbArc
 50
130.4843089496
 51
131.1883229151
  0
ARC
  5
602
100
AcDbEntity
  8
0
100
AcDbCircle
 62
9
  6
CONTINUOUS
 10
1208.2539584224
 20
-332.9745252154
 40
2.6292563529
100
AcDbArc
 50
131.1900798185
 51
138.6155755876
  0
ARC
  5
603
100
AcDbEntity
  8
0
100
AcDbCircle
 62
9
  6
CONTINUOUS
 10
1208.2464405662
 20
-332.9675256113
 40
2.6189882958
100
AcDbArc
 50
138.6217367018
 51
139.1821757996
  0
ARC
  5
604
100
AcDbEntity
  8
0
100
AcDbCircle
 62
9
  6
CONTINUOUS
 10
1206.3606209837
 20
-330.5808769555
 40
0.5607645243
100
AcDbArc
 50
309.0171425934
 51
312.2939938131
  0
CIRCLE
  5
605
100
AcDbEntity
  8
02___PRT_ALL_AXES
100
AcDbCircle
 62
7
  6
CONTINUOUS
 10
1206.2149924797
 20
-280.2274588076
 40
9.0
  0
ARC
  5
606
100
AcDbEntity
  8
0
100
AcDbCircle
 62
9
  6
CONTINUOUS
 10
1209.6253550806
 20
-288.9847988705
 40
7.0
100
AcDbArc
 50
128.6821874535
 51
175.8293177631
  0
ARC
  5
607
100
AcDbEntity
  8
0
100
AcDbCircle
 62
7
  6
CONTINUOUS
 10
1204.6253550806
 20
-282.7398008721
 40
4.0
100
AcDbArc
 50
308.6821874535
 51
360.0
  0
ARC
  5
608
100
AcDbEntity
  8
0
100
AcDbCircle
 62
7
  6
CONTINUOUS
 10
1209.6253550806
 20
-288.9847988705
 40
4.0
100
AcDbArc
 50
128.6821874788
 51
180.0000000771
  0
ARC
  5
609
100
AcDbEntity
  8
0
100
AcDbCircle
 62
7
  6
CONTINUOUS
 10
1205.6253550806
 20
-268.6127842183
 40
3.0
100
AcDbArc
 50
270.0
 51
295.1553908296
  0
ARC
  5
60A
100
AcDbEntity
  8
0
100
AcDbCircle
 62
7
  6
CONTINUOUS
 10
1123.6253550806
 20
-274.6127842183
 40
3.0
100
AcDbArc
 50
90.0
 51
109.4712206345
  0
ARC
  5
60B
100
AcDbEntity
  8
0
100
AcDbCircle
 62
7
  6
CONTINUOUS
 10
1135.6253550806
 20
-273.6127842183
 40
2.0
100
AcDbArc
 50
0.0
 51
90.0
  0
ARC
  5
60C
100
AcDbEntity
  8
0
100
AcDbCircle
 62
9
  6
CONTINUOUS
 10
1204.6253550806
 20
-282.7398008721
 40
1.0
100
AcDbArc
 50
308.6821874535
 51
360.0
  0
CIRCLE
  5
60D
100
AcDbEntity
  8
02___PRT_ALL_AXES
100
AcDbCircle
 62
7
  6
CONTINUOUS
 10
1249.5106804914
 20
-323.5231468192
 40
9.0
  0
CIRCLE
  5
60E
100
AcDbEntity
  8
02___PRT_ALL_AXES
100
AcDbCircle
 62
7
  6
CONTINUOUS
 10
1310.7400296699
 20
-323.5231468192
 40
9.0
  0
CIRCLE
  5
60F
100
AcDbEntity
  8
02___PRT_ALL_AXES
100
AcDbCircle
 62
7
  6
CONTINUOUS
 10
1280.1253550806
 20
-249.6127842183
 40
100.0
  0
CIRCLE
  5
610
100
AcDbEntity
  8
0
100
AcDbCircle
 62
7
  6
CONTINUOUS
 10
1280.1253550806
 20
-249.6127842183
 40
40.0
  0
CIRCLE
  5
611
100
AcDbEntity
  8
02___PRT_ALL_AXES
100
AcDbCircle
 62
7
  6
CONTINUOUS
 10
1310.7400296699
 20
-175.7024216174
 40
9.0
  0
CIRCLE
  5
612
100
AcDbEntity
  8
02___PRT_ALL_AXES
100
AcDbCircle
 62
7
  6
CONTINUOUS
 10
1249.5106804914
 20
-175.7024216174
 40
9.0
  0
CIRCLE
  5
613
100
AcDbEntity
  8
02___PRT_ALL_AXES
100
AcDbCircle
 62
7
  6
CONTINUOUS
 10
1206.2149924797
 20
-218.9981096291
 40
9.0
  0
CIRCLE
  5
614
100
AcDbEntity
  8
02___PRT_ALL_AXES
100
AcDbCircle
 62
7
  6
CONTINUOUS
 10
1354.0357176815
 20
-280.2274588076
 40
9.0
  0
ARC
  5
615
100
AcDbEntity
  8
0
100
AcDbCircle
 62
7
  6
CONTINUOUS
 10
1434.1253550806
 20
-261.6127842183
 40
4.0
100
AcDbArc
 50
180.0
 51
270.0
  0
ARC
  5
616
100
AcDbEntity
  8
0
100
AcDbCircle
 62
7
  6
CONTINUOUS
 10
1450.1253550806
 20
-298.6127842183
 40
3.0
100
AcDbArc
 50
0.0
 51
90.0
  0
ARC
  5
617
100
AcDbEntity
  8
0
100
AcDbCircle
 62
7
  6
CONTINUOUS
 10
1506.1253550806
 20
-258.6127842183
 40
3.0
100
AcDbArc
 50
90.0
 51
180.0
  0
ARC
  5
618
100
AcDbEntity
  8
0
100
AcDbCircle
 62
7
  6
CONTINUOUS
 10
1501.1253550806
 20
-305.6127842183
 40
2.0
100
AcDbArc
 50
270.0
 51
360.0
  0
ARC
  5
619
100
AcDbEntity
  8
0
100
AcDbCircle
 62
7
  6
CONTINUOUS
 10
1455.1253550806
 20
-305.6127842183
 40
2.0
100
AcDbArc
 50
180.0
 51
270.0
  0
ARC
  5
61A
100
AcDbEntity
  8
0
100
AcDbCircle
 62
7
  6
CONTINUOUS
 10
1410.1253550806
 20
-218.6127842183
 40
20.0
100
AcDbArc
 50
0.0
 51
90.0
  0
CIRCLE
  5
61B
100
AcDbEntity
  8
02___PRT_ALL_AXES
100
AcDbCircle
 62
7
  6
CONTINUOUS
 10
1354.0357176815
 20
-218.9981096291
 40
9.0
  0
ARC
  5
61C
100
AcDbEntity
  8
0
100
AcDbCircle
 62
9
  6
CONTINUOUS
 10
7780.619520671
 20
-8105.6416005995
 40
10206.8619571772
100
AcDbArc
 50
130.1642429739
 51
130.3581720028
  0
ARC
  5
61D
100
AcDbEntity
  8
0
100
AcDbCircle
 62
9
  6
CONTINUOUS
 10
7025.595777162
 20
-7208.3903354856
 40
9037.1961812386
100
AcDbArc
 50
130.1726067055
 51
130.3942725822
  0
ARC
  5
61E
100
AcDbEntity
  8
0
100
AcDbCircle
 62
9
  6
CONTINUOUS
 10
8467.4930006065
 20
8172.7829870695
 40
11269.1651654704
100
AcDbArc
 50
229.6487373727
 51
229.8601753787
  0
ARC
  5
61F
100
AcDbEntity
  8
0
100
AcDbCircle
 62
9
  6
CONTINUOUS
 10
7619.440943973
 20
7165.1331027574
 40
9955.1319814412
100
AcDbArc
 50
229.6134155189
 51
229.8528378996
  0
SPLINE
  5
620
100
AcDbEntity
  8
0
100
AcDbSpline
 62
9
  6
CONTINUOUS
 70
0
 71
3
 72
13
 73
9
 74
0
 42
0.0000001
 43
0.0000001
 44
0.0000000001
 40
0.0
 40
0.0
 40
0.0
 40
0.0
 40
0.2962096918
 40
0.564508425
 40
0.685058441
 40
0.7963874635
 40
0.9002904343
 40
1.0
 40
1.0
 40
1.0
 40
1.0
 10
1171.025429988
 20
191.6175347398
 30
0.0
 10
1170.9956545674
 20
191.2708548325
 30
0.0
 10
1170.8641887783
 20
190.6139176235
 30
0.0
 10
1170.5034495561
 20
189.8796011525
 30
0.0
 10
1170.1141662766
 20
189.4351657018
 30
0.0
 10
1169.7972059651
 20
189.1949772732
 30
0.0
 10
1169.4545801259
 20
189.0456175044
 30
0.0
 10
1169.2141975789
 20
189.0114739234
 30
0.0
 10
1169.09706919
 20
189.0114737758
 30
0.0
  0
SPLINE
  5
621
100
AcDbEntity
  8
0
100
AcDbSpline
 62
9
  6
CONTINUOUS
 70
0
 71
3
 72
11
 73
7
 74
0
 42
0.0000001
 43
0.0000001
 44
0.0000000001
 40
0.0
 40
0.0
 40
0.0
 40
0.0
 40
0.2499922568
 40
0.4999916916
 40
0.7499953028
 40
1.0
 40
1.0
 40
1.0
 40
1.0
 10
1201.0485741008
 20
256.3386228617
 30
0.0
 10
1201.3083078493
 20
256.5854224192
 30
0.0
 10
1201.7762653767
 20
257.1365372212
 30
0.0
 10
1202.2877764967
 20
258.0906686957
 30
0.0
 10
1202.5891995862
 20
259.1304002983
 30
0.0
 10
1202.6415775766
 20
259.8513125802
 30
0.0
 10
1202.6299759839
 20
260.2094324225
 30
0.0
  0
SPLINE
  5
622
100
AcDbEntity
  8
0
100
AcDbSpline
 62
9
  6
CONTINUOUS
 70
0
 71
3
 72
10
 73
6
 74
0
 42
0.0000001
 43
0.0000001
 44
0.0000000001
 40
0.0
 40
0.0
 40
0.0
 40
0.0
 40
0.2499999497
 40
0.5000000093
 40
1.0
 40
1.0
 40
1.0
 40
1.0
 10
1169.4148702539
 20
229.11160205
 30
0.0
 10
1172.0177082586
 20
231.384579985
 30
0.0
 10
1177.2362106572
 20
235.9158561715
 30
0.0
 10
1187.7072134474
 20
244.9390335052
 30
0.0
 10
1195.5867648226
 20
251.6758187932
 30
0.0
 10
1200.8458992325
 20
256.159823721
 30
0.0
  0
SPLINE
  5
623
100
AcDbEntity
  8
0
100
AcDbSpline
 62
9
  6
CONTINUOUS
 70
0
 71
3
 72
11
 73
7
 74
0
 42
0.0000001
 43
0.0000001
 44
0.0000000001
 40
0.0
 40
0.0
 40
0.0
 40
0.0
 40
0.249986353
 40
0.4999790986
 40
0.7499828792
 40
1.0
 40
1.0
 40
1.0
 40
1.0
 10
1165.8831311416
 20
227.614799337
 30
0.0
 10
1166.1887368284
 20
227.6147992272
 30
0.0
 10
1166.8015315722
 20
227.6733152573
 30
0.0
 10
1167.6863919759
 20
227.9327539441
 30
0.0
 10
1168.5074410032
 20
228.3522224801
 30
0.0
 10
1168.9948694784
 20
228.7276413387
 30
0.0
 10
1169.2192559958
 20
228.9351708976
 30
0.0
  0
SPLINE
  5
624
100
AcDbEntity
  8
0
100
AcDbSpline
 62
9
  6
CONTINUOUS
 70
0
 71
3
 72
15
 73
11
 74
0
 42
0.0000001
 43
0.0000001
 44
0.0000000001
 40
0.0
 40
0.0
 40
0.0
 40
0.0
 40
0.125006382
 40
0.2500346131
 40
0.3750465783
 40
0.5000554918
 40
0.6250754523
 40
0.7500595886
 40
0.875032936
 40
1.0
 40
1.0
 40
1.0
 40
1.0
 10
1140.5764944481
 20
229.1965391478
 30
0.0
 10
1140.5433226549
 20
229.1101535744
 30
0.0
 10
1140.4971158847
 20
228.9288062362
 30
0.0
 10
1140.4944139879
 20
228.6486103858
 30
0.0
 10
1140.557627991
 20
228.3757312321
 30
0.0
 10
1140.6806568193
 20
228.1240186436
 30
0.0
 10
1140.8607264776
 20
227.909151489
 30
0.0
 10
1141.0868723698
 20
227.7434131145
 30
0.0
 10
1141.3469795129
 20
227.6387284457
 30
0.0
 10
1141.532848597
 20
227.6147997648
 30
0.0
 10
1141.6253550806
 20
227.614799337
 30
0.0
  0
SPLINE
  5
625
100
AcDbEntity
  8
0
100
AcDbSpline
 62
9
  6
CONTINUOUS
 70
0
 71
3
 72
9
 73
5
 74
0
 42
0.0000001
 43
0.0000001
 44
0.0000000001
 40
0.0
 40
0.0
 40
0.0
 40
0.0
 40
0.4996362299
 40
1.0
 40
1.0
 40
1.0
 40
1.0
 10
1140.6253550806
 20
229.4234765944
 30
0.0
 10
1140.6253555939
 20
229.384644452
 30
0.0
 10
1140.6153184605
 20
229.3067291479
 30
0.0
 10
1140.5904197169
 20
229.2328491588
 30
0.0
 10
1140.5764944481
 20
229.1965391478
 30
0.0
  0
LINE
  5
626
100
AcDbEntity
  8
0
100
AcDbLine
 62
9
  6
CONTINUOUS
 10
1171.0254320191
 20
226.6271748721
 11
1171.3280299545
 21
226.8902440354
  0
SPLINE
  5
627
100
AcDbEntity
  8
0
100
AcDbSpline
 62
9
  6
CONTINUOUS
 70
0
 71
3
 72
11
 73
7
 74
0
 42
0.0000001
 43
0.0000001
 44
0.0000000001
 40
0.0
 40
0.0
 40
0.0
 40
0.0
 40
0.2518297471
 40
0.5014044018
 40
0.7501893398
 40
1.0
 40
1.0
 40
1.0
 40
1.0
 10
1204.6253550806
 20
92.3178565357
 30
0.0
 10
1204.8914698654
 20
92.4523654414
 30
0.0
 10
1205.3797628231
 20
92.8077236642
 30
0.0
 10
1205.9443049995
 20
93.5024423172
 30
0.0
 10
1206.3577156685
 20
94.2911269855
 30
0.0
 10
1206.5467407464
 20
94.8527504462
 30
0.0
 10
1206.6231763704
 20
95.1384904296
 30
0.0
  0
SPLINE
  5
628
100
AcDbEntity
  8
0
100
AcDbSpline
 62
9
  6
CONTINUOUS
 70
0
 71
3
 72
11
 73
7
 74
0
 42
0.0000001
 43
0.0000001
 44
0.0000000001
 40
0.0
 40
0.0
 40
0.0
 40
0.0
 40
0.2498447431
 40
0.4986303534
 40
0.7481823148
 40
1.0
 40
1.0
 40
1.0
 40
1.0
 10
1206.6231765175
 20
272.884457122
 30
0.0
 10
1206.547336253
 20
273.1705098656
 30
0.0
 10
1206.359304281
 20
273.7327637898
 30
0.0
 10
1205.9464887481
 20
274.5222145063
 30
0.0
 10
1205.3812999681
 20
275.2169408103
 30
0.0
 10
1204.8919291492
 20
275.5712824621
 30
0.0
 10
1204.6253550806
 20
275.7050912555
 30
0.0
  0
SPLINE
  5
629
100
AcDbEntity
  8
0
100
AcDbSpline
 62
9
  6
CONTINUOUS
 70
0
 71
3
 72
26
 73
22
 74
0
 42
0.0000001
 43
0.0000001
 44
0.0000000001
 40
0.0
 40
0.0
 40
0.0
 40
0.0
 40
0.000262404
 40
0.0010504725
 40
0.0023654235
 40
0.0042082119
 40
0.0094803035
 40
0.0168706783
 40
0.0263800533
 40
0.0380059255
 40
0.0517425554
 40
0.0675809665
 40
0.1055109984
 40
0.1516598511
 40
0.20584038
 40
0.2678153495
 40
0.3372984684
 40
0.4139554088
 40
0.5872180932
 40
0.7840043199
 40
1.0
 40
1.0
 40
1.0
 40
1.0
 10
1207.1253455364
 20
269.7619504813
 30
0.0
 10
1207.1251696247
 20
269.7619856712
 30
0.0
 10
1207.1253685856
 20
269.7630321606
 30
0.0
 10
1207.1247218222
 20
269.7642868618
 30
0.0
 10
1207.1243868337
 20
269.7671212361
 30
0.0
 10
1207.1231716263
 20
269.7726638111
 30
0.0
 10
1207.1214012556
 20
269.7824908008
 30
0.0
 10
1207.1185931108
 20
269.7973530981
 30
0.0
 10
1207.1151359468
 20
269.8165595129
 30
0.0
 10
1207.1109868482
 20
269.8400317266
 30
0.0
 10
1207.1062109307
 20
269.8677933284
 30
0.0
 10
1207.0985687018
 20
269.9133065864
 30
0.0
 10
1207.0876820597
 20
269.9807448758
 30
0.0
 10
1207.0733134618
 20
270.0741704426
 30
0.0
 10
1207.0572360134
 20
270.1839626814
 30
0.0
 10
1207.0397263023
 20
270.3096650224
 30
0.0
 10
1207.0210687572
 20
270.4507190037
 30
0.0
 10
1206.9939271445
 20
270.667392259
 30
0.0
 10
1206.9592442947
 20
270.9708261218
 30
0.0
 10
1206.9195612651
 20
271.3695296434
 30
0.0
 10
1206.8961567855
 20
271.6507800452
 30
0.0
 10
1206.8852221223
 20
271.7980437716
 30
0.0
  0
SPLINE
  5
62A
100
AcDbEntity
  8
0
100
AcDbSpline
 62
9
  6
CONTINUOUS
 70
0
 71
3
 72
9
 73
5
 74
0
 42
0.0000001
 43
0.0000001
 44
0.0000000001
 40
0.0
 40
0.0
 40
0.0
 40
0.0
 40
0.2457070417
 40
1.0
 40
1.0
 40
1.0
 40
1.0
 10
1206.8852221223
 20
271.7980437716
 30
0.0
 10
1206.8784272207
 20
271.8895570925
 30
0.0
 10
1206.8372179676
 20
272.2607162389
 30
0.0
 10
1206.7365519103
 20
272.6265696726
 30
0.0
 10
1206.6231765082
 20
272.8844571443
 30
0.0
  0
SPLINE
  5
62B
100
AcDbEntity
  8
0
100
AcDbSpline
 62
9
  6
CONTINUOUS
 70
0
 71
3
 72
26
 73
22
 74
0
 42
0.0000001
 43
0.0000001
 44
0.0000000001
 40
0.0
 40
0.0
 40
0.0
 40
0.0
 40
0.2158186368
 40
0.4124940168
 40
0.5857231352
 40
0.6623897961
 40
0.7318971924
 40
0.7939078478
 40
0.8481319189
 40
0.8943283627
 40
0.9323060897
 40
0.9481671377
 40
0.9619249371
 40
0.9735700186
 40
0.9830961566
 40
0.9905003691
 40
0.9957829041
 40
0.9976294971
 40
0.998947234
 40
0.9997370134
 40
1.0
 40
1.0
 40
1.0
 40
1.0
 10
1206.8852220138
 20
96.2249038477
 30
0.0
 10
1206.8966070211
 20
96.3720045412
 30
0.0
 10
1206.9206784967
 20
96.6529841851
 30
0.0
 10
1206.9608124993
 20
97.0513992012
 30
0.0
 10
1206.9955154539
 20
97.3547208975
 30
0.0
 10
1207.0225149758
 20
97.5714008576
 30
0.0
 10
1207.0410208436
 20
97.7125154399
 30
0.0
 10
1207.0583436008
 20
97.8383084927
 30
0.0
 10
1207.0742142507
 20
97.9482126169
 30
0.0
 10
1207.088370768
 20
98.0417616122
 30
0.0
 10
1207.0990781376
 20
98.1093066208
 30
0.0
 10
1207.1065854012
 20
98.1549033689
 30
0.0
 10
1207.1112738476
 20
98.1827220637
 30
0.0
 10
1207.1153443243
 20
98.2062465794
 30
0.0
 10
1207.118733321
 20
98.2254983569
 30
0.0
 10
1207.1214855518
 20
98.2403997336
 30
0.0
 10
1207.1232170989
 20
98.2502508363
 30
0.0
 10
1207.1244090738
 20
98.2558124051
 30
0.0
 10
1207.124732399
 20
98.258649843
 30
0.0
 10
1207.1253729803
 20
98.2599177613
 30
0.0
 10
1207.1251700977
 20
98.2609577689
 30
0.0
 10
1207.1253455355
 20
98.260997071
 30
0.0
  0
SPLINE
  5
62C
100
AcDbEntity
  8
0
100
AcDbSpline
 62
9
  6
CONTINUOUS
 70
0
 71
3
 72
9
 73
5
 74
0
 42
0.0000001
 43
0.0000001
 44
0.0000000001
 40
0.0
 40
0.0
 40
0.0
 40
0.0
 40
0.2545525327
 40
1.0
 40
1.0
 40
1.0
 40
1.0
 10
1206.6231763638
 20
95.1384904139
 30
0.0
 10
1206.6617398617
 20
95.2254233554
 30
0.0
 10
1206.7954929061
 20
95.5747916082
 30
0.0
 10
1206.8637317231
 20
95.9472302309
 30
0.0
 10
1206.8852220138
 20
96.2249038477
 30
0.0
  0
LINE
  5
62D
100
AcDbEntity
  8
0
100
AcDbLine
 62
9
  6
CONTINUOUS
 10
1171.3280299545
 20
141.1327035162
 11
1171.0254320191
 21
141.3957726912
  0
SPLINE
  5
62E
100
AcDbEntity
  8
0
100
AcDbSpline
 62
9
  6
CONTINUOUS
 70
0
 71
3
 72
13
 73
9
 74
0
 42
0.0000001
 43
0.0000001
 44
0.0000000001
 40
0.0
 40
0.0
 40
0.0
 40
0.0
 40
0.1325627091
 40
0.2266627795
 40
0.3419355428
 40
0.4782948565
 40
0.634644537
 40
1.0
 40
1.0
 40
1.0
 40
1.0
 10
1205.6253550806
 20
97.0114737758
 30
0.0
 10
1205.6253550806
 20
96.9436465075
 30
0.0
 10
1205.6928774
 20
96.8338539812
 30
0.0
 10
1205.8212830586
 20
96.7183806186
 30
0.0
 10
1205.9679081804
 20
96.6172363996
 30
0.0
 10
1206.1505014467
 20
96.516168165
 30
0.0
 10
1206.4560832711
 20
96.3740471516
 30
0.0
 10
1206.7074379159
 20
96.2826860791
 30
0.0
 10
1206.8852220138
 20
96.2249038477
 30
0.0
  0
SPLINE
  5
62F
100
AcDbEntity
  8
0
100
AcDbSpline
 62
9
  6
CONTINUOUS
 70
0
 71
3
 72
9
 73
5
 74
0
 42
0.0000001
 43
0.0000001
 44
0.0000000001
 40
0.0
 40
0.0
 40
0.0
 40
0.0
 40
0.5003743843
 40
1.0
 40
1.0
 40
1.0
 40
1.0
 10
1140.5764944481
 20
138.8264084037
 30
0.0
 10
1140.5904289857
 20
138.7901009249
 30
0.0
 10
1140.6153225942
 20
138.7162176119
 30
0.0
 10
1140.6253550658
 20
138.6383024053
 30
0.0
 10
1140.6253550806
 20
138.5994709571
 30
0.0
  0
SPLINE
  5
630
100
AcDbEntity
  8
0
100
AcDbSpline
 62
9
  6
CONTINUOUS
 70
0
 71
3
 72
15
 73
11
 74
0
 42
0.0000001
 43
0.0000001
 44
0.0000000001
 40
0.0
 40
0.0
 40
0.0
 40
0.0
 40
0.1249672695
 40
0.2499407784
 40
0.374924957
 40
0.4999450458
 40
0.6249539309
 40
0.749965811
 40
0.874993857
 40
1.0
 40
1.0
 40
1.0
 40
1.0
 10
1141.6253550806
 20
140.4081482145
 30
0.0
 10
1141.5328484309
 20
140.40814782
 30
0.0
 10
1141.3469790659
 20
140.3842189658
 30
0.0
 10
1141.0868715593
 20
140.2795341665
 30
0.0
 10
1140.8607257755
 20
140.1137952862
 30
0.0
 10
1140.6806550178
 20
139.8989289155
 30
0.0
 10
1140.5576284516
 20
139.6472141727
 30
0.0
 10
1140.4944153368
 20
139.3743383041
 30
0.0
 10
1140.4971013986
 20
139.0941347939
 30
0.0
 10
1140.5433572129
 20
138.9128070649
 30
0.0
 10
1140.5764944481
 20
138.8264084037
 30
0.0
  0
SPLINE
  5
631
100
AcDbEntity
  8
0
100
AcDbSpline
 62
9
  6
CONTINUOUS
 70
0
 71
3
 72
11
 73
7
 74
0
 42
0.0000001
 43
0.0000001
 44
0.0000000001
 40
0.0
 40
0.0
 40
0.0
 40
0.0
 40
0.2500171156
 40
0.5000209093
 40
0.7500136561
 40
1.0
 40
1.0
 40
1.0
 40
1.0
 10
1169.2192530003
 20
139.0877789985
 30
0.0
 10
1168.994868496
 20
139.2953102649
 30
0.0
 10
1168.5074387205
 20
139.6707272011
 30
0.0
 10
1167.6863899588
 20
140.0901933957
 30
0.0
 10
1166.8015306635
 20
140.34963255
 30
0.0
 10
1166.1887365053
 20
140.4081483201
 30
0.0
 10
1165.8831311416
 20
140.4081482145
 30
0.0
  0
SPLINE
  5
632
100
AcDbEntity
  8
0
100
AcDbSpline
 62
9
  6
CONTINUOUS
 70
0
 71
3
 72
10
 73
6
 74
0
 42
0.0000001
 43
0.0000001
 44
0.0000000001
 40
0.0
 40
0.0
 40
0.0
 40
0.0
 40
0.4999999908
 40
0.7500000501
 40
1.0
 40
1.0
 40
1.0
 40
1.0
 10
1200.8458992583
 20
111.8631238086
 30
0.0
 10
1195.5867650576
 20
116.3471289928
 30
0.0
 10
1187.7072134188
 20
123.0839139812
 30
0.0
 10
1177.2362106701
 20
132.1070913809
 30
0.0
 10
1172.0177082483
 20
136.6383675469
 30
0.0
 10
1169.4148702539
 20
138.9113455015
 30
0.0
  0
SPLINE
  5
633
100
AcDbEntity
  8
0
100
AcDbSpline
 62
9
  6
CONTINUOUS
 70
0
 71
3
 72
13
 73
9
 74
0
 42
0.0000001
 43
0.0000001
 44
0.0000000001
 40
0.0
 40
0.0
 40
0.0
 40
0.0
 40
0.2962097236
 40
0.5645084469
 40
0.6850584478
 40
0.7963874562
 40
0.9002904222
 40
1.0
 40
1.0
 40
1.0
 40
1.0
 10
1171.025432014
 20
176.4054132256
 30
0.0
 10
1170.9956565501
 20
176.7520933159
 30
0.0
 10
1170.8641905842
 20
177.409030821
 30
0.0
 10
1170.5034508757
 20
178.1433474829
 30
0.0
 10
1170.1141671379
 20
178.5877828158
 30
0.0
 10
1169.7972064974
 20
178.8279710349
 30
0.0
 10
1169.4545803464
 20
178.9773304821
 30
0.0
 10
1169.2141976431
 20
179.0114737763
 30
0.0
 10
1169.09706919
 20
179.0114737769
 30
0.0
  0
SPLINE
  5
634
100
AcDbEntity
  8
0
100
AcDbSpline
 62
9
  6
CONTINUOUS
 70
0
 71
3
 72
13
 73
9
 74
0
 42
0.0000001
 43
0.0000001
 44
0.0000000001
 40
0.0
 40
0.0
 40
0.0
 40
0.0
 40
0.2966487467
 40
0.5661206587
 40
0.6869145348
 40
0.7980339789
 40
0.901263824
 40
1.0
 40
1.0
 40
1.0
 40
1.0
 10
1202.7676538025
 20
176.2622769925
 30
0.0
 10
1202.7480978065
 20
176.623649098
 30
0.0
 10
1202.6309073588
 20
177.3117064976
 30
0.0
 10
1202.2760035752
 20
178.0864678048
 30
0.0
 10
1201.8822429022
 20
178.5590776119
 30
0.0
 10
1201.5589982669
 20
178.8151173077
 30
0.0
 10
1201.2074572769
 20
178.9748501995
 30
0.0
 10
1200.9597477335
 20
179.0114736122
 30
0.0
 10
1200.8392931291
 20
179.0114737758
 30
0.0
  0
SPLINE
  5
635
100
AcDbEntity
  8
0
100
AcDbSpline
 62
9
  6
CONTINUOUS
 70
0
 71
3
 72
13
 73
9
 74
0
 42
0.0000001
 43
0.0000001
 44
0.0000000001
 40
0.0
 40
0.0
 40
0.0
 40
0.0
 40
0.2907347026
 40
0.5612889991
 40
0.6844884193
 40
0.7982183271
 40
0.9028324914
 40
1.0
 40
1.0
 40
1.0
 40
1.0
 10
1207.1253550803
 20
176.0114737758
 30
0.0
 10
1207.1253550803
 20
176.3522384653
 30
0.0
 10
1207.0561591163
 20
177.0120667141
 30
0.0
 10
1206.7937091819
 20
177.7801298701
 30
0.0
 10
1206.4839684024
 20
178.2904811012
 30
0.0
 10
1206.221219942
 20
178.5954326791
 30
0.0
 10
1205.9279746346
 20
178.824998552
 30
0.0
 10
1205.7105026107
 20
178.9251438295
 30
0.0
 10
1205.6015705233
 20
178.9583752234
 30
0.0
  0
SPLINE
  5
636
100
AcDbEntity
  8
0
100
AcDbSpline
 62
9
  6
CONTINUOUS
 70
0
 71
3
 72
9
 73
5
 74
0
 42
0.0000001
 43
0.0000001
 44
0.0000000001
 40
0.0
 40
0.0
 40
0.0
 40
0.0
 40
0.2529322865
 40
1.0
 40
1.0
 40
1.0
 40
1.0
 10
1205.5759453836
 20
178.9658970433
 30
0.0
 10
1205.5492204197
 20
178.9734341815
 30
0.0
 10
1205.4426069369
 20
178.9997270843
 30
0.0
 10
1205.332369826
 20
179.0114737758
 30
0.0
 10
1205.2503550806
 20
179.0114737758
 30
0.0
  0
SPLINE
  5
637
100
AcDbEntity
  8
0
100
AcDbSpline
 62
9
  6
CONTINUOUS
 70
0
 71
3
 72
11
 73
7
 74
0
 42
0.0000001
 43
0.0000001
 44
0.0000000001
 40
0.0
 40
0.0
 40
0.0
 40
0.0
 40
0.2500047086
 40
0.5000083309
 40
0.7500077669
 40
1.0
 40
1.0
 40
1.0
 40
1.0
 10
1202.6299759839
 20
107.813515129
 30
0.0
 10
1202.6415762523
 20
108.1716350556
 30
0.0
 10
1202.5892014402
 20
108.8925474077
 30
0.0
 10
1202.2877772874
 20
109.9322793041
 30
0.0
 10
1201.7762648501
 20
110.8864099118
 30
0.0
 10
1201.3083078184
 20
111.4375251126
 30
0.0
 10
1201.0485741008
 20
111.6843246898
 30
0.0
  0
SPLINE
  5
638
100
AcDbEntity
  8
0
100
AcDbSpline
 62
9
  6
CONTINUOUS
 70
0
 71
3
 72
13
 73
9
 74
0
 42
0.0000001
 43
0.0000001
 44
0.0000000001
 40
0.0
 40
0.0
 40
0.0
 40
0.0
 40
0.2907347026
 40
0.5612889992
 40
0.6844884193
 40
0.7982183271
 40
0.9028324914
 40
1.0
 40
1.0
 40
1.0
 40
1.0
 10
1207.1253550808
 20
192.0114737758
 30
0.0
 10
1207.1253550808
 20
191.6707090862
 30
0.0
 10
1207.0561591161
 20
191.0108808373
 30
0.0
 10
1206.7937091819
 20
190.2428176812
 30
0.0
 10
1206.4839684022
 20
189.7324664501
 30
0.0
 10
1206.2212199418
 20
189.4275148723
 30
0.0
 10
1205.9279746344
 20
189.1979489993
 30
0.0
 10
1205.7105026104
 20
189.0978037219
 30
0.0
 10
1205.601570523
 20
189.064572328
 30
0.0
  0
SPLINE
  5
639
100
AcDbEntity
  8
0
100
AcDbSpline
 62
9
  6
CONTINUOUS
 70
0
 71
3
 72
9
 73
5
 74
0
 42
0.0000001
 43
0.0000001
 44
0.0000000001
 40
0.0
 40
0.0
 40
0.0
 40
0.0
 40
0.2529322867
 40
1.0
 40
1.0
 40
1.0
 40
1.0
 10
1205.5759453916
 20
189.0570505105
 30
0.0
 10
1205.549220427
 20
189.0495133719
 30
0.0
 10
1205.4426069418
 20
189.0232204679
 30
0.0
 10
1205.3323698281
 20
189.0114737758
 30
0.0
 10
1205.2503550808
 20
189.0114737758
 30
0.0
  0
SPLINE
  5
63A
100
AcDbEntity
  8
0
100
AcDbSpline
 62
9
  6
CONTINUOUS
 70
0
 71
3
 72
13
 73
9
 74
0
 42
0.0000001
 43
0.0000001
 44
0.0000000001
 40
0.0
 40
0.0
 40
0.0
 40
0.0
 40
0.2966487855
 40
0.5661206922
 40
0.6869145523
 40
0.7980339794
 40
0.9012638156
 40
1.0
 40
1.0
 40
1.0
 40
1.0
 10
1202.7676559571
 20
191.7606702788
 30
0.0
 10
1202.7480999257
 20
191.3992979569
 30
0.0
 10
1202.6309093026
 20
190.7112401978
 30
0.0
 10
1202.2760050065
 20
189.9364786263
 30
0.0
 10
1201.8822438354
 20
189.4638689074
 30
0.0
 10
1201.5589988423
 20
189.2078294212
 30
0.0
 10
1201.2074575125
 20
189.0480968718
 30
0.0
 10
1200.9597478005
 20
189.0114737757
 30
0.0
 10
1200.8392931291
 20
189.0114737756
 30
0.0
  0
SPLINE
  5
63B
100
AcDbEntity
  8
0
100
AcDbSpline
 62
9
  6
CONTINUOUS
 70
0
 71
3
 72
17
 73
13
 74
0
 42
0.0000001
 43
0.0000001
 44
0.0000000001
 40
0.0
 40
0.0
 40
0.0
 40
0.0
 40
0.069366526
 40
0.1375361153
 40
0.2040343917
 40
0.2689775419
 40
0.3951913977
 40
0.5184692822
 40
0.6400027041
 40
0.7604906685
 40
0.88038269
 40
1.0
 40
1.0
 40
1.0
 40
1.0
 10
1140.6253550806
 20
276.0114737758
 30
0.0
 10
1140.4779484703
 20
276.0114813061
 30
0.0
 10
1140.1844988722
 20
275.9748231169
 30
0.0
 10
1139.7752745754
 20
275.822213703
 30
0.0
 10
1139.4123271855
 20
275.5983386099
 30
0.0
 10
1138.9964151934
 20
275.2395938554
 30
0.0
 10
1138.5785567921
 20
274.7107303726
 30
0.0
 10
1138.2062785266
 20
274.0125948829
 30
0.0
 10
1137.9372851214
 20
273.2822502814
 30
0.0
 10
1137.7547136218
 20
272.5336927291
 30
0.0
 10
1137.6485844568
 20
271.774944562
 30
0.0
 10
1137.6253670147
 20
271.2656652888
 30
0.0
 10
1137.6253550806
 20
271.0114737758
 30
0.0
  0
SPLINE
  5
63C
100
AcDbEntity
  8
0
100
AcDbSpline
 62
9
  6
CONTINUOUS
 70
0
 71
3
 72
15
 73
11
 74
0
 42
0.0000001
 43
0.0000001
 44
0.0000000001
 40
0.0
 40
0.0
 40
0.0
 40
0.0
 40
0.0314452609
 40
0.0566793922
 40
0.0891336618
 40
0.1761052156
 40
0.2919615575
 40
0.43499023
 40
0.6027193643
 40
1.0
 40
1.0
 40
1.0
 40
1.0
 10
1205.4547062519
 20
96.0140912266
 30
0.0
 10
1205.4495538149
 20
95.9994749154
 30
0.0
 10
1205.4617358427
 20
95.9694308525
 30
0.0
 10
1205.4863742564
 20
95.9345836283
 30
0.0
 10
1205.5340880921
 20
95.880666086
 30
0.0
 10
1205.6203794389
 20
95.8034234864
 30
0.0
 10
1205.7547683726
 20
95.6982337608
 30
0.0
 10
1205.9261675555
 20
95.5764409403
 30
0.0
 10
1206.2169031216
 20
95.3833495983
 30
0.0
 10
1206.4546155468
 20
95.2381156621
 30
0.0
 10
1206.6231763704
 20
95.1384904296
 30
0.0
  0
SPLINE
  5
63D
100
AcDbEntity
  8
0
100
AcDbSpline
 62
9
  6
CONTINUOUS
 70
0
 71
3
 72
15
 73
11
 74
0
 42
0.0000001
 43
0.0000001
 44
0.0000000001
 40
0.0
 40
0.0
 40
0.0
 40
0.0
 40
0.1264284906
 40
0.2526386529
 40
0.3784454449
 40
0.503725861
 40
0.6284362689
 40
0.7526238941
 40
0.876414318
 40
1.0
 40
1.0
 40
1.0
 40
1.0
 10
1141.6253550806
 20
143.283092757
 30
0.0
 10
1141.3637101762
 20
143.2830928794
 30
0.0
 10
1140.8394748911
 20
143.2325601843
 30
0.0
 10
1140.0842960765
 20
143.0080332736
 30
0.0
 10
1139.388168325
 20
142.6435057461
 30
0.0
 10
1138.7782206734
 20
142.1530503363
 30
0.0
 10
1138.2777173098
 20
141.5556108234
 30
0.0
 10
1137.905875398
 20
140.8740179645
 30
0.0
 10
1137.6769028584
 20
140.1348264884
 30
0.0
 10
1137.6253560095
 20
139.6214069895
 30
0.0
 10
1137.6253550806
 20
139.3656453032
 30
0.0
  0
SPLINE
  5
63E
100
AcDbEntity
  8
0
100
AcDbSpline
 62
9
  6
CONTINUOUS
 70
0
 71
3
 72
17
 73
13
 74
0
 42
0.0000001
 43
0.0000001
 44
0.0000000001
 40
0.0
 40
0.0
 40
0.0
 40
0.0
 40
0.0310016494
 40
0.0572432913
 40
0.0916106178
 40
0.1341244559
 40
0.184564568
 40
0.2425531017
 40
0.3076036255
 40
0.4565145226
 40
0.6258725101
 40
1.0
 40
1.0
 40
1.0
 40
1.0
 10
1137.6253550806
 20
176.0114737758
 30
0.0
 10
1137.6253643475
 20
176.0537861827
 30
0.0
 10
1137.6974742679
 20
176.1161981562
 30
0.0
 10
1137.8056395492
 20
176.1678606847
 30
0.0
 10
1137.9400463983
 20
176.2161080548
 30
0.0
 10
1138.1072769265
 20
176.2612408975
 30
0.0
 10
1138.3088790941
 20
176.3050361598
 30
0.0
 10
1138.5420311744
 20
176.346128339
 30
0.0
 10
1138.909423769
 20
176.3994477239
 30
0.0
 10
1139.4298400721
 20
176.4547164339
 30
0.0
 10
1140.3726621221
 20
176.5207244006
 30
0.0
 10
1141.1147295086
 20
176.5389515288
 30
0.0
 10
1141.6253550806
 20
176.5389463032
 30
0.0
  0
SPLINE
  5
63F
100
AcDbEntity
  8
0
100
AcDbSpline
 62
9
  6
CONTINUOUS
 70
0
 71
3
 72
15
 73
11
 74
0
 42
0.0000001
 43
0.0000001
 44
0.0000000001
 40
0.0
 40
0.0
 40
0.0
 40
0.0
 40
0.1235858319
 40
0.2473764065
 40
0.3715641129
 40
0.4962744733
 40
0.62155484
 40
0.7473615942
 40
0.8735716456
 40
1.0
 40
1.0
 40
1.0
 40
1.0
 10
1137.6253550806
 20
228.6573022483
 30
0.0
 10
1137.6253541785
 20
228.4015402532
 30
0.0
 10
1137.6769037877
 20
227.888120119
 30
0.0
 10
1137.9058758489
 20
227.1489279952
 30
0.0
 10
1138.2777184927
 20
226.4673349297
 30
0.0
 10
1138.7782222514
 20
225.8698958612
 30
0.0
 10
1139.3881698762
 20
225.3794408744
 30
0.0
 10
1140.0842974004
 20
225.0149138145
 30
0.0
 10
1140.8394756928
 20
224.7903872732
 30
0.0
 10
1141.3637104594
 20
224.7398546775
 30
0.0
 10
1141.6253550806
 20
224.7398547945
 30
0.0
  0
SPLINE
  5
640
100
AcDbEntity
  8
0
100
AcDbSpline
 62
9
  6
CONTINUOUS
 70
0
 71
3
 72
9
 73
5
 74
0
 42
0.0000001
 43
0.0000001
 44
0.0000000001
 40
0.0
 40
0.0
 40
0.0
 40
0.0
 40
0.4999371973
 40
1.0
 40
1.0
 40
1.0
 40
1.0
 10
1204.6253550806
 20
275.7050912555
 30
0.0
 10
1204.3040506909
 20
275.8108109645
 30
0.0
 10
1203.6413536927
 20
275.9648795173
 30
0.0
 10
1202.963690219
 20
276.011498146
 30
0.0
 10
1202.6253550806
 20
276.0114982761
 30
0.0
  0
LINE
  5
641
100
AcDbEntity
  8
0
100
AcDbLine
 62
9
  6
CONTINUOUS
 10
1202.6253550806
 20
276.0114982761
 11
1140.6253550806
 21
276.0114737758
  0
SPLINE
  5
642
100
AcDbEntity
  8
0
100
AcDbSpline
 62
9
  6
CONTINUOUS
 70
0
 71
3
 72
17
 73
13
 74
0
 42
0.0000001
 43
0.0000001
 44
0.0000000001
 40
0.0
 40
0.0
 40
0.0
 40
0.0
 40
0.3741274899
 40
0.5434854774
 40
0.6923963745
 40
0.7574468983
 40
0.815435432
 40
0.8658755442
 40
0.9083893822
 40
0.9427567087
 40
0.9689983507
 40
1.0
 40
1.0
 40
1.0
 40
1.0
 10
1141.6253550806
 20
191.4840012483
 30
0.0
 10
1141.1147295086
 20
191.4839960227
 30
0.0
 10
1140.3726621221
 20
191.502223151
 30
0.0
 10
1139.4298400721
 20
191.5682311175
 30
0.0
 10
1138.909423769
 20
191.6234998278
 30
0.0
 10
1138.5420311743
 20
191.6768192124
 30
0.0
 10
1138.3088790941
 20
191.7179113917
 30
0.0
 10
1138.1072769266
 20
191.7617066544
 30
0.0
 10
1137.9400463983
 20
191.8068394966
 30
0.0
 10
1137.8056395489
 20
191.8550868662
 30
0.0
 10
1137.6974742683
 20
191.9067493962
 30
0.0
 10
1137.6253643479
 20
191.969161369
 30
0.0
 10
1137.6253550806
 20
192.0114737758
 30
0.0
  0
SPLINE
  5
643
100
AcDbEntity
  8
0
100
AcDbSpline
 62
9
  6
CONTINUOUS
 70
0
 71
3
 72
19
 73
15
 74
0
 42
0.0000001
 43
0.0000001
 44
0.0000000001
 40
0.0
 40
0.0
 40
0.0
 40
0.0
 40
0.0090305996
 40
0.0159561434
 40
0.0249171024
 40
0.0493289352
 40
0.0825321479
 40
0.1243939994
 40
0.1745789897
 40
0.2980882706
 40
0.4485028555
 40
0.6201073757
 40
0.8063261773
 40
1.0
 40
1.0
 40
1.0
 40
1.0
 10
1203.8013726481
 20
94.2515856112
 30
0.0
 10
1203.8072415029
 20
94.2540863923
 30
0.0
 10
1203.8199230363
 20
94.2500787453
 30
0.0
 10
1203.8333016967
 20
94.2392366025
 30
0.0
 10
1203.8532929635
 20
94.2186229704
 30
0.0
 10
1203.880618992
 20
94.1802866491
 30
0.0
 10
1203.9169990394
 20
94.1201007215
 30
0.0
 10
1203.9586512666
 20
94.042010367
 30
0.0
 10
1204.0256779433
 20
93.9052578851
 30
0.0
 10
1204.1182317753
 20
93.6957585013
 30
0.0
 10
1204.2367409379
 20
93.4041645104
 30
0.0
 10
1204.3642792261
 20
93.0685175422
 30
0.0
 10
1204.4958846613
 20
92.7018086735
 30
0.0
 10
1204.5823263117
 20
92.4477302944
 30
0.0
 10
1204.6253550806
 20
92.3178565357
 30
0.0
  0
SPLINE
  5
644
100
AcDbEntity
  8
0
100
AcDbSpline
 62
9
  6
CONTINUOUS
 70
0
 71
3
 72
19
 73
15
 74
0
 42
0.0000001
 43
0.0000001
 44
0.0000000001
 40
0.0
 40
0.0
 40
0.0
 40
0.0
 40
0.0091889145
 40
0.0161570263
 40
0.0251457512
 40
0.0495863899
 40
0.0827986511
 40
0.1246579078
 40
0.1748326683
 40
0.2983065553
 40
0.4486739301
 40
0.6202244766
 40
0.8063855634
 40
1.0
 40
1.0
 40
1.0
 40
1.0
 10
1203.8013725973
 20
273.771361962
 30
0.0
 10
1203.8073464453
 20
273.7688164422
 30
0.0
 10
1203.8202028423
 20
273.772645225
 30
0.0
 10
1203.8338520462
 20
273.7834620896
 30
0.0
 10
1203.8540599902
 20
273.8039620696
 30
0.0
 10
1203.8816393996
 20
273.8422141951
 30
0.0
 10
1203.9182467547
 20
273.902316222
 30
0.0
 10
1203.9600833791
 20
273.9803442353
 30
0.0
 10
1204.0272966607
 20
274.1170270429
 30
0.0
 10
1204.1199275863
 20
274.3265136575
 30
0.0
 10
1204.2383210238
 20
274.6181713422
 30
0.0
 10
1204.3655349433
 20
274.9539583688
 30
0.0
 10
1204.4966168525
 20
275.3208731736
 30
0.0
 10
1204.582591087
 20
275.5751234428
 30
0.0
 10
1204.6253550806
 20
275.7050912555
 30
0.0
  0
LINE
  5
645
100
AcDbEntity
  8
0
100
AcDbLine
 62
9
  6
CONTINUOUS
 10
1140.6253550806
 20
92.0114737758
 11
1202.6253550806
 21
92.0114492794
  0
SPLINE
  5
646
100
AcDbEntity
  8
0
100
AcDbSpline
 62
9
  6
CONTINUOUS
 70
0
 71
3
 72
9
 73
5
 74
0
 42
0.0000001
 43
0.0000001
 44
0.0000000001
 40
0.0
 40
0.0
 40
0.0
 40
0.0
 40
0.500072959
 40
1.0
 40
1.0
 40
1.0
 40
1.0
 10
1202.6253550806
 20
92.0114492794
 30
0.0
 10
1202.9637111423
 20
92.011449406
 30
0.0
 10
1203.6414115037
 20
92.0573566385
 30
0.0
 10
1204.3042615587
 20
92.2114752756
 30
0.0
 10
1204.6253550806
 20
92.3178565357
 30
0.0
  0
SPLINE
  5
647
100
AcDbEntity
  8
0
100
AcDbSpline
 62
9
  6
CONTINUOUS
 70
0
 71
3
 72
11
 73
7
 74
0
 42
0.0000001
 43
0.0000001
 44
0.0000000001
 40
0.0
 40
0.0
 40
0.0
 40
0.0
 40
0.2497151642
 40
0.4996562495
 40
0.7497779283
 40
1.0
 40
1.0
 40
1.0
 40
1.0
 10
1171.0254320191
 20
141.3957726912
 30
0.0
 10
1170.6705678521
 20
141.6960656146
 30
0.0
 10
1169.9064321395
 20
142.2361582965
 30
0.0
 10
1168.6373478163
 20
142.8336938911
 30
0.0
 10
1167.2824528266
 20
143.2006469786
 30
0.0
 10
1166.3489451243
 20
143.2830925278
 30
0.0
 10
1165.8831311416
 20
143.283092757
 30
0.0
  0
SPLINE
  5
648
100
AcDbEntity
  8
0
100
AcDbSpline
 62
9
  6
CONTINUOUS
 70
0
 71
3
 72
15
 73
11
 74
0
 42
0.0000001
 43
0.0000001
 44
0.0000000001
 40
0.0
 40
0.0
 40
0.0
 40
0.0
 40
0.0320784689
 40
0.0574739942
 40
0.0900243171
 40
0.1770538395
 40
0.2928471668
 40
0.4357274718
 40
0.6032469669
 40
1.0
 40
1.0
 40
1.0
 40
1.0
 10
1205.4547062791
 20
272.008856248
 30
0.0
 10
1205.4494461521
 20
272.0237780529
 30
0.0
 10
1205.4611435126
 20
272.0543570958
 30
0.0
 10
1205.4857950688
 20
272.0898699674
 30
0.0
 10
1205.5332578867
 20
272.1442411923
 30
0.0
 10
1205.6194466327
 20
272.2218659563
 30
0.0
 10
1205.7537894978
 20
272.3271799213
 30
0.0
 10
1205.9252638672
 20
272.4487976861
 30
0.0
 10
1206.2162441319
 20
272.6412018148
 30
0.0
 10
1206.454323728
 20
272.7855520734
 30
0.0
 10
1206.6231765175
 20
272.884457122
 30
0.0
  0
SPLINE
  5
649
100
AcDbEntity
  8
0
100
AcDbSpline
 62
9
  6
CONTINUOUS
 70
0
 71
3
 72
9
 73
5
 74
0
 42
0.0000001
 43
0.0000001
 44
0.0000000001
 40
0.0
 40
0.0
 40
0.0
 40
0.0
 40
0.5321958061
 40
1.0
 40
1.0
 40
1.0
 40
1.0
 10
1165.8831311416
 20
176.5389463032
 30
0.0
 10
1166.7957652272
 20
176.5389492067
 30
0.0
 10
1168.5106572462
 20
176.5177904101
 30
0.0
 10
1170.2245829804
 20
176.4521623998
 30
0.0
 10
1171.0254320191
 20
176.4054132267
 30
0.0
  0
SPLINE
  5
64A
100
AcDbEntity
  8
0
100
AcDbSpline
 62
9
  6
CONTINUOUS
 70
0
 71
3
 72
11
 73
7
 74
0
 42
0.0000001
 43
0.0000001
 44
0.0000000001
 40
0.0
 40
0.0
 40
0.0
 40
0.0
 40
0.2502221255
 40
0.5003438214
 40
0.7502849025
 40
1.0
 40
1.0
 40
1.0
 40
1.0
 10
1165.8831311416
 20
224.7398547945
 30
0.0
 10
1166.3489452219
 20
224.7398549811
 30
0.0
 10
1167.2824529332
 20
224.8223009136
 30
0.0
 10
1168.6373485103
 20
225.1892532752
 30
0.0
 10
1169.9064311028
 20
225.7867909705
 30
0.0
 10
1170.6705703378
 20
226.3268792078
 30
0.0
 10
1171.0254320191
 20
226.6271748721
 30
0.0
  0
SPLINE
  5
64B
100
AcDbEntity
  8
0
100
AcDbSpline
 62
9
  6
CONTINUOUS
 70
0
 71
3
 72
9
 73
5
 74
0
 42
0.0000001
 43
0.0000001
 44
0.0000000001
 40
0.0
 40
0.0
 40
0.0
 40
0.0
 40
0.4678041939
 40
1.0
 40
1.0
 40
1.0
 40
1.0
 10
1171.0254320191
 20
191.6175343248
 30
0.0
 10
1170.2245829799
 20
191.5707851598
 30
0.0
 10
1168.5106572465
 20
191.5051571366
 30
0.0
 10
1166.7957652272
 20
191.483998345
 30
0.0
 10
1165.8831311416
 20
191.4840012483
 30
0.0
  0
SPLINE
  5
64C
100
AcDbEntity
  8
0
100
AcDbSpline
 62
9
  6
CONTINUOUS
 70
0
 71
3
 72
13
 73
9
 74
0
 42
0.0000001
 43
0.0000001
 44
0.0000000001
 40
0.0
 40
0.0
 40
0.0
 40
0.0
 40
0.1335070145
 40
0.2277281045
 40
0.3429602201
 40
0.4791619811
 40
0.6352712054
 40
1.0
 40
1.0
 40
1.0
 40
1.0
 10
1205.6253550806
 20
271.0114737758
 30
0.0
 10
1205.6253550806
 20
271.079834462
 30
0.0
 10
1205.6924464348
 20
271.1905423558
 30
0.0
 10
1205.8211733184
 20
271.3067820062
 30
0.0
 10
1205.967788499
 20
271.4080667679
 30
0.0
 10
1206.1504067399
 20
271.5089791109
 30
0.0
 10
1206.4559866646
 20
271.6504482179
 30
0.0
 10
1206.707405463
 20
271.7409588467
 30
0.0
 10
1206.8852221223
 20
271.7980437716
 30
0.0
  0
SPLINE
  5
64D
100
AcDbEntity
  8
0
100
AcDbSpline
 62
9
  6
CONTINUOUS
 70
0
 71
3
 72
17
 73
13
 74
0
 42
0.0000001
 43
0.0000001
 44
0.0000000001
 40
0.0
 40
0.0
 40
0.0
 40
0.0
 40
0.1196168409
 40
0.2395081303
 40
0.3599957248
 40
0.4815289086
 40
0.6048071179
 40
0.7310216175
 40
0.795965457
 40
0.8624655729
 40
0.9306353425
 40
1.0
 40
1.0
 40
1.0
 40
1.0
 10
1137.6253550806
 20
97.0114737758
 30
0.0
 10
1137.6253663779
 20
96.7572832485
 30
0.0
 10
1137.6485842119
 20
96.2480064636
 30
0.0
 10
1137.7547129423
 20
95.4892616989
 30
0.0
 10
1137.9372811183
 20
94.7407062086
 30
0.0
 10
1138.2062742622
 20
94.0103620953
 30
0.0
 10
1138.5785516417
 20
93.3122243703
 30
0.0
 10
1138.9964114013
 20
92.7833574171
 30
0.0
 10
1139.4123277784
 20
92.4246072805
 30
0.0
 10
1139.775281018
 20
92.2007303075
 30
0.0
 10
1140.184506478
 20
92.0481229697
 30
0.0
 10
1140.4779524347
 20
92.0114662461
 30
0.0
 10
1140.6253550806
 20
92.0114737758
 30
0.0
  0
SPLINE
  5
64E
100
AcDbEntity
  8
0
100
AcDbSpline
 62
9
  6
CONTINUOUS
 70
0
 71
3
 72
18
 73
14
 74
0
 42
0.0000001
 43
0.0000001
 44
0.0000000001
 40
0.0
 40
0.0
 40
0.0
 40
0.0
 40
0.0072017908
 40
0.0131442752
 40
0.0209370462
 40
0.042336297
 40
0.0716396177
 40
0.1539371094
 40
0.267217597
 40
0.4102684702
 40
0.5814528646
 40
0.7788108047
 40
1.0
 40
1.0
 40
1.0
 40
1.0
 10
1205.6253550806
 20
192.0114737758
 30
0.0
 10
1205.6253522518
 20
192.0045548762
 30
0.0
 10
1205.6144733899
 20
191.9940207976
 30
0.0
 10
1205.5973070008
 20
191.9849395016
 30
0.0
 10
1205.5656300587
 20
191.9721993725
 30
0.0
 10
1205.5114086154
 20
191.9578052234
 30
0.0
 10
1205.3859664604
 20
191.9327222134
 30
0.0
 10
1205.1717014668
 20
191.9043636154
 30
0.0
 10
1204.8479214576
 20
191.8723974505
 30
0.0
 10
1204.4383327484
 20
191.841514778
 30
0.0
 10
1203.9477158447
 20
191.8119241189
 30
0.0
 10
1203.3818123317
 20
191.7843103841
 30
0.0
 10
1202.980018068
 20
191.7683451487
 30
0.0
 10
1202.7676559581
 20
191.7606702786
 30
0.0
  0
SPLINE
  5
64F
100
AcDbEntity
  8
0
100
AcDbSpline
 62
9
  6
CONTINUOUS
 70
0
 71
3
 72
11
 73
7
 74
0
 42
0.0000001
 43
0.0000001
 44
0.0000000001
 40
0.0
 40
0.0
 40
0.0
 40
0.0
 40
0.2501037163
 40
0.5001191153
 40
0.7500729848
 40
1.0
 40
1.0
 40
1.0
 40
1.0
 10
1202.9713321114
 20
254.0700068862
 30
0.0
 10
1203.3476644178
 20
254.4092375921
 30
0.0
 10
1204.0373814185
 20
255.1611474672
 30
0.0
 10
1204.8393108039
 20
256.4621363357
 30
0.0
 10
1205.3823910073
 20
257.8902599701
 30
0.0
 10
1205.5591622448
 20
258.8945844345
 30
0.0
 10
1205.5996048443
 20
259.399267774
 30
0.0
  0
SPLINE
  5
650
100
AcDbEntity
  8
0
100
AcDbSpline
 62
9
  6
CONTINUOUS
 70
0
 71
3
 72
18
 73
14
 74
0
 42
0.0000001
 43
0.0000001
 44
0.0000000001
 40
0.0
 40
0.0
 40
0.0
 40
0.0
 40
0.2211891953
 40
0.4185471354
 40
0.5897315298
 40
0.732782403
 40
0.8460628906
 40
0.9283603823
 40
0.957663703
 40
0.9790629538
 40
0.9868557248
 40
0.9927982091
 40
1.0
 40
1.0
 40
1.0
 40
1.0
 10
1202.7676559581
 20
176.2622772729
 30
0.0
 10
1202.980018068
 20
176.2546024023
 30
0.0
 10
1203.3818123317
 20
176.238637168
 30
0.0
 10
1203.9477158447
 20
176.2110234324
 30
0.0
 10
1204.4383327484
 20
176.1814327735
 30
0.0
 10
1204.8479214576
 20
176.1505501011
 30
0.0
 10
1205.1717014668
 20
176.118583936
 30
0.0
 10
1205.3859664604
 20
176.0902253382
 30
0.0
 10
1205.5114086154
 20
176.0651423281
 30
0.0
 10
1205.5656300586
 20
176.050748179
 30
0.0
 10
1205.5973070008
 20
176.0380080499
 30
0.0
 10
1205.6144733899
 20
176.028926754
 30
0.0
 10
1205.6253522518
 20
176.0183926754
 30
0.0
 10
1205.6253550806
 20
176.0114737758
 30
0.0
  0
SPLINE
  5
651
100
AcDbEntity
  8
0
100
AcDbSpline
 62
9
  6
CONTINUOUS
 70
0
 71
3
 72
11
 73
7
 74
0
 42
0.0000001
 43
0.0000001
 44
0.0000000001
 40
0.0
 40
0.0
 40
0.0
 40
0.0
 40
0.2499269923
 40
0.4998808695
 40
0.7498962811
 40
1.0
 40
1.0
 40
1.0
 40
1.0
 10
1205.5995360831
 20
108.624537354
 30
0.0
 10
1205.5590452501
 20
109.1291451968
 30
0.0
 10
1205.3822054887
 20
110.1333095934
 30
0.0
 10
1204.8391072723
 20
111.5611933614
 30
0.0
 10
1204.0372398847
 20
112.8619645498
 30
0.0
 10
1203.3476114132
 20
113.6137577952
 30
0.0
 10
1202.9713321114
 20
113.9529406654
 30
0.0
  0
LINE
  5
652
100
AcDbEntity
  8
0
100
AcDbLine
 62
9
  6
CONTINUOUS
 10
1207.1253550841
 20
254.0114737766
 11
1207.1253550839
 21
269.7619581148
  0
LINE
  5
653
100
AcDbEntity
  8
0
100
AcDbLine
 62
9
  6
CONTINUOUS
 10
1207.1253550841
 20
98.260989437
 11
1207.125355084
 21
114.0114737758
  0
SPLINE
  5
654
100
AcDbEntity
  8
0
100
AcDbSpline
 62
9
  6
CONTINUOUS
 70
0
 71
3
 72
9
 73
5
 74
0
 42
0.0000001
 43
0.0000001
 44
0.0000000001
 40
0.0
 40
0.0
 40
0.0
 40
0.0
 40
0.322393708
 40
1.0
 40
1.0
 40
1.0
 40
1.0
 10
1246.2117795915
 20
394.0114737758
 30
0.0
 10
1246.237678513
 20
394.0114059605
 30
0.0
 10
1246.2963616755
 20
393.9349221799
 30
0.0
 10
1246.327250252
 20
393.8687206739
 30
0.0
 10
1246.3490605847
 20
393.8188466178
 30
0.0
  0
SPLINE
  5
655
100
AcDbEntity
  8
0
100
AcDbSpline
 62
9
  6
CONTINUOUS
 70
0
 71
3
 72
9
 73
5
 74
0
 42
0.0000001
 43
0.0000001
 44
0.0000000001
 40
0.0
 40
0.0
 40
0.0
 40
0.0
 40
0.1922795945
 40
1.0
 40
1.0
 40
1.0
 40
1.0
 10
1246.3490605847
 20
393.8188466178
 30
0.0
 10
1246.364820826
 20
393.7828074078
 30
0.0
 10
1246.4407358723
 20
393.5927496685
 30
0.0
 10
1246.5011432815
 20
393.3969480928
 30
0.0
 10
1246.5475074462
 20
393.2383510473
 30
0.0
  0
SPLINE
  5
656
100
AcDbEntity
  8
0
100
AcDbSpline
 62
9
  6
CONTINUOUS
 70
0
 71
3
 72
11
 73
7
 74
0
 42
0.0000001
 43
0.0000001
 44
0.0000000001
 40
0.0
 40
0.0
 40
0.0
 40
0.0
 40
0.2499308413
 40
0.4999022004
 40
0.7499308492
 40
1.0
 40
1.0
 40
1.0
 40
1.0
 10
1314.0389305698
 20
394.0114729652
 30
0.0
 10
1313.5189894468
 20
394.0114733371
 30
0.0
 10
1312.4676308259
 20
394.2196725135
 30
0.0
 10
1311.1388826552
 20
395.1099576615
 30
0.0
 10
1310.2493145279
 20
396.4394931738
 30
0.0
 10
1310.0413275932
 20
397.4912449219
 30
0.0
 10
1310.0413275934
 20
398.0114737758
 30
0.0
  0
SPLINE
  5
657
100
AcDbEntity
  8
0
100
AcDbSpline
 62
9
  6
CONTINUOUS
 70
0
 71
3
 72
11
 73
7
 74
0
 42
0.0000001
 43
0.0000001
 44
0.0000000001
 40
0.0
 40
0.0
 40
0.0
 40
0.0
 40
0.2548306226
 40
0.5079542737
 40
0.7564630629
 40
1.0
 40
1.0
 40
1.0
 40
1.0
 10
1313.7032027156
 20
393.2383139414
 30
0.0
 10
1313.1910762298
 20
393.2501789025
 30
0.0
 10
1312.1651549441
 20
393.4641529654
 30
0.0
 10
1310.8580566387
 20
394.3053414432
 30
0.0
 10
1309.9600634446
 20
395.5489418166
 30
0.0
 10
1309.7275507549
 20
396.5427841883
 30
0.0
 10
1309.7150199242
 20
397.0321849865
 30
0.0
  0
SPLINE
  5
658
100
AcDbEntity
  8
0
100
AcDbSpline
 62
9
  6
CONTINUOUS
 70
0
 71
3
 72
16
 73
12
 74
0
 42
0.0000001
 43
0.0000001
 44
0.0000000001
 40
0.0
 40
0.0
 40
0.0
 40
0.0
 40
0.154092133
 40
0.2928524816
 40
0.5179965981
 40
0.6844971417
 40
0.8067015804
 40
0.8945270786
 40
0.9540150287
 40
0.9885956659
 40
1.0
 40
1.0
 40
1.0
 40
1.0
 10
1430.0901560465
 20
64.2171131893
 30
0.0
 10
1430.0098990992
 20
62.5772519862
 30
0.0
 10
1429.6143207512
 20
59.4726729284
 30
0.0
 10
1428.475646257
 20
54.0710365651
 30
0.0
 10
1427.0366733467
 20
48.604742182
 30
0.0
 10
1425.7296618594
 20
43.287388542
 30
0.0
 10
1424.9542475061
 20
39.3491180881
 30
0.0
 10
1424.5479500255
 20
36.5054026177
 30
0.0
 10
1424.3515548886
 20
34.5766432149
 30
0.0
 10
1424.2800595402
 20
33.4552154572
 30
0.0
 10
1424.2463044224
 20
32.9662600712
 30
0.0
 10
1424.2429011198
 20
32.844796612
 30
0.0
  0
SPLINE
  5
659
100
AcDbEntity
  8
0
100
AcDbSpline
 62
9
  6
CONTINUOUS
 70
0
 71
3
 72
11
 73
7
 74
0
 42
0.0000001
 43
0.0000001
 44
0.0000000001
 40
0.0
 40
0.0
 40
0.0
 40
0.0
 40
0.2548306228
 40
0.5079542824
 40
0.7564631121
 40
1.0
 40
1.0
 40
1.0
 40
1.0
 10
1246.5475074462
 20
393.2383501264
 30
0.0
 10
1247.0596278641
 20
393.2502221566
 30
0.0
 10
1248.0855340185
 20
393.4642032044
 30
0.0
 10
1249.3926152904
 20
394.3053826041
 30
0.0
 10
1250.2906047183
 20
395.5489624452
 30
0.0
 10
1250.5231256276
 20
396.5427900885
 30
0.0
 10
1250.5356626367
 20
397.0321849863
 30
0.0
  0
SPLINE
  5
65A
100
AcDbEntity
  8
0
100
AcDbSpline
 62
9
  6
CONTINUOUS
 70
0
 71
3
 72
11
 73
7
 74
0
 42
0.0000001
 43
0.0000001
 44
0.0000000001
 40
0.0
 40
0.0
 40
0.0
 40
0.0
 40
0.2499308262
 40
0.4999021769
 40
0.7499308366
 40
1.0
 40
1.0
 40
1.0
 40
1.0
 10
1246.2117795873
 20
394.011293842
 30
0.0
 10
1246.7317358057
 20
394.0112857902
 30
0.0
 10
1247.7831296439
 20
394.2194872922
 30
0.0
 10
1249.1119034217
 20
395.1098252681
 30
0.0
 10
1250.001450649
 20
396.4394347268
 30
0.0
 10
1250.2093905687
 20
397.4912297599
 30
0.0
 10
1250.2093609436
 20
398.0114737744
 30
0.0
  0
SPLINE
  5
65B
100
AcDbEntity
  8
0
100
AcDbSpline
 62
9
  6
CONTINUOUS
 70
0
 71
3
 72
12
 73
8
 74
0
 42
0.0000001
 43
0.0000001
 44
0.0000000001
 40
0.0
 40
0.0
 40
0.0
 40
0.0
 40
0.4188195734
 40
0.7246913469
 40
0.9156985308
 40
0.9695065608
 40
1.0
 40
1.0
 40
1.0
 40
1.0
 10
1309.715047131
 20
397.0321849863
 30
0.0
 10
1309.7469660496
 20
397.1745205181
 30
0.0
 10
1309.8051787524
 20
397.420648825
 30
0.0
 10
1309.8910036544
 20
397.7264527945
 30
0.0
 10
1309.9576491097
 20
397.9093541733
 30
0.0
 10
1310.004946611
 20
397.9906914664
 30
0.0
 10
1310.0307048201
 20
398.0114023818
 30
0.0
 10
1310.0413251323
 20
398.0114737758
 30
0.0
  0
SPLINE
  5
65C
100
AcDbEntity
  8
0
100
AcDbSpline
 62
9
  6
CONTINUOUS
 70
0
 71
3
 72
20
 73
16
 74
0
 42
0.0000001
 43
0.0000001
 44
0.0000000001
 40
0.0
 40
0.0
 40
0.0
 40
0.0
 40
0.0493159067
 40
0.0974608482
 40
0.1438937422
 40
0.1885696717
 40
0.2731076641
 40
0.352229031
 40
0.4266776638
 40
0.4969306326
 40
0.6259035168
 40
0.7404323583
 40
0.8409072026
 40
0.9274061406
 40
1.0
 40
1.0
 40
1.0
 40
1.0
 10
1280.1253550806
 20
362.820874888
 30
0.0
 10
1280.9058295676
 20
362.8214032148
 30
0.0
 10
1282.4521463926
 20
362.9791336666
 30
0.0
 10
1284.6461520913
 20
363.6245195173
 30
0.0
 10
1286.6545587226
 20
364.5459964666
 30
0.0
 10
1289.0427116527
 20
365.9761011682
 30
0.0
 10
1291.6569702678
 20
368.0028189261
 30
0.0
 10
1294.3825609557
 20
370.6105805711
 30
0.0
 10
1296.7546418875
 20
373.2448670688
 30
0.0
 10
1299.4627414091
 20
376.6271487665
 30
0.0
 10
1302.2938984123
 20
380.7143189338
 30
0.0
 10
1305.0538131091
 20
385.4113499337
 30
0.0
 10
1307.1816964595
 20
389.6870270589
 30
0.0
 10
1308.7325451097
 20
393.4948611377
 30
0.0
 10
1309.4636526446
 20
395.9111551644
 30
0.0
 10
1309.715047131
 20
397.0321849863
 30
0.0
  0
SPLINE
  5
65D
100
AcDbEntity
  8
0
100
AcDbSpline
 62
7
  6
CONTINUOUS
 70
0
 71
3
 72
10
 73
6
 74
0
 42
0.0000001
 43
0.0000001
 44
0.0000000001
 40
0.0
 40
0.0
 40
0.0
 40
0.0
 40
0.4624482067
 40
0.7233500047
 40
1.0
 40
1.0
 40
1.0
 40
1.0
 10
1410.1253550806
 20
393.2383510472
 30
0.0
 10
1413.4814662124
 20
392.2698573731
 30
0.0
 10
1418.3944898601
 20
389.4743521711
 30
0.0
 10
1423.799994789
 20
384.1807218398
 30
0.0
 10
1426.1635188368
 20
380.835371949
 30
0.0
 10
1427.1833382256
 20
379.0114737758
 30
0.0
  0
SPLINE
  5
65E
100
AcDbEntity
  8
0
100
AcDbSpline
 62
9
  6
CONTINUOUS
 70
0
 71
3
 72
20
 73
16
 74
0
 42
0.0000001
 43
0.0000001
 44
0.0000000001
 40
0.0
 40
0.0
 40
0.0
 40
0.0
 40
0.072596016
 40
0.1590964061
 40
0.2595723321
 40
0.3741030067
 40
0.5030818991
 40
0.5733378344
 40
0.6477896275
 40
0.7269137328
 40
0.8114517946
 40
0.8561273595
 40
0.9025515765
 40
0.9506905695
 40
1.0
 40
1.0
 40
1.0
 40
1.0
 10
1250.5356630303
 20
397.0321849863
 30
0.0
 10
1250.7870658159
 20
395.9111209761
 30
0.0
 10
1251.5182014575
 20
393.4947736025
 30
0.0
 10
1253.0690787445
 20
389.686864391
 30
0.0
 10
1255.1970892081
 20
385.4111735897
 30
0.0
 10
1257.9569057577
 20
380.7139084288
 30
0.0
 10
1260.7884300934
 20
376.6267815475
 30
0.0
 10
1263.4964837656
 20
373.2442169833
 30
0.0
 10
1265.8686970776
 20
370.609847235
 30
0.0
 10
1268.5944187993
 20
368.0020924145
 30
0.0
 10
1271.2087036254
 20
365.9753161048
 30
0.0
 10
1273.5969571013
 20
364.545631836
 30
0.0
 10
1275.6052098645
 20
363.6244434117
 30
0.0
 10
1277.7988291736
 20
362.978889342
 30
0.0
 10
1279.3449823642
 20
362.8213862168
 30
0.0
 10
1280.1253550806
 20
362.820874888
 30
0.0
  0
SPLINE
  5
65F
100
AcDbEntity
  8
0
100
AcDbSpline
 62
9
  6
CONTINUOUS
 70
0
 71
3
 72
12
 73
8
 74
0
 42
0.0000001
 43
0.0000001
 44
0.0000000001
 40
0.0
 40
0.0
 40
0.0
 40
0.0
 40
0.0304936271
 40
0.084301964
 40
0.275309163
 40
0.581180344
 40
1.0
 40
1.0
 40
1.0
 40
1.0
 10
1250.209385029
 20
398.0114737758
 30
0.0
 10
1250.2200054027
 20
398.0114021939
 30
0.0
 10
1250.2457634259
 20
397.9906908802
 30
0.0
 10
1250.2930609967
 20
397.9093535097
 30
0.0
 10
1250.3597065184
 20
397.7264522693
 30
0.0
 10
1250.4455315729
 20
397.4206486202
 30
0.0
 10
1250.5037441774
 20
397.1745205257
 30
0.0
 10
1250.5356630303
 20
397.0321849863
 30
0.0
  0
SPLINE
  5
660
100
AcDbEntity
  8
0
100
AcDbSpline
 62
7
  6
CONTINUOUS
 70
0
 71
3
 72
9
 73
5
 74
0
 42
0.0000001
 43
0.0000001
 44
0.0000000001
 40
0.0
 40
0.0
 40
0.0
 40
0.0
 40
0.4999282908
 40
1.0
 40
1.0
 40
1.0
 40
1.0
 10
1427.1833382256
 20
379.0114737758
 30
0.0
 10
1428.1580627915
 20
377.2682255351
 30
0.0
 10
1429.6398886807
 20
373.5016835048
 30
0.0
 10
1430.1253550806
 20
369.4906849068
 30
0.0
 10
1430.1253550806
 20
367.4928632303
 30
0.0
  0
SPLINE
  5
661
100
AcDbEntity
  8
0
100
AcDbSpline
 62
9
  6
CONTINUOUS
 70
0
 71
3
 72
11
 73
7
 74
0
 42
0.0000001
 43
0.0000001
 44
0.0000000001
 40
0.0
 40
0.0
 40
0.0
 40
0.0
 40
0.4120959887
 40
0.7152052372
 40
0.9083204101
 40
1.0
 40
1.0
 40
1.0
 40
1.0
 10
1313.7032027151
 20
393.2383510472
 30
0.0
 10
1313.7361469575
 20
393.3510429079
 30
0.0
 10
1313.7952478773
 20
393.5441744364
 30
0.0
 10
1313.887279423
 20
393.7925321334
 30
0.0
 10
1313.9539809361
 20
393.9342189935
 30
0.0
 10
1314.0128105987
 20
394.0114055647
 30
0.0
 10
1314.0389305698
 20
394.0114737758
 30
0.0
  0
SPLINE
  5
662
100
AcDbEntity
  8
0
100
AcDbSpline
 62
9
  6
CONTINUOUS
 70
0
 71
3
 72
15
 73
11
 74
0
 42
0.0000001
 43
0.0000001
 44
0.0000000001
 40
0.0
 40
0.0
 40
0.0
 40
0.0
 40
0.127466992
 40
0.2546027908
 40
0.3810396011
 40
0.5065933588
 40
0.6311509392
 40
0.7547558283
 40
0.8776166907
 40
1.0
 40
1.0
 40
1.0
 40
1.0
 10
1240.1298639176
 20
393.2383577508
 30
0.0
 10
1238.822763051
 20
393.2383927558
 30
0.0
 10
1236.2052100194
 20
392.9913391145
 30
0.0
 10
1232.4323541813
 20
391.8914910367
 30
0.0
 10
1228.9528429563
 20
390.1037045927
 30
0.0
 10
1225.9015661768
 20
387.6978584437
 30
0.0
 10
1223.3960082075
 20
384.765276436
 30
0.0
 10
1221.5323122778
 20
381.4187785417
 30
0.0
 10
1220.384256018
 20
377.7887019755
 30
0.0
 10
1220.126041208
 20
375.2664442117
 30
0.0
 10
1220.1253550806
 20
374.0114737817
 30
0.0
  0
SPLINE
  5
663
100
AcDbEntity
  8
0
100
AcDbSpline
 62
9
  6
CONTINUOUS
 70
0
 71
3
 72
15
 73
11
 74
0
 42
0.0000001
 43
0.0000001
 44
0.0000000001
 40
0.0
 40
0.0
 40
0.0
 40
0.0
 40
0.0098743274
 40
0.0265049362
 40
0.0850512979
 40
0.1776543353
 40
0.3011060166
 40
0.4510767639
 40
0.6220581497
 40
1.0
 40
1.0
 40
1.0
 40
1.0
 10
1430.1253550855
 20
65.6141202774
 30
0.0
 10
1430.1253550729
 20
65.6007872153
 30
0.0
 10
1430.1500314362
 20
65.5686191432
 30
0.0
 10
1430.2525022154
 20
65.5189880078
 30
0.0
 10
1430.4748349395
 20
65.4625836518
 30
0.0
 10
1430.8403184491
 20
65.4061083198
 30
0.0
 10
1431.3324688761
 20
65.3544791001
 30
0.0
 10
1431.9309296833
 20
65.3118998502
 30
0.0
 10
1432.8737304945
 20
65.2678199756
 30
0.0
 10
1433.615029475
 20
65.2557884854
 30
0.0
 10
1434.1253550806
 20
65.2557884846
 30
0.0
  0
SPLINE
  5
664
100
AcDbEntity
  8
0
100
AcDbSpline
 62
9
  6
CONTINUOUS
 70
0
 71
3
 72
29
 73
25
 74
0
 42
0.0000001
 43
0.0000001
 44
0.0000000001
 40
0.0
 40
0.0
 40
0.0
 40
0.0
 40
0.1546688766
 40
0.2958490362
 40
0.5245890941
 40
0.61468902
 40
0.6914462907
 40
0.7567655219
 40
0.8122009971
 40
0.8589771725
 40
0.8980402651
 40
0.9301105399
 40
0.9557278802
 40
0.9662450308
 40
0.9752891342
 40
0.9828903093
 40
0.9890760557
 40
0.9938666934
 40
0.995743425
 40
0.9972768289
 40
0.9984686152
 40
0.9993195831
 40
0.9998299689
 40
1.0
 40
1.0
 40
1.0
 40
1.0
 10
1434.0831162397
 20
64.0114737758
 30
0.0
 10
1433.97742071
 20
62.4226477252
 30
0.0
 10
1433.4224544731
 20
59.4093603774
 30
0.0
 10
1431.9136915288
 20
54.2248437816
 30
0.0
 10
1430.4227784299
 20
49.728153342
 30
0.0
 10
1429.259878612
 20
45.8246933596
 30
0.0
 10
1428.6359078623
 20
43.5169511626
 30
0.0
 10
1428.1631610902
 20
41.5389373812
 30
0.0
 10
1427.8132881527
 20
39.8497758251
 30
0.0
 10
1427.5602883443
 20
38.4173070419
 30
0.0
 10
1427.3816524613
 20
37.2164926699
 30
0.0
 10
1427.2587672952
 20
36.2279578484
 30
0.0
 10
1427.186287484
 20
35.529490619
 30
0.0
 10
1427.144396021
 20
35.0662534911
 30
0.0
 10
1427.1211579488
 20
34.7875864045
 30
0.0
 10
1427.1030891907
 20
34.5532062676
 30
0.0
 10
1427.0894153077
 20
34.3625069366
 30
0.0
 10
1427.0803042278
 20
34.2303361017
 30
0.0
 10
1427.0750132606
 20
34.146316159
 30
0.0
 10
1427.0715787301
 20
34.0985551946
 30
0.0
 10
1427.0703433411
 20
34.063047614
 30
0.0
 10
1427.0662507736
 20
34.0340189765
 30
0.0
 10
1427.0695596846
 20
34.0231834369
 30
0.0
 10
1427.064691895
 20
34.0111222154
 30
0.0
 10
1427.0664102927
 20
34.0114558916
 30
0.0
  0
SPLINE
  5
665
100
AcDbEntity
  8
0
100
AcDbSpline
 62
9
  6
CONTINUOUS
 70
0
 71
3
 72
17
 73
13
 74
0
 42
0.0000001
 43
0.0000001
 44
0.0000000001
 40
0.0
 40
0.0
 40
0.0
 40
0.0
 40
0.0711056316
 40
0.156620582
 40
0.2565283603
 40
0.3707971924
 40
0.4997666217
 40
0.644855248
 40
0.7246444067
 40
0.8103099266
 40
0.9025453242
 40
1.0
 40
1.0
 40
1.0
 40
1.0
 10
1246.5475074462
 20
393.2383510473
 30
0.0
 10
1246.8210593346
 20
392.0827207034
 30
0.0
 10
1247.6302337341
 20
389.586482932
 30
0.0
 10
1249.3573191421
 20
385.6607613621
 30
0.0
 10
1251.7460667766
 20
381.2560405212
 30
0.0
 10
1254.8705815387
 20
376.4438131634
 30
0.0
 10
1258.8799515864
 20
371.3342100313
 30
0.0
 10
1263.0754570892
 20
367.1358886914
 30
0.0
 10
1267.2196636506
 20
364.0014015823
 30
0.0
 10
1270.9681663426
 20
361.854917906
 30
0.0
 10
1275.3171815418
 20
360.2744393004
 30
0.0
 10
1278.497723439
 20
359.8784873837
 30
0.0
 10
1280.1253550806
 20
359.8770113861
 30
0.0
  0
SPLINE
  5
666
100
AcDbEntity
  8
0
100
AcDbSpline
 62
9
  6
CONTINUOUS
 70
0
 71
3
 72
17
 73
13
 74
0
 42
0.0000001
 43
0.0000001
 44
0.0000000001
 40
0.0
 40
0.0
 40
0.0
 40
0.0
 40
0.0974650633
 40
0.1897054888
 40
0.2753744457
 40
0.355163323
 40
0.5002480883
 40
0.6292108628
 40
0.7434769967
 40
0.8433833021
 40
0.9288966659
 40
1.0
 40
1.0
 40
1.0
 40
1.0
 10
1280.1253550806
 20
359.8770113861
 30
0.0
 10
1281.7531614068
 20
359.8784808323
 30
0.0
 10
1284.9339956482
 20
360.2743848219
 30
0.0
 10
1289.2831863482
 20
361.8553195372
 30
0.0
 10
1293.0318391394
 20
364.0018001024
 30
0.0
 10
1297.1759594164
 20
367.1364003467
 30
0.0
 10
1301.3712956933
 20
371.3346413633
 30
0.0
 10
1305.380304616
 20
376.444251132
 30
0.0
 10
1308.5047871351
 20
381.2562802945
 30
0.0
 10
1310.8935134684
 20
385.6609126082
 30
0.0
 10
1312.6205043867
 20
389.5865808603
 30
0.0
 10
1313.4296606339
 20
392.0827569218
 30
0.0
 10
1313.7032027151
 20
393.2383510472
 30
0.0
  0
SPLINE
  5
667
100
AcDbEntity
  8
0
100
AcDbSpline
 62
9
  6
CONTINUOUS
 70
0
 71
3
 72
25
 73
21
 74
0
 42
0.0000001
 43
0.0000001
 44
0.0000000001
 40
0.0
 40
0.0
 40
0.0
 40
0.0
 40
0.0005897244
 40
0.0023074126
 40
0.0051199181
 40
0.008994087
 40
0.0197948222
 40
0.0344065972
 40
0.0524006447
 40
0.0733226642
 40
0.0967286517
 40
0.1222832285
 40
0.1787730053
 40
0.2407892967
 40
0.3070774414
 40
0.3766902019
 40
0.5233926568
 40
0.6774027069
 40
0.8367056204
 40
1.0
 40
1.0
 40
1.0
 40
1.0
 10
75.9303559878
 20
362.820874888
 30
0.0
 10
75.9314425373
 20
362.8245670061
 30
0.0
 10
75.9442775862
 20
362.8344591375
 30
0.0
 10
75.9627850562
 20
362.8615993867
 30
0.0
 10
75.9998730748
 20
362.9026040799
 30
0.0
 10
76.0727709214
 20
362.9901047823
 30
0.0
 10
76.1976500225
 20
363.1350380474
 30
0.0
 10
76.3821494643
 20
363.3498899208
 30
0.0
 10
76.6116267242
 20
363.6133263854
 30
0.0
 10
76.880596247
 20
363.9184117707
 30
0.0
 10
77.1848823387
 20
364.258143596
 30
0.0
 10
77.6480600684
 20
364.7671447981
 30
0.0
 10
78.2892128092
 20
365.4548508695
 30
0.0
 10
79.1267170154
 20
366.3227127036
 30
0.0
 10
80.0389882239
 20
367.2372002497
 30
0.0
 10
81.362972698
 20
368.5212959462
 30
0.0
 10
83.1388023972
 20
370.1612896023
 30
0.0
 10
85.4047510446
 20
372.1313080519
 30
0.0
 10
87.8093342934
 20
374.104953877
 30
0.0
 10
89.4725739761
 20
375.3962086732
 30
0.0
 10
90.3227403227
 20
376.0388028896
 30
0.0
  0
SPLINE
  5
668
100
AcDbEntity
  8
0
100
AcDbSpline
 62
9
  6
CONTINUOUS
 70
0
 71
3
 72
29
 73
25
 74
0
 42
0.0000001
 43
0.0000001
 44
0.0000000001
 40
0.0
 40
0.0
 40
0.0
 40
0.0
 40
0.0311544381
 40
0.0620560342
 40
0.092930365
 40
0.1239102847
 40
0.1550215441
 40
0.186240277
 40
0.2488483347
 40
0.3115946596
 40
0.3743863977
 40
0.4371913374
 40
0.5000002526
 40
0.5628100024
 40
0.6256157909
 40
0.6884079646
 40
0.7511544732
 40
0.8137625627
 40
0.8449812746
 40
0.8760924764
 40
0.9070722937
 40
0.937945833
 40
0.9688458794
 40
1.0
 40
1.0
 40
1.0
 40
1.0
 10
112.0485986506
 20
64.2171131893
 30
0.0
 10
112.1862840324
 20
62.541613209
 30
0.0
 10
113.0458386619
 20
59.2365466055
 30
0.0
 10
115.6047946794
 20
54.8757924095
 30
0.0
 10
118.9557312464
 20
51.1248267857
 30
0.0
 10
122.8233985989
 20
47.9089740142
 30
0.0
 10
127.03952114
 20
45.1409820395
 30
0.0
 10
132.9900487456
 20
41.9573563567
 30
0.0
 10
140.854573341
 20
38.8010811297
 30
0.0
 10
150.6426242134
 20
36.0518669859
 30
0.0
 10
160.6434885569
 20
34.1770114196
 30
0.0
 10
170.7605823941
 20
33.084280498
 30
0.0
 10
180.9304439013
 20
32.7250396058
 30
0.0
 10
191.1003503335
 20
33.0843004754
 30
0.0
 10
201.2175573929
 20
34.1770520785
 30
0.0
 10
211.2184933316
 20
36.0519583181
 30
0.0
 10
221.0065676992
 20
38.801221253
 30
0.0
 10
228.8710818194
 20
41.9575508052
 30
0.0
 10
234.8215891893
 20
45.1412104455
 30
0.0
 10
239.0376730026
 20
47.9092431293
 30
0.0
 10
242.9052708519
 20
51.1251025015
 30
0.0
 10
246.2560599068
 20
54.8760148022
 30
0.0
 10
248.8149422603
 20
59.2366577154
 30
0.0
 10
249.6743716414
 20
62.5416350271
 30
0.0
 10
249.8121133251
 20
64.2171131893
 30
0.0
  0
SPLINE
  5
669
100
AcDbEntity
  8
0
100
AcDbSpline
 62
9
  6
CONTINUOUS
 70
0
 71
3
 72
28
 73
24
 74
0
 42
0.0000001
 43
0.0000001
 44
0.0000000001
 40
0.0
 40
0.0
 40
0.0
 40
0.0
 40
0.0312438292
 40
0.0624861309
 40
0.0937322202
 40
0.1249843308
 40
0.1562429756
 40
0.1875047216
 40
0.2499993392
 40
0.31251288
 40
0.3750348962
 40
0.4375612193
 40
0.5000900181
 40
0.5626191855
 40
0.6251463615
 40
0.6876689888
 40
0.7501826604
 40
0.8126772824
 40
0.8751241501
 40
0.9063751575
 40
0.9376094243
 40
0.9688170826
 40
1.0
 40
1.0
 40
1.0
 40
1.0
 10
249.8583337833
 20
65.614139418
 30
0.0
 10
249.7055186518
 20
67.3106353801
 30
0.0
 10
248.9049988297
 20
70.6746548079
 30
0.0
 10
246.4808914987
 20
75.2212747221
 30
0.0
 10
243.198234487
 20
79.1739239085
 30
0.0
 10
239.3483335476
 20
82.5598652535
 30
0.0
 10
235.1228586504
 20
85.4549234453
 30
0.0
 10
229.1507125035
 20
88.7553087254
 30
0.0
 10
221.24010268
 20
91.9939532743
 30
0.0
 10
211.3893220742
 20
94.7861484273
 30
0.0
 10
201.3274734921
 20
96.6760806709
 30
0.0
 10
191.1506039277
 20
97.7722484074
 30
0.0
 10
180.9215654785
 20
98.1314363012
 30
0.0
 10
170.6925929611
 20
97.7710087733
 30
0.0
 10
160.515553771
 20
96.6734915998
 30
0.0
 10
150.454644919
 20
94.7822586905
 30
0.0
 10
140.601478339
 20
91.9876691726
 30
0.0
 10
131.1235826676
 20
88.1030973789
 30
0.0
 10
123.778815696
 20
83.6745310783
 30
0.0
 10
118.6503874402
 20
79.1619143734
 30
0.0
 10
115.3718503575
 20
75.2089366628
 30
0.0
 10
112.9531878945
 20
70.6662627874
 30
0.0
 10
112.1546956664
 20
67.3073266276
 30
0.0
 10
112.0023741464
 20
65.6141204769
 30
0.0
  0
SPLINE
  5
66A
100
AcDbEntity
  8
0
100
AcDbSpline
 62
9
  6
CONTINUOUS
 70
0
 71
3
 72
11
 73
7
 74
0
 42
0.0000001
 43
0.0000001
 44
0.0000000001
 40
0.0
 40
0.0
 40
0.0
 40
0.0
 40
0.2500047083
 40
0.5000083304
 40
0.7500077661
 40
1.0
 40
1.0
 40
1.0
 40
1.0
 10
-737.0439197816
 20
260.2094324225
 30
0.0
 10
-737.0555200499
 20
259.8513124963
 30
0.0
 10
-737.0031452384
 20
259.1304001448
 30
0.0
 10
-736.7017210851
 20
258.0906682498
 30
0.0
 10
-736.19020865
 20
257.1365376405
 30
0.0
 10
-735.7222516169
 20
256.5854224397
 30
0.0
 10
-735.4625178984
 20
256.3386228617
 30
0.0
  0
LINE
  5
66B
100
AcDbEntity
  8
0
100
AcDbLine
 62
9
  6
CONTINUOUS
 10
-741.5392988817
 20
269.7619581145
 11
-741.5392988816
 21
254.0114737758
  0
LINE
  5
66C
100
AcDbEntity
  8
0
100
AcDbLine
 62
9
  6
CONTINUOUS
 10
-741.5392988817
 20
114.011473775
 11
-741.5392988815
 21
98.2609894367
  0
SPLINE
  5
66D
100
AcDbEntity
  8
0
100
AcDbSpline
 62
9
  6
CONTINUOUS
 70
0
 71
3
 72
17
 73
13
 74
0
 42
0.0000001
 43
0.0000001
 44
0.0000000001
 40
0.0
 40
0.0
 40
0.0
 40
0.0
 40
0.0310016494
 40
0.0572432913
 40
0.0916106178
 40
0.1341244559
 40
0.184564568
 40
0.2425531017
 40
0.3076036255
 40
0.4565145226
 40
0.6258725101
 40
1.0
 40
1.0
 40
1.0
 40
1.0
 10
-672.0392988783
 20
192.0114737758
 30
0.0
 10
-672.0393081451
 20
191.9691613688
 30
0.0
 10
-672.1114180655
 20
191.9067493953
 30
0.0
 10
-672.2195833469
 20
191.8550868668
 30
0.0
 10
-672.353990196
 20
191.8068394968
 30
0.0
 10
-672.5212207241
 20
191.761706654
 30
0.0
 10
-672.7228228917
 20
191.7179113917
 30
0.0
 10
-672.955974972
 20
191.6768192126
 30
0.0
 10
-673.3233675666
 20
191.6234998276
 30
0.0
 10
-673.8437838697
 20
191.5682311176
 30
0.0
 10
-674.7866059198
 20
191.5022231509
 30
0.0
 10
-675.5286733062
 20
191.4839960228
 30
0.0
 10
-676.0392988783
 20
191.4840012483
 30
0.0
  0
SPLINE
  5
66E
100
AcDbEntity
  8
0
100
AcDbSpline
 62
9
  6
CONTINUOUS
 70
0
 71
3
 72
11
 73
7
 74
0
 42
0.0000001
 43
0.0000001
 44
0.0000000001
 40
0.0
 40
0.0
 40
0.0
 40
0.0
 40
0.2498447431
 40
0.4986303534
 40
0.7481823148
 40
1.0
 40
1.0
 40
1.0
 40
1.0
 10
-741.0371203151
 20
95.1384904296
 30
0.0
 10
-740.9612800506
 20
94.852437686
 30
0.0
 10
-740.7732480786
 20
94.2901837617
 30
0.0
 10
-740.3604325457
 20
93.5007330452
 30
0.0
 10
-739.7952437657
 20
92.8060067412
 30
0.0
 10
-739.3058729468
 20
92.4516650895
 30
0.0
 10
-739.0392988783
 20
92.3178562961
 30
0.0
  0
SPLINE
  5
66F
100
AcDbEntity
  8
0
100
AcDbSpline
 62
9
  6
CONTINUOUS
 70
0
 71
3
 72
11
 73
7
 74
0
 42
0.0000001
 43
0.0000001
 44
0.0000000001
 40
0.0
 40
0.0
 40
0.0
 40
0.0
 40
0.2518297471
 40
0.5014044018
 40
0.7501893398
 40
1.0
 40
1.0
 40
1.0
 40
1.0
 10
-739.0392988783
 20
275.7050910158
 30
0.0
 10
-739.3054136631
 20
275.5705821101
 30
0.0
 10
-739.7937066207
 20
275.2152238874
 30
0.0
 10
-740.3582487971
 20
274.5205052343
 30
0.0
 10
-740.7716594661
 20
273.731820566
 30
0.0
 10
-740.960684544
 20
273.1701971054
 30
0.0
 10
-741.0371201681
 20
272.884457122
 30
0.0
  0
SPLINE
  5
670
100
AcDbEntity
  8
0
100
AcDbSpline
 62
9
  6
CONTINUOUS
 70
0
 71
3
 72
26
 73
22
 74
0
 42
0.0000001
 43
0.0000001
 44
0.0000000001
 40
0.0
 40
0.0
 40
0.0
 40
0.0
 40
0.2158186368
 40
0.4124940168
 40
0.5857231353
 40
0.6623897961
 40
0.7318971924
 40
0.7939078478
 40
0.8481319189
 40
0.8943283627
 40
0.9323060897
 40
0.9481671377
 40
0.9619249371
 40
0.9735700186
 40
0.9830961566
 40
0.9905003691
 40
0.9957829041
 40
0.9976294971
 40
0.998947234
 40
0.9997370134
 40
1.0
 40
1.0
 40
1.0
 40
1.0
 10
-741.2991658115
 20
271.7980437039
 30
0.0
 10
-741.3105508187
 20
271.6509430103
 30
0.0
 10
-741.3346222942
 20
271.3699633664
 30
0.0
 10
-741.3747562969
 20
270.9715483503
 30
0.0
 10
-741.4094592514
 20
270.668226654
 30
0.0
 10
-741.4364587733
 20
270.4515466939
 30
0.0
 10
-741.4549646412
 20
270.3104321115
 30
0.0
 10
-741.4722873984
 20
270.1846390588
 30
0.0
 10
-741.4881580483
 20
270.0747349346
 30
0.0
 10
-741.5023145656
 20
269.9811859393
 30
0.0
 10
-741.5130219352
 20
269.9136409307
 30
0.0
 10
-741.5205291988
 20
269.8680441826
 30
0.0
 10
-741.5252176453
 20
269.8402254878
 30
0.0
 10
-741.5292881219
 20
269.8167009721
 30
0.0
 10
-741.5326771186
 20
269.7974491946
 30
0.0
 10
-741.5354293494
 20
269.782547818
 30
0.0
 10
-741.5371608965
 20
269.7726967152
 30
0.0
 10
-741.5383528714
 20
269.7671351464
 30
0.0
 10
-741.5386761966
 20
269.7642977085
 30
0.0
 10
-741.539316778
 20
269.7630297903
 30
0.0
 10
-741.5391138953
 20
269.7619897826
 30
0.0
 10
-741.5392893331
 20
269.7619504805
 30
0.0
  0
SPLINE
  5
671
100
AcDbEntity
  8
0
100
AcDbSpline
 62
9
  6
CONTINUOUS
 70
0
 71
3
 72
9
 73
5
 74
0
 42
0.0000001
 43
0.0000001
 44
0.0000000001
 40
0.0
 40
0.0
 40
0.0
 40
0.0
 40
0.2545525327
 40
1.0
 40
1.0
 40
1.0
 40
1.0
 10
-741.0371201614
 20
272.8844571378
 30
0.0
 10
-741.0756836593
 20
272.7975241963
 30
0.0
 10
-741.2094367037
 20
272.4481559434
 30
0.0
 10
-741.2776755207
 20
272.0757173207
 30
0.0
 10
-741.2991658115
 20
271.7980437039
 30
0.0
  0
SPLINE
  5
672
100
AcDbEntity
  8
0
100
AcDbSpline
 62
9
  6
CONTINUOUS
 70
0
 71
3
 72
26
 73
22
 74
0
 42
0.0000001
 43
0.0000001
 44
0.0000000001
 40
0.0
 40
0.0
 40
0.0
 40
0.0
 40
0.000262404
 40
0.0010504725
 40
0.0023654235
 40
0.0042082119
 40
0.0094803035
 40
0.0168706783
 40
0.0263800533
 40
0.0380059254
 40
0.0517425554
 40
0.0675809664
 40
0.1055109983
 40
0.151659851
 40
0.20584038
 40
0.2678153494
 40
0.3372984683
 40
0.4139554087
 40
0.5872180932
 40
0.7840043199
 40
1.0
 40
1.0
 40
1.0
 40
1.0
 10
-741.5392893341
 20
98.2609970702
 30
0.0
 10
-741.5391134218
 20
98.2609618829
 30
0.0
 10
-741.539312384
 20
98.2599153872
 30
0.0
 10
-741.5386656193
 20
98.2586606922
 30
0.0
 10
-741.5383306315
 20
98.2558263143
 30
0.0
 10
-741.5371154237
 20
98.2502837415
 30
0.0
 10
-741.5353450533
 20
98.2404567502
 30
0.0
 10
-741.5325369084
 20
98.2255944537
 30
0.0
 10
-741.5290797444
 20
98.2063880386
 30
0.0
 10
-741.5249306458
 20
98.182915825
 30
0.0
 10
-741.5201547282
 20
98.1551542232
 30
0.0
 10
-741.5125124992
 20
98.1096409653
 30
0.0
 10
-741.5016258571
 20
98.0422026758
 30
0.0
 10
-741.4872572591
 20
97.9487771091
 30
0.0
 10
-741.4711798107
 20
97.8389848704
 30
0.0
 10
-741.4536700995
 20
97.7132825294
 30
0.0
 10
-741.4350125544
 20
97.5722285481
 30
0.0
 10
-741.4078709417
 20
97.3555552928
 30
0.0
 10
-741.3731880919
 20
97.0521214299
 30
0.0
 10
-741.3335050628
 20
96.6534179082
 30
0.0
 10
-741.3101005831
 20
96.3721675063
 30
0.0
 10
-741.2991659199
 20
96.22490378
 30
0.0
  0
SPLINE
  5
673
100
AcDbEntity
  8
0
100
AcDbSpline
 62
9
  6
CONTINUOUS
 70
0
 71
3
 72
9
 73
5
 74
0
 42
0.0000001
 43
0.0000001
 44
0.0000000001
 40
0.0
 40
0.0
 40
0.0
 40
0.0
 40
0.2457070416
 40
1.0
 40
1.0
 40
1.0
 40
1.0
 10
-741.2991659199
 20
96.22490378
 30
0.0
 10
-741.2923710183
 20
96.1333904591
 30
0.0
 10
-741.251161765
 20
95.7622313126
 30
0.0
 10
-741.1504957079
 20
95.3963778789
 30
0.0
 10
-741.0371203058
 20
95.1384904072
 30
0.0
  0
SPLINE
  5
674
100
AcDbEntity
  8
0
100
AcDbSpline
 62
9
  6
CONTINUOUS
 70
0
 71
3
 72
17
 73
13
 74
0
 42
0.0000001
 43
0.0000001
 44
0.0000000001
 40
0.0
 40
0.0
 40
0.0
 40
0.0
 40
0.1196168409
 40
0.2395081303
 40
0.3599957248
 40
0.4815289086
 40
0.6048071179
 40
0.7310216175
 40
0.795965457
 40
0.8624655729
 40
0.9306353425
 40
1.0
 40
1.0
 40
1.0
 40
1.0
 10
-672.0392988783
 20
271.0114737758
 30
0.0
 10
-672.0393101756
 20
271.265664303
 30
0.0
 10
-672.0625280095
 20
271.774941088
 30
0.0
 10
-672.1686567399
 20
272.5336858527
 30
0.0
 10
-672.351224916
 20
273.2822413429
 30
0.0
 10
-672.6202180599
 20
274.0125854562
 30
0.0
 10
-672.9924954393
 20
274.7107231812
 30
0.0
 10
-673.410355199
 20
275.2395901345
 30
0.0
 10
-673.8262715761
 20
275.5983402711
 30
0.0
 10
-674.1892248157
 20
275.8222172441
 30
0.0
 10
-674.5984502757
 20
275.9748245818
 30
0.0
 10
-674.8918962323
 20
276.0114813054
 30
0.0
 10
-675.0392988783
 20
276.0114737758
 30
0.0
  0
SPLINE
  5
675
100
AcDbEntity
  8
0
100
AcDbSpline
 62
9
  6
CONTINUOUS
 70
0
 71
3
 72
13
 73
9
 74
0
 42
0.0000001
 43
0.0000001
 44
0.0000000001
 40
0.0
 40
0.0
 40
0.0
 40
0.0
 40
0.1325627091
 40
0.2266627794
 40
0.3419355428
 40
0.4782948564
 40
0.634644537
 40
1.0
 40
1.0
 40
1.0
 40
1.0
 10
-740.0392988783
 20
271.0114737758
 30
0.0
 10
-740.0392988783
 20
271.079301044
 30
0.0
 10
-740.1068211977
 20
271.1890935703
 30
0.0
 10
-740.2352268563
 20
271.3045669328
 30
0.0
 10
-740.381851978
 20
271.4057111518
 30
0.0
 10
-740.5644452443
 20
271.5067793864
 30
0.0
 10
-740.8700270687
 20
271.6489003999
 30
0.0
 10
-741.1213817136
 20
271.7402614724
 30
0.0
 10
-741.2991658115
 20
271.7980437039
 30
0.0
  0
LINE
  5
676
100
AcDbEntity
  8
0
100
AcDbLine
 62
9
  6
CONTINUOUS
 10
-705.7419737521
 20
226.8902440354
 11
-705.4393758167
 21
226.6271748603
  0
LINE
  5
677
100
AcDbEntity
  8
0
100
AcDbLine
 62
9
  6
CONTINUOUS
 10
-705.4393758167
 20
141.3957726794
 11
-705.7419737521
 21
141.1327035162
  0
SPLINE
  5
678
100
AcDbEntity
  8
0
100
AcDbSpline
 62
9
  6
CONTINUOUS
 70
0
 71
3
 72
17
 73
13
 74
0
 42
0.0000001
 43
0.0000001
 44
0.0000000001
 40
0.0
 40
0.0
 40
0.0
 40
0.0
 40
0.069366526
 40
0.1375361153
 40
0.2040343917
 40
0.2689775419
 40
0.3951913977
 40
0.5184692822
 40
0.6400027041
 40
0.7604906685
 40
0.88038269
 40
1.0
 40
1.0
 40
1.0
 40
1.0
 10
-675.0392988783
 20
92.0114737758
 30
0.0
 10
-674.8918922679
 20
92.0114662455
 30
0.0
 10
-674.5984426698
 20
92.0481244346
 30
0.0
 10
-674.1892183731
 20
92.2007338485
 30
0.0
 10
-673.8262709832
 20
92.4246089416
 30
0.0
 10
-673.410358991
 20
92.7833536961
 30
0.0
 10
-672.9925005897
 20
93.312217179
 30
0.0
 10
-672.6202223242
 20
94.0103526686
 30
0.0
 10
-672.351228919
 20
94.7406972701
 30
0.0
 10
-672.1686574195
 20
95.4892548224
 30
0.0
 10
-672.0625282544
 20
96.2480029895
 30
0.0
 10
-672.0393108124
 20
96.7572822628
 30
0.0
 10
-672.0392988783
 20
97.0114737758
 30
0.0
  0
SPLINE
  5
679
100
AcDbEntity
  8
0
100
AcDbSpline
 62
9
  6
CONTINUOUS
 70
0
 71
3
 72
15
 73
11
 74
0
 42
0.0000001
 43
0.0000001
 44
0.0000000001
 40
0.0
 40
0.0
 40
0.0
 40
0.0
 40
0.1235858319
 40
0.2473764065
 40
0.3715641129
 40
0.4962744733
 40
0.62155484
 40
0.7473615942
 40
0.8735716456
 40
1.0
 40
1.0
 40
1.0
 40
1.0
 10
-672.0392988783
 20
139.3656453032
 30
0.0
 10
-672.0392979761
 20
139.6214072983
 30
0.0
 10
-672.0908475853
 20
140.1348274325
 30
0.0
 10
-672.3198196465
 20
140.8740195563
 30
0.0
 10
-672.6916622903
 20
141.5556126218
 30
0.0
 10
-673.192166049
 20
142.1530516903
 30
0.0
 10
-673.8021136738
 20
142.6435066771
 30
0.0
 10
-674.498241198
 20
143.0080337371
 30
0.0
 10
-675.2534194904
 20
143.2325602784
 30
0.0
 10
-675.7776542571
 20
143.283092874
 30
0.0
 10
-676.0392988783
 20
143.283092757
 30
0.0
  0
SPLINE
  5
67A
100
AcDbEntity
  8
0
100
AcDbSpline
 62
9
  6
CONTINUOUS
 70
0
 71
3
 72
17
 73
13
 74
0
 42
0.0000001
 43
0.0000001
 44
0.0000000001
 40
0.0
 40
0.0
 40
0.0
 40
0.0
 40
0.3741274899
 40
0.5434854774
 40
0.6923963745
 40
0.7574468983
 40
0.815435432
 40
0.8658755442
 40
0.9083893822
 40
0.9427567087
 40
0.9689983507
 40
1.0
 40
1.0
 40
1.0
 40
1.0
 10
-676.0392988783
 20
176.5389463032
 30
0.0
 10
-675.5286733062
 20
176.5389515288
 30
0.0
 10
-674.7866059198
 20
176.5207244005
 30
0.0
 10
-673.8437838697
 20
176.454716434
 30
0.0
 10
-673.3233675666
 20
176.3994477238
 30
0.0
 10
-672.955974972
 20
176.3461283391
 30
0.0
 10
-672.7228228917
 20
176.3050361598
 30
0.0
 10
-672.5212207242
 20
176.2612408972
 30
0.0
 10
-672.353990196
 20
176.216108055
 30
0.0
 10
-672.2195833466
 20
176.1678606853
 30
0.0
 10
-672.1114180659
 20
176.1161981554
 30
0.0
 10
-672.0393081455
 20
176.0537861825
 30
0.0
 10
-672.0392988783
 20
176.0114737758
 30
0.0
  0
SPLINE
  5
67B
100
AcDbEntity
  8
0
100
AcDbSpline
 62
9
  6
CONTINUOUS
 70
0
 71
3
 72
15
 73
11
 74
0
 42
0.0000001
 43
0.0000001
 44
0.0000000001
 40
0.0
 40
0.0
 40
0.0
 40
0.0
 40
0.1264284987
 40
0.2526386568
 40
0.378445447
 40
0.5037258607
 40
0.6284362738
 40
0.7526238955
 40
0.8764143201
 40
1.0
 40
1.0
 40
1.0
 40
1.0
 10
-676.0392988783
 20
224.7398547945
 30
0.0
 10
-675.7776539572
 20
224.739854672
 30
0.0
 10
-675.2534186635
 20
224.7903873699
 30
0.0
 10
-674.4982398476
 20
225.0149142902
 30
0.0
 10
-673.802112113
 20
225.379441812
 30
0.0
 10
-673.1921644607
 20
225.8698972241
 30
0.0
 10
-672.6916611009
 20
226.4673367388
 30
0.0
 10
-672.3198191887
 20
227.1489296029
 30
0.0
 10
-672.0908466555
 20
227.8881210705
 30
0.0
 10
-672.0392998077
 20
228.4015405664
 30
0.0
 10
-672.0392988783
 20
228.6573022483
 30
0.0
  0
SPLINE
  5
67C
100
AcDbEntity
  8
0
100
AcDbSpline
 62
9
  6
CONTINUOUS
 70
0
 71
3
 72
19
 73
15
 74
0
 42
0.0000001
 43
0.0000001
 44
0.0000000001
 40
0.0
 40
0.0
 40
0.0
 40
0.0
 40
0.0091889145
 40
0.0161570263
 40
0.0251457512
 40
0.0495863899
 40
0.0827986511
 40
0.1246579078
 40
0.1748326683
 40
0.2983065553
 40
0.4486739301
 40
0.6202244766
 40
0.8063855634
 40
1.0
 40
1.0
 40
1.0
 40
1.0
 10
-738.2153163949
 20
94.2515855895
 30
0.0
 10
-738.2212902429
 20
94.2541311093
 30
0.0
 10
-738.2341466399
 20
94.2503023266
 30
0.0
 10
-738.2477958439
 20
94.2394854619
 30
0.0
 10
-738.2680037878
 20
94.218985482
 30
0.0
 10
-738.2955831972
 20
94.1807333565
 30
0.0
 10
-738.3321905524
 20
94.1206313295
 30
0.0
 10
-738.3740271768
 20
94.0426033162
 30
0.0
 10
-738.4412404583
 20
93.9059205086
 30
0.0
 10
-738.533871384
 20
93.696433894
 30
0.0
 10
-738.6522648215
 20
93.4047762094
 30
0.0
 10
-738.7794787409
 20
93.0689891828
 30
0.0
 10
-738.9105606501
 20
92.702074378
 30
0.0
 10
-738.9965348846
 20
92.4478241087
 30
0.0
 10
-739.0392988783
 20
92.3178562961
 30
0.0
  0
SPLINE
  5
67D
100
AcDbEntity
  8
0
100
AcDbSpline
 62
9
  6
CONTINUOUS
 70
0
 71
3
 72
15
 73
11
 74
0
 42
0.0000001
 43
0.0000001
 44
0.0000000001
 40
0.0
 40
0.0
 40
0.0
 40
0.0
 40
0.0320784689
 40
0.0574739942
 40
0.0900243171
 40
0.1770538395
 40
0.2928471668
 40
0.4357274718
 40
0.6032469669
 40
1.0
 40
1.0
 40
1.0
 40
1.0
 10
-739.8686500767
 20
96.0140913036
 30
0.0
 10
-739.8633899497
 20
95.9991694986
 30
0.0
 10
-739.8750873103
 20
95.9685904557
 30
0.0
 10
-739.8997388665
 20
95.9330775841
 30
0.0
 10
-739.9472016843
 20
95.8787063592
 30
0.0
 10
-740.0333904304
 20
95.8010815953
 30
0.0
 10
-740.1677332954
 20
95.6957676303
 30
0.0
 10
-740.3392076648
 20
95.5741498655
 30
0.0
 10
-740.6301879295
 20
95.3817457367
 30
0.0
 10
-740.8682675256
 20
95.2373954782
 30
0.0
 10
-741.0371203151
 20
95.1384904296
 30
0.0
  0
SPLINE
  5
67E
100
AcDbEntity
  8
0
100
AcDbSpline
 62
9
  6
CONTINUOUS
 70
0
 71
3
 72
13
 73
9
 74
0
 42
0.0000001
 43
0.0000001
 44
0.0000000001
 40
0.0
 40
0.0
 40
0.0
 40
0.0
 40
0.1335070143
 40
0.2277281042
 40
0.3429602198
 40
0.4791619809
 40
0.6352712052
 40
1.0
 40
1.0
 40
1.0
 40
1.0
 10
-740.0392988783
 20
97.0114737758
 30
0.0
 10
-740.0392988783
 20
96.9431130896
 30
0.0
 10
-740.1063902325
 20
96.8324051961
 30
0.0
 10
-740.2351171161
 20
96.716165546
 30
0.0
 10
-740.3817322966
 20
96.6148807843
 30
0.0
 10
-740.5643505376
 20
96.5139684412
 30
0.0
 10
-740.8699304623
 20
96.3724993341
 30
0.0
 10
-741.1213492606
 20
96.281988705
 30
0.0
 10
-741.2991659199
 20
96.22490378
 30
0.0
  0
LINE
  5
67F
100
AcDbEntity
  8
0
100
AcDbLine
 62
9
  6
CONTINUOUS
 10
-675.0392988783
 20
276.0114737758
 11
-737.0392988783
 21
276.0114982721
  0
SPLINE
  5
680
100
AcDbEntity
  8
0
100
AcDbSpline
 62
9
  6
CONTINUOUS
 70
0
 71
3
 72
13
 73
9
 74
0
 42
0.0000001
 43
0.0000001
 44
0.0000000001
 40
0.0
 40
0.0
 40
0.0
 40
0.0
 40
0.2966487855
 40
0.5661206922
 40
0.6869145523
 40
0.7980339794
 40
0.9012638156
 40
1.0
 40
1.0
 40
1.0
 40
1.0
 10
-737.1815997547
 20
176.2622772728
 30
0.0
 10
-737.1620437234
 20
176.6236495947
 30
0.0
 10
-737.0448531002
 20
177.3117073537
 30
0.0
 10
-736.6899488041
 20
178.0864689253
 30
0.0
 10
-736.296187633
 20
178.5590786441
 30
0.0
 10
-735.9729426399
 20
178.8151181304
 30
0.0
 10
-735.6214013102
 20
178.9748506798
 30
0.0
 10
-735.3736915982
 20
179.0114737758
 30
0.0
 10
-735.2532369267
 20
179.011473776
 30
0.0
  0
SPLINE
  5
681
100
AcDbEntity
  8
0
100
AcDbSpline
 62
9
  6
CONTINUOUS
 70
0
 71
3
 72
9
 73
5
 74
0
 42
0.0000001
 43
0.0000001
 44
0.0000000001
 40
0.0
 40
0.0
 40
0.0
 40
0.0
 40
0.500072959
 40
1.0
 40
1.0
 40
1.0
 40
1.0
 10
-737.0392988783
 20
276.0114982721
 30
0.0
 10
-737.3776549399
 20
276.0114981455
 30
0.0
 10
-738.0553553013
 20
275.9655909131
 30
0.0
 10
-738.7182053564
 20
275.811472276
 30
0.0
 10
-739.0392988783
 20
275.7050910158
 30
0.0
  0
SPLINE
  5
682
100
AcDbEntity
  8
0
100
AcDbSpline
 62
9
  6
CONTINUOUS
 70
0
 71
3
 72
15
 73
11
 74
0
 42
0.0000001
 43
0.0000001
 44
0.0000000001
 40
0.0
 40
0.0
 40
0.0
 40
0.0
 40
0.0314452609
 40
0.0566793922
 40
0.0891336618
 40
0.1761052156
 40
0.2919615575
 40
0.43499023
 40
0.6027193643
 40
1.0
 40
1.0
 40
1.0
 40
1.0
 10
-739.8686500496
 20
272.008856325
 30
0.0
 10
-739.8634976126
 20
272.0234726362
 30
0.0
 10
-739.8756796404
 20
272.053516699
 30
0.0
 10
-739.900318054
 20
272.0883639232
 30
0.0
 10
-739.9480318898
 20
272.1422814655
 30
0.0
 10
-740.0343232365
 20
272.2195240651
 30
0.0
 10
-740.1687121703
 20
272.3247137907
 30
0.0
 10
-740.3401113532
 20
272.4465066112
 30
0.0
 10
-740.6308469192
 20
272.6395979532
 30
0.0
 10
-740.8685593444
 20
272.7848318894
 30
0.0
 10
-741.0371201681
 20
272.884457122
 30
0.0
  0
SPLINE
  5
683
100
AcDbEntity
  8
0
100
AcDbSpline
 62
9
  6
CONTINUOUS
 70
0
 71
3
 72
13
 73
9
 74
0
 42
0.0000001
 43
0.0000001
 44
0.0000000001
 40
0.0
 40
0.0
 40
0.0
 40
0.0
 40
0.2907347026
 40
0.5612889992
 40
0.6844884193
 40
0.7982183271
 40
0.9028324914
 40
1.0
 40
1.0
 40
1.0
 40
1.0
 10
-741.5392988785
 20
176.0114737758
 30
0.0
 10
-741.5392988785
 20
176.3522384654
 30
0.0
 10
-741.4701029137
 20
177.0120667143
 30
0.0
 10
-741.2076529795
 20
177.7801298703
 30
0.0
 10
-740.8979121999
 20
178.2904811014
 30
0.0
 10
-740.6351637395
 20
178.5954326793
 30
0.0
 10
-740.341918432
 20
178.8249985522
 30
0.0
 10
-740.124446408
 20
178.9251438297
 30
0.0
 10
-740.0155143207
 20
178.9583752235
 30
0.0
  0
SPLINE
  5
684
100
AcDbEntity
  8
0
100
AcDbSpline
 62
9
  6
CONTINUOUS
 70
0
 71
3
 72
9
 73
5
 74
0
 42
0.0000001
 43
0.0000001
 44
0.0000000001
 40
0.0
 40
0.0
 40
0.0
 40
0.0
 40
0.2529322867
 40
1.0
 40
1.0
 40
1.0
 40
1.0
 10
-739.9898891892
 20
178.9658970411
 30
0.0
 10
-739.9631642247
 20
178.9734341796
 30
0.0
 10
-739.8565507394
 20
178.9997270837
 30
0.0
 10
-739.7463136258
 20
179.0114737758
 30
0.0
 10
-739.6642988785
 20
179.0114737758
 30
0.0
  0
SPLINE
  5
685
100
AcDbEntity
  8
0
100
AcDbSpline
 62
9
  6
CONTINUOUS
 70
0
 71
3
 72
19
 73
15
 74
0
 42
0.0000001
 43
0.0000001
 44
0.0000000001
 40
0.0
 40
0.0
 40
0.0
 40
0.0
 40
0.0090305996
 40
0.0159561434
 40
0.0249171024
 40
0.0493289352
 40
0.0825321479
 40
0.1243939994
 40
0.1745789897
 40
0.2980882706
 40
0.4485028555
 40
0.6201073757
 40
0.8063261773
 40
1.0
 40
1.0
 40
1.0
 40
1.0
 10
-738.2153164457
 20
273.7713619404
 30
0.0
 10
-738.2211853005
 20
273.7688611592
 30
0.0
 10
-738.2338668339
 20
273.7728688062
 30
0.0
 10
-738.2472454944
 20
273.7837109491
 30
0.0
 10
-738.2672367612
 20
273.8043245811
 30
0.0
 10
-738.2945627897
 20
273.8426609024
 30
0.0
 10
-738.3309428371
 20
273.90284683
 30
0.0
 10
-738.3725950643
 20
273.9809371846
 30
0.0
 10
-738.439621741
 20
274.1176896664
 30
0.0
 10
-738.5321755729
 20
274.3271890502
 30
0.0
 10
-738.6506847356
 20
274.6187830411
 30
0.0
 10
-738.7782230237
 20
274.9544300093
 30
0.0
 10
-738.9098284589
 20
275.3211388781
 30
0.0
 10
-738.9962701094
 20
275.5752172571
 30
0.0
 10
-739.0392988783
 20
275.7050910158
 30
0.0
  0
SPLINE
  5
686
100
AcDbEntity
  8
0
100
AcDbSpline
 62
9
  6
CONTINUOUS
 70
0
 71
3
 72
13
 73
9
 74
0
 42
0.0000001
 43
0.0000001
 44
0.0000000001
 40
0.0
 40
0.0
 40
0.0
 40
0.0
 40
0.2907347026
 40
0.5612889991
 40
0.6844884193
 40
0.7982183271
 40
0.9028324914
 40
1.0
 40
1.0
 40
1.0
 40
1.0
 10
-741.539298878
 20
192.0114737758
 30
0.0
 10
-741.539298878
 20
191.6707090863
 30
0.0
 10
-741.470102914
 20
191.0108808374
 30
0.0
 10
-741.2076529796
 20
190.2428176814
 30
0.0
 10
-740.8979122
 20
189.7324664503
 30
0.0
 10
-740.6351637396
 20
189.4275148724
 30
0.0
 10
-740.3419184323
 20
189.1979489995
 30
0.0
 10
-740.1244464083
 20
189.097803722
 30
0.0
 10
-740.0155143209
 20
189.0645723281
 30
0.0
  0
SPLINE
  5
687
100
AcDbEntity
  8
0
100
AcDbSpline
 62
9
  6
CONTINUOUS
 70
0
 71
3
 72
9
 73
5
 74
0
 42
0.0000001
 43
0.0000001
 44
0.0000000001
 40
0.0
 40
0.0
 40
0.0
 40
0.0
 40
0.2529322865
 40
1.0
 40
1.0
 40
1.0
 40
1.0
 10
-739.9898891812
 20
189.0570505082
 30
0.0
 10
-739.9631642173
 20
189.04951337
 30
0.0
 10
-739.8565507346
 20
189.0232204673
 30
0.0
 10
-739.7463136236
 20
189.0114737758
 30
0.0
 10
-739.6642988783
 20
189.0114737758
 30
0.0
  0
SPLINE
  5
688
100
AcDbEntity
  8
0
100
AcDbSpline
 62
9
  6
CONTINUOUS
 70
0
 71
3
 72
9
 73
5
 74
0
 42
0.0000001
 43
0.0000001
 44
0.0000000001
 40
0.0
 40
0.0
 40
0.0
 40
0.0
 40
0.5003743843
 40
1.0
 40
1.0
 40
1.0
 40
1.0
 10
-674.9904382457
 20
229.1965391478
 30
0.0
 10
-675.0043727833
 20
229.2328466266
 30
0.0
 10
-675.0292663919
 20
229.3067299397
 30
0.0
 10
-675.0392988634
 20
229.3846451463
 30
0.0
 10
-675.0392988783
 20
229.4234765944
 30
0.0
  0
SPLINE
  5
689
100
AcDbEntity
  8
0
100
AcDbSpline
 62
9
  6
CONTINUOUS
 70
0
 71
3
 72
13
 73
9
 74
0
 42
0.0000001
 43
0.0000001
 44
0.0000000001
 40
0.0
 40
0.0
 40
0.0
 40
0.0
 40
0.2966487467
 40
0.5661206587
 40
0.6869145348
 40
0.7980339789
 40
0.901263824
 40
1.0
 40
1.0
 40
1.0
 40
1.0
 10
-737.1815976002
 20
191.760670559
 30
0.0
 10
-737.1620416041
 20
191.3992984535
 30
0.0
 10
-737.0448511564
 20
190.7112410539
 30
0.0
 10
-736.6899473729
 20
189.9364797467
 30
0.0
 10
-736.2961866999
 20
189.4638699396
 30
0.0
 10
-735.9729420645
 20
189.2078302439
 30
0.0
 10
-735.6214010746
 20
189.0480973521
 30
0.0
 10
-735.3736915312
 20
189.0114739394
 30
0.0
 10
-735.2532369267
 20
189.0114737758
 30
0.0
  0
SPLINE
  5
68A
100
AcDbEntity
  8
0
100
AcDbSpline
 62
9
  6
CONTINUOUS
 70
0
 71
3
 72
13
 73
9
 74
0
 42
0.0000001
 43
0.0000001
 44
0.0000000001
 40
0.0
 40
0.0
 40
0.0
 40
0.0
 40
0.2962097236
 40
0.5645084469
 40
0.6850584478
 40
0.7963874562
 40
0.9002904222
 40
1.0
 40
1.0
 40
1.0
 40
1.0
 10
-705.4393758116
 20
191.6175343259
 30
0.0
 10
-705.4096003478
 20
191.2708542356
 30
0.0
 10
-705.2781343819
 20
190.6139167305
 30
0.0
 10
-704.9173946733
 20
189.8796000686
 30
0.0
 10
-704.5281109355
 20
189.4351647357
 30
0.0
 10
-704.211150295
 20
189.1949765167
 30
0.0
 10
-703.868524144
 20
189.0456170694
 30
0.0
 10
-703.6281414407
 20
189.0114737752
 30
0.0
 10
-703.5110129876
 20
189.0114737747
 30
0.0
  0
SPLINE
  5
68B
100
AcDbEntity
  8
0
100
AcDbSpline
 62
9
  6
CONTINUOUS
 70
0
 71
3
 72
15
 73
11
 74
0
 42
0.0000001
 43
0.0000001
 44
0.0000000001
 40
0.0
 40
0.0
 40
0.0
 40
0.0
 40
0.1249672828
 40
0.2499407843
 40
0.37492496
 40
0.4999450453
 40
0.6249539373
 40
0.7499658132
 40
0.8749938596
 40
1.0
 40
1.0
 40
1.0
 40
1.0
 10
-676.0392988783
 20
227.614799337
 30
0.0
 10
-675.9467922187
 20
227.61479973
 30
0.0
 10
-675.7609228493
 20
227.638728591
 30
0.0
 10
-675.5008153423
 20
227.7434133928
 30
0.0
 10
-675.2746695681
 20
227.9091522687
 30
0.0
 10
-675.0945988111
 20
228.1240186415
 30
0.0
 10
-674.9715722559
 20
228.3757333872
 30
0.0
 10
-674.9083591203
 20
228.6486092543
 30
0.0
 10
-674.9110452055
 20
228.9288127605
 30
0.0
 10
-674.9573010118
 20
229.1101404882
 30
0.0
 10
-674.9904382457
 20
229.1965391478
 30
0.0
  0
SPLINE
  5
68C
100
AcDbEntity
  8
0
100
AcDbSpline
 62
9
  6
CONTINUOUS
 70
0
 71
3
 72
11
 73
7
 74
0
 42
0.0000001
 43
0.0000001
 44
0.0000000001
 40
0.0
 40
0.0
 40
0.0
 40
0.0
 40
0.2502221255
 40
0.5003438214
 40
0.7502849025
 40
1.0
 40
1.0
 40
1.0
 40
1.0
 10
-700.2970749392
 20
143.283092757
 30
0.0
 10
-700.7628890195
 20
143.2830925704
 30
0.0
 10
-701.6963967308
 20
143.2006466379
 30
0.0
 10
-703.051292308
 20
142.8336942763
 30
0.0
 10
-704.3203749004
 20
142.2361565811
 30
0.0
 10
-705.0845141355
 20
141.6960683438
 30
0.0
 10
-705.4393758167
 20
141.3957726794
 30
0.0
  0
SPLINE
  5
68D
100
AcDbEntity
  8
0
100
AcDbSpline
 62
9
  6
CONTINUOUS
 70
0
 71
3
 72
9
 73
5
 74
0
 42
0.0000001
 43
0.0000001
 44
0.0000000001
 40
0.0
 40
0.0
 40
0.0
 40
0.0
 40
0.4678041939
 40
1.0
 40
1.0
 40
1.0
 40
1.0
 10
-705.4393758167
 20
176.4054132267
 30
0.0
 10
-704.6385267775
 20
176.4521623917
 30
0.0
 10
-702.9246010441
 20
176.517790415
 30
0.0
 10
-701.2097090248
 20
176.5389492065
 30
0.0
 10
-700.2970749392
 20
176.5389463032
 30
0.0
  0
SPLINE
  5
68E
100
AcDbEntity
  8
0
100
AcDbSpline
 62
9
  6
CONTINUOUS
 70
0
 71
3
 72
11
 73
7
 74
0
 42
0.0000001
 43
0.0000001
 44
0.0000000001
 40
0.0
 40
0.0
 40
0.0
 40
0.0
 40
0.2497151649
 40
0.4996562505
 40
0.7497779282
 40
1.0
 40
1.0
 40
1.0
 40
1.0
 10
-705.4393758167
 20
226.6271748603
 30
0.0
 10
-705.0845116488
 20
226.3268819362
 30
0.0
 10
-704.3203759345
 20
225.7867892533
 30
0.0
 10
-703.0512916111
 20
225.1892536595
 30
0.0
 10
-701.6963966225
 20
224.8223005727
 30
0.0
 10
-700.7628889221
 20
224.7398550239
 30
0.0
 10
-700.2970749392
 20
224.7398547945
 30
0.0
  0
SPLINE
  5
68F
100
AcDbEntity
  8
0
100
AcDbSpline
 62
9
  6
CONTINUOUS
 70
0
 71
3
 72
9
 73
5
 74
0
 42
0.0000001
 43
0.0000001
 44
0.0000000001
 40
0.0
 40
0.0
 40
0.0
 40
0.0
 40
0.5321958061
 40
1.0
 40
1.0
 40
1.0
 40
1.0
 10
-700.2970749392
 20
191.4840012483
 30
0.0
 10
-701.2097090248
 20
191.4839983448
 30
0.0
 10
-702.9246010439
 20
191.5051571415
 30
0.0
 10
-704.638526778
 20
191.5707851517
 30
0.0
 10
-705.4393758167
 20
191.6175343248
 30
0.0
  0
SPLINE
  5
690
100
AcDbEntity
  8
0
100
AcDbSpline
 62
9
  6
CONTINUOUS
 70
0
 71
3
 72
11
 73
7
 74
0
 42
0.0000001
 43
0.0000001
 44
0.0000000001
 40
0.0
 40
0.0
 40
0.0
 40
0.0
 40
0.2499922568
 40
0.4999916916
 40
0.7499953028
 40
1.0
 40
1.0
 40
1.0
 40
1.0
 10
-735.4625178984
 20
111.6843246898
 30
0.0
 10
-735.722251647
 20
111.4375251323
 30
0.0
 10
-736.1902091743
 20
110.8864103304
 30
0.0
 10
-736.7017202944
 20
109.9322788558
 30
0.0
 10
-737.0031433838
 20
108.8925472533
 30
0.0
 10
-737.0555213742
 20
108.1716349713
 30
0.0
 10
-737.0439197816
 20
107.813515129
 30
0.0
  0
SPLINE
  5
691
100
AcDbEntity
  8
0
100
AcDbSpline
 62
9
  6
CONTINUOUS
 70
0
 71
3
 72
9
 73
5
 74
0
 42
0.0000001
 43
0.0000001
 44
0.0000000001
 40
0.0
 40
0.0
 40
0.0
 40
0.0
 40
0.4999371973
 40
1.0
 40
1.0
 40
1.0
 40
1.0
 10
-739.0392988783
 20
92.3178562961
 30
0.0
 10
-738.7179944886
 20
92.212136587
 30
0.0
 10
-738.0552974904
 20
92.0580680343
 30
0.0
 10
-737.3776340166
 20
92.0114494055
 30
0.0
 10
-737.0392988783
 20
92.0114492755
 30
0.0
  0
LINE
  5
692
100
AcDbEntity
  8
0
100
AcDbLine
 62
9
  6
CONTINUOUS
 10
-737.0392988783
 20
92.0114492755
 11
-675.0392988783
 21
92.0114737758
  0
SPLINE
  5
693
100
AcDbEntity
  8
0
100
AcDbSpline
 62
9
  6
CONTINUOUS
 70
0
 71
3
 72
10
 73
6
 74
0
 42
0.0000001
 43
0.0000001
 44
0.0000000001
 40
0.0
 40
0.0
 40
0.0
 40
0.0
 40
0.2499999497
 40
0.5000000093
 40
1.0
 40
1.0
 40
1.0
 40
1.0
 10
-703.8288140516
 20
138.9113455015
 30
0.0
 10
-706.4316520562
 20
136.6383675665
 30
0.0
 10
-711.6501544549
 20
132.10709138
 30
0.0
 10
-722.1211572451
 20
123.0839140463
 30
0.0
 10
-730.0007086202
 20
116.3471287584
 30
0.0
 10
-735.2598430301
 20
111.8631238305
 30
0.0
  0
SPLINE
  5
694
100
AcDbEntity
  8
0
100
AcDbSpline
 62
9
  6
CONTINUOUS
 70
0
 71
3
 72
11
 73
7
 74
0
 42
0.0000001
 43
0.0000001
 44
0.0000000001
 40
0.0
 40
0.0
 40
0.0
 40
0.0
 40
0.249986353
 40
0.4999790986
 40
0.7499828792
 40
1.0
 40
1.0
 40
1.0
 40
1.0
 10
-700.2970749392
 20
140.4081482145
 30
0.0
 10
-700.6026806261
 20
140.4081483243
 30
0.0
 10
-701.2154753698
 20
140.3496322942
 30
0.0
 10
-702.1003357735
 20
140.0901936074
 30
0.0
 10
-702.9213848009
 20
139.6707250715
 30
0.0
 10
-703.408813276
 20
139.2953062128
 30
0.0
 10
-703.6331997934
 20
139.0877766539
 30
0.0
  0
SPLINE
  5
695
100
AcDbEntity
  8
0
100
AcDbSpline
 62
9
  6
CONTINUOUS
 70
0
 71
3
 72
18
 73
14
 74
0
 42
0.0000001
 43
0.0000001
 44
0.0000000001
 40
0.0
 40
0.0
 40
0.0
 40
0.0
 40
0.2211891953
 40
0.4185471354
 40
0.5897315298
 40
0.732782403
 40
0.8460628906
 40
0.9283603823
 40
0.957663703
 40
0.9790629538
 40
0.9868557248
 40
0.9927982091
 40
1.0
 40
1.0
 40
1.0
 40
1.0
 10
-737.1815997558
 20
191.7606702786
 30
0.0
 10
-737.3939618656
 20
191.7683451492
 30
0.0
 10
-737.7957561293
 20
191.7843103835
 30
0.0
 10
-738.3616596423
 20
191.8119241191
 30
0.0
 10
-738.8522765461
 20
191.8415147781
 30
0.0
 10
-739.2618652553
 20
191.8723974504
 30
0.0
 10
-739.5856452644
 20
191.9043636156
 30
0.0
 10
-739.7999102581
 20
191.9327222133
 30
0.0
 10
-739.925352413
 20
191.9578052235
 30
0.0
 10
-739.9795738563
 20
191.9721993725
 30
0.0
 10
-740.0112507984
 20
191.9849395016
 30
0.0
 10
-740.0284171876
 20
191.9940207976
 30
0.0
 10
-740.0392960494
 20
192.0045548761
 30
0.0
 10
-740.0392988783
 20
192.0114737758
 30
0.0
  0
SPLINE
  5
696
100
AcDbEntity
  8
0
100
AcDbSpline
 62
9
  6
CONTINUOUS
 70
0
 71
3
 72
11
 73
7
 74
0
 42
0.0000001
 43
0.0000001
 44
0.0000000001
 40
0.0
 40
0.0
 40
0.0
 40
0.0
 40
0.2499269918
 40
0.4998808692
 40
0.7498962803
 40
1.0
 40
1.0
 40
1.0
 40
1.0
 10
-740.0134802379
 20
259.3984146489
 30
0.0
 10
-739.972989655
 20
258.8938064156
 30
0.0
 10
-739.7961502501
 20
257.8896411888
 30
0.0
 10
-739.2530521279
 20
256.4617561772
 30
0.0
 10
-738.4511844186
 20
255.1609838574
 30
0.0
 10
-737.7615554872
 20
254.4091900058
 30
0.0
 10
-737.385275909
 20
254.0700068862
 30
0.0
  0
SPLINE
  5
697
100
AcDbEntity
  8
0
100
AcDbSpline
 62
9
  6
CONTINUOUS
 70
0
 71
3
 72
18
 73
14
 74
0
 42
0.0000001
 43
0.0000001
 44
0.0000000001
 40
0.0
 40
0.0
 40
0.0
 40
0.0
 40
0.0072017908
 40
0.0131442752
 40
0.0209370462
 40
0.042336297
 40
0.0716396177
 40
0.1539371094
 40
0.267217597
 40
0.4102684702
 40
0.5814528646
 40
0.7788108047
 40
1.0
 40
1.0
 40
1.0
 40
1.0
 10
-740.0392988783
 20
176.0114737758
 30
0.0
 10
-740.0392960494
 20
176.0183926754
 30
0.0
 10
-740.0284171876
 20
176.028926754
 30
0.0
 10
-740.0112507984
 20
176.03800805
 30
0.0
 10
-739.9795738563
 20
176.0507481791
 30
0.0
 10
-739.925352413
 20
176.0651423281
 30
0.0
 10
-739.799910258
 20
176.0902253381
 30
0.0
 10
-739.5856452644
 20
176.1185839361
 30
0.0
 10
-739.2618652553
 20
176.150550101
 30
0.0
 10
-738.8522765461
 20
176.1814327735
 30
0.0
 10
-738.3616596423
 20
176.2110234326
 30
0.0
 10
-737.7957561293
 20
176.2386371675
 30
0.0
 10
-737.3939618656
 20
176.2546024029
 30
0.0
 10
-737.1815997558
 20
176.2622772729
 30
0.0
  0
SPLINE
  5
698
100
AcDbEntity
  8
0
100
AcDbSpline
 62
9
  6
CONTINUOUS
 70
0
 71
3
 72
11
 73
7
 74
0
 42
0.0000001
 43
0.0000001
 44
0.0000000001
 40
0.0
 40
0.0
 40
0.0
 40
0.0
 40
0.2501037163
 40
0.5001191153
 40
0.7500729848
 40
1.0
 40
1.0
 40
1.0
 40
1.0
 10
-737.385275909
 20
113.9529406654
 30
0.0
 10
-737.7616082154
 20
113.6137099594
 30
0.0
 10
-738.4513252162
 20
112.8618000843
 30
0.0
 10
-739.2532546015
 20
111.5608112158
 30
0.0
 10
-739.7963348049
 20
110.1326875814
 30
0.0
 10
-739.9731060425
 20
109.128363117
 30
0.0
 10
-740.013548642
 20
108.6236797775
 30
0.0
  0
SPLINE
  5
699
100
AcDbEntity
  8
0
100
AcDbSpline
 62
9
  6
CONTINUOUS
 70
0
 71
3
 72
15
 73
11
 74
0
 42
0.0000001
 43
0.0000001
 44
0.0000000001
 40
0.0
 40
0.0
 40
0.0
 40
0.0
 40
0.125006382
 40
0.2500346131
 40
0.3750465783
 40
0.5000554918
 40
0.6250754523
 40
0.7500595886
 40
0.875032936
 40
1.0
 40
1.0
 40
1.0
 40
1.0
 10
-674.9904382457
 20
138.8264084037
 30
0.0
 10
-674.9572664526
 20
138.9127939772
 30
0.0
 10
-674.9110596823
 20
139.0941413153
 30
0.0
 10
-674.9083577855
 20
139.3743371657
 30
0.0
 10
-674.9715717886
 20
139.6472163194
 30
0.0
 10
-675.0946006169
 20
139.898928908
 30
0.0
 10
-675.2746702752
 20
140.1137960625
 30
0.0
 10
-675.5008161675
 20
140.279534437
 30
0.0
 10
-675.7609233105
 20
140.3842191059
 30
0.0
 10
-675.9467923946
 20
140.4081477867
 30
0.0
 10
-676.0392988783
 20
140.4081482145
 30
0.0
  0
SPLINE
  5
69A
100
AcDbEntity
  8
0
100
AcDbSpline
 62
9
  6
CONTINUOUS
 70
0
 71
3
 72
9
 73
5
 74
0
 42
0.0000001
 43
0.0000001
 44
0.0000000001
 40
0.0
 40
0.0
 40
0.0
 40
0.0
 40
0.4996362299
 40
1.0
 40
1.0
 40
1.0
 40
1.0
 10
-675.0392988783
 20
138.5994709571
 30
0.0
 10
-675.0392993915
 20
138.6383030995
 30
0.0
 10
-675.0292622581
 20
138.7162184036
 30
0.0
 10
-675.0043635145
 20
138.7900983927
 30
0.0
 10
-674.9904382457
 20
138.8264084037
 30
0.0
  0
SPLINE
  5
69B
100
AcDbEntity
  8
0
100
AcDbSpline
 62
9
  6
CONTINUOUS
 70
0
 71
3
 72
13
 73
9
 74
0
 42
0.0000001
 43
0.0000001
 44
0.0000000001
 40
0.0
 40
0.0
 40
0.0
 40
0.0
 40
0.2962096918
 40
0.564508425
 40
0.685058441
 40
0.7963874635
 40
0.9002904343
 40
1.0
 40
1.0
 40
1.0
 40
1.0
 10
-705.4393737856
 20
176.4054128117
 30
0.0
 10
-705.4095983651
 20
176.752092719
 30
0.0
 10
-705.278132576
 20
177.409029928
 30
0.0
 10
-704.9173933537
 20
178.143346399
 30
0.0
 10
-704.5281100742
 20
178.5877818498
 30
0.0
 10
-704.2111497628
 20
178.8279702783
 30
0.0
 10
-703.8685239235
 20
178.9773300471
 30
0.0
 10
-703.6281413765
 20
179.0114736282
 30
0.0
 10
-703.5110129876
 20
179.0114737758
 30
0.0
  0
SPLINE
  5
69C
100
AcDbEntity
  8
0
100
AcDbSpline
 62
9
  6
CONTINUOUS
 70
0
 71
3
 72
11
 73
7
 74
0
 42
0.0000001
 43
0.0000001
 44
0.0000000001
 40
0.0
 40
0.0
 40
0.0
 40
0.0
 40
0.2500171163
 40
0.5000209104
 40
0.750013656
 40
1.0
 40
1.0
 40
1.0
 40
1.0
 10
-703.633196798
 20
228.935168553
 30
0.0
 10
-703.4088122931
 20
228.727637286
 30
0.0
 10
-702.9213825162
 20
228.3522203491
 30
0.0
 10
-702.1003337545
 20
227.9327541549
 30
0.0
 10
-701.2154744599
 20
227.6733150013
 30
0.0
 10
-700.6026803031
 20
227.6147992313
 30
0.0
 10
-700.2970749392
 20
227.614799337
 30
0.0
  0
SPLINE
  5
69D
100
AcDbEntity
  8
0
100
AcDbSpline
 62
9
  6
CONTINUOUS
 70
0
 71
3
 72
10
 73
6
 74
0
 42
0.0000001
 43
0.0000001
 44
0.0000000001
 40
0.0
 40
0.0
 40
0.0
 40
0.0
 40
0.4999999908
 40
0.7500000501
 40
1.0
 40
1.0
 40
1.0
 40
1.0
 10
-735.259843056
 20
256.1598237429
 30
0.0
 10
-730.0007088553
 20
251.6758185587
 30
0.0
 10
-722.1211572165
 20
244.9390335704
 30
0.0
 10
-711.6501544677
 20
235.9158561706
 30
0.0
 10
-706.4316520459
 20
231.3845800046
 30
0.0
 10
-703.8288140516
 20
229.11160205
 30
0.0
  0
SPLINE
  5
69E
100
AcDbEntity
  8
0
100
AcDbSpline
 62
7
  6
CONTINUOUS
 70
0
 71
3
 72
10
 73
6
 74
0
 42
0.0000001
 43
0.0000001
 44
0.0000000001
 40
0.0
 40
0.0
 40
0.0
 40
0.0
 40
0.2765642453
 40
0.5374748879
 40
1.0
 40
1.0
 40
1.0
 40
1.0
 10
-961.5972820232
 20
379.0114737758
 30
0.0
 10
-960.5777787006
 20
380.8348066797
 30
0.0
 10
-958.2149389865
 20
384.1799126544
 30
0.0
 10
-952.8093907318
 20
389.4735182438
 30
0.0
 10
-947.8959682497
 20
392.2696962784
 30
0.0
 10
-944.5392988783
 20
393.2383510472
 30
0.0
  0
SPLINE
  5
69F
100
AcDbEntity
  8
0
100
AcDbSpline
 62
9
  6
CONTINUOUS
 70
0
 71
3
 72
28
 73
24
 74
0
 42
0.0000001
 43
0.0000001
 44
0.0000000001
 40
0.0
 40
0.0
 40
0.0
 40
0.0
 40
0.0001768175
 40
0.0007065464
 40
0.0015892111
 40
0.0028257805
 40
0.0063655203
 40
0.0113355708
 40
0.0177484587
 40
0.02562489
 40
0.0349874662
 40
0.0458647637
 40
0.0723099121
 40
0.1053182617
 40
0.1453755396
 40
0.1931274441
 40
0.2494180338
 40
0.3153350688
 40
0.3922520521
 40
0.4818573661
 40
0.7070500693
 40
0.8458491719
 40
1.0
 40
1.0
 40
1.0
 40
1.0
 10
-958.6568449058
 20
32.8447924227
 30
0.0
 10
-958.6580730412
 20
32.8462211141
 30
0.0
 10
-958.6557266942
 20
32.854840187
 30
0.0
 10
-958.6592436946
 20
32.8706884691
 30
0.0
 10
-958.6591967003
 20
32.8994776545
 30
0.0
 10
-958.6632571401
 20
32.9593257055
 30
0.0
 10
-958.6682048523
 20
33.063294918
 30
0.0
 10
-958.6776032315
 20
33.2219063272
 30
0.0
 10
-958.6898526132
 20
33.4267953564
 30
0.0
 10
-958.7063345656
 20
33.6782541129
 30
0.0
 10
-958.7274775578
 20
33.9770959179
 30
0.0
 10
-958.7657931258
 20
34.473051892
 30
0.0
 10
-958.8323200561
 20
35.2195116048
 30
0.0
 10
-958.9456486682
 20
36.2738019388
 30
0.0
 10
-959.1105705943
 20
37.5506279771
 30
0.0
 10
-959.3436579255
 20
39.0683881075
 30
0.0
 10
-959.6640873427
 20
40.8509520227
 30
0.0
 10
-960.0925315749
 20
42.9291491432
 30
0.0
 10
-960.648826914
 20
45.3427333953
 30
0.0
 10
-961.6580163735
 20
49.392615431
 30
0.0
 10
-962.8887987727
 20
54.0676982924
 30
0.0
 10
-964.0279373701
 20
59.4708963218
 30
0.0
 10
-964.4238730264
 20
62.576583385
 30
0.0
 10
-964.5040998442
 20
64.2171131893
 30
0.0
  0
SPLINE
  5
6A0
100
AcDbEntity
  8
0
100
AcDbSpline
 62
9
  6
CONTINUOUS
 70
0
 71
3
 72
28
 73
24
 74
0
 42
0.0000001
 43
0.0000001
 44
0.0000000001
 40
0.0
 40
0.0
 40
0.0
 40
0.0
 40
0.0001703133
 40
0.0006805335
 40
0.0015306361
 40
0.0027216659
 40
0.0061321026
 40
0.0109230726
 40
0.0171079099
 40
0.0247094691
 40
0.0337535669
 40
0.0442706374
 40
0.0698882179
 40
0.1019589165
 40
0.1410225147
 40
0.1877992909
 40
0.2432356086
 40
0.3085558003
 40
0.3853142804
 40
0.4754156541
 40
0.7041566204
 40
0.8453310547
 40
1.0
 40
1.0
 40
1.0
 40
1.0
 10
-961.4803540958
 20
34.0114558947
 30
0.0
 10
-961.481643971
 20
34.0126435955
 30
0.0
 10
-961.479222868
 20
34.0210032535
 30
0.0
 10
-961.4829587465
 20
34.0354119692
 30
0.0
 10
-961.483013972
 20
34.0623755252
 30
0.0
 10
-961.4874732457
 20
34.1179353062
 30
0.0
 10
-961.493018519
 20
34.214769032
 30
0.0
 10
-961.5034309383
 20
34.3623705553
 30
0.0
 10
-961.5169795147
 20
34.5532022528
 30
0.0
 10
-961.5351123577
 20
34.7875265975
 30
0.0
 10
-961.558329809
 20
35.0662140688
 30
0.0
 10
-961.6002231141
 20
35.5294460142
 30
0.0
 10
-961.6727035538
 20
36.2279235421
 30
0.0
 10
-961.7955922001
 20
37.216468497
 30
0.0
 10
-961.9742302154
 20
38.4172993422
 30
0.0
 10
-962.2272334603
 20
39.8497879762
 30
0.0
 10
-962.5771123451
 20
41.5389740241
 30
0.0
 10
-963.0498694239
 20
43.5170176129
 30
0.0
 10
-963.673848222
 20
45.8247966512
 30
0.0
 10
-964.8367801533
 20
49.7282871491
 30
0.0
 10
-966.3275845807
 20
54.2249669991
 30
0.0
 10
-967.8365619624
 20
59.4093929667
 30
0.0
 10
-968.3912465609
 20
62.4226545503
 30
0.0
 10
-968.4970600374
 20
64.0114737758
 30
0.0
  0
SPLINE
  5
6A1
100
AcDbEntity
  8
0
100
AcDbSpline
 62
9
  6
CONTINUOUS
 70
0
 71
3
 72
15
 73
11
 74
0
 42
0.0000001
 43
0.0000001
 44
0.0000000001
 40
0.0
 40
0.0
 40
0.0
 40
0.0
 40
0.0098652269
 40
0.0264798526
 40
0.0849957061
 40
0.1775775347
 40
0.3010203172
 40
0.4509960272
 40
0.6219954092
 40
1.0
 40
1.0
 40
1.0
 40
1.0
 10
-964.5402030017
 20
65.6141200763
 30
0.0
 10
-964.540169224
 20
65.6008020873
 30
0.0
 10
-964.5647609962
 20
65.5686114631
 30
0.0
 10
-964.6671411934
 20
65.5189879646
 30
0.0
 10
-964.8893184686
 20
65.4625762926
 30
0.0
 10
-965.2546496764
 20
65.4061063594
 30
0.0
 10
-965.7466603193
 20
65.3544706399
 30
0.0
 10
-966.3450169251
 20
65.3118853176
 30
0.0
 10
-967.2877381071
 20
65.2677925747
 30
0.0
 10
-968.0289936157
 20
65.2557536567
 30
0.0
 10
-968.5392988783
 20
65.2557481264
 30
0.0
  0
SPLINE
  5
6A2
100
AcDbEntity
  8
0
100
AcDbSpline
 62
7
  6
CONTINUOUS
 70
0
 71
3
 72
9
 73
5
 74
0
 42
0.0000001
 43
0.0000001
 44
0.0000000001
 40
0.0
 40
0.0
 40
0.0
 40
0.0
 40
0.4913858062
 40
1.0
 40
1.0
 40
1.0
 40
1.0
 10
-772.0392988783
 20
326.6560571795
 30
0.0
 10
-772.0392988783
 20
324.171601937
 30
0.0
 10
-772.5157299789
 20
319.1087277357
 30
0.0
 10
-773.7658854234
 20
314.1932032322
 30
0.0
 10
-774.5392988783
 20
311.7407016222
 30
0.0
  0
SPLINE
  5
6A3
100
AcDbEntity
  8
0
100
AcDbSpline
 62
7
  6
CONTINUOUS
 70
0
 71
3
 72
16
 73
12
 74
0
 42
0.0000001
 43
0.0000001
 44
0.0000000001
 40
0.0
 40
0.0
 40
0.0
 40
0.0
 40
0.2418129761
 40
0.364521965
 40
0.4884205356
 40
0.6135832839
 40
0.7402024276
 40
0.8042698196
 40
0.8689544359
 40
0.9342554042
 40
1.0
 40
1.0
 40
1.0
 40
1.0
 10
-774.5392988783
 20
311.7407016222
 30
0.0
 10
-775.0659820873
 20
310.0705840287
 30
0.0
 10
-775.9750209113
 20
307.5861108628
 30
0.0
 10
-777.4548941943
 20
304.3717869663
 30
0.0
 10
-778.739209094
 20
302.0024528076
 30
0.0
 10
-780.2347229873
 20
299.7256793021
 30
0.0
 10
-781.7181078199
 20
297.9701392976
 30
0.0
 10
-783.111681798
 20
296.7484235011
 30
0.0
 10
-784.2902233424
 20
295.9715097256
 30
0.0
 10
-785.6101039683
 20
295.4260749297
 30
0.0
 10
-786.563180163
 20
295.2886852379
 30
0.0
 10
-787.0392988783
 20
295.2886852379
 30
0.0
  0
SPLINE
  5
6A4
100
AcDbEntity
  8
0
100
AcDbSpline
 62
7
  6
CONTINUOUS
 70
0
 71
3
 72
22
 73
18
 74
0
 42
0.0000001
 43
0.0000001
 44
0.0000000001
 40
0.0
 40
0.0
 40
0.0
 40
0.0
 40
0.0339704695
 40
0.0677641404
 40
0.1012647563
 40
0.1344635166
 40
0.2001154669
 40
0.2650497626
 40
0.2972912664
 40
0.3293880308
 40
0.3931576356
 40
0.4563893977
 40
0.5190854186
 40
0.6428111831
 40
0.7642643149
 40
0.8833386955
 40
1.0
 40
1.0
 40
1.0
 40
1.0
 10
-842.0392988783
 20
295.2886852379
 30
0.0
 10
-842.4605423967
 20
295.2886852379
 30
0.0
 10
-843.3037272286
 20
295.396027382
 30
0.0
 10
-844.4908062771
 20
295.8298942444
 30
0.0
 10
-845.5686371821
 20
296.465805525
 30
0.0
 10
-846.8600014938
 20
297.4842986085
 30
0.0
 10
-848.252122835
 20
298.9772030425
 30
0.0
 10
-849.4360373793
 20
300.6163333807
 30
0.0
 10
-850.2874909371
 20
301.974972688
 30
0.0
 10
-851.0790404915
 20
303.3526669119
 30
0.0
 10
-851.9762412721
 20
305.1111849595
 30
0.0
 10
-852.9304722821
 20
307.2622927014
 30
0.0
 10
-854.0514747549
 20
310.1489378081
 30
0.0
 10
-855.2064104509
 20
313.7925650679
 30
0.0
 10
-856.2299706415
 20
318.1966747352
 30
0.0
 10
-856.8782102765
 20
322.5832564164
 30
0.0
 10
-857.0392988783
 20
325.5078844749
 30
0.0
 10
-857.0392988783
 20
326.9545179514
 30
0.0
  0
SPLINE
  5
6A5
100
AcDbEntity
  8
0
100
AcDbSpline
 62
7
  6
CONTINUOUS
 70
0
 71
3
 72
9
 73
5
 74
0
 42
0.0000001
 43
0.0000001
 44
0.0000000001
 40
0.0
 40
0.0
 40
0.0
 40
0.0
 40
0.5000717092
 40
1.0
 40
1.0
 40
1.0
 40
1.0
 10
-964.5392988783
 20
367.4928632303
 30
0.0
 10
-964.5392988783
 20
369.4906849068
 30
0.0
 10
-964.0538324783
 20
373.5016835048
 30
0.0
 10
-962.5720065892
 20
377.2682255351
 30
0.0
 10
-961.5972820232
 20
379.0114737758
 30
0.0
  0
SPLINE
  5
6A6
100
AcDbEntity
  8
0
100
AcDbSpline
 62
9
  6
CONTINUOUS
 70
0
 71
3
 72
15
 73
11
 74
0
 42
0.0000001
 43
0.0000001
 44
0.0000000001
 40
0.0
 40
0.0
 40
0.0
 40
0.0
 40
0.1225763207
 40
0.2455817734
 40
0.3692233322
 40
0.4937162359
 40
0.6191281838
 40
0.7454181278
 40
0.8724195391
 40
1.0
 40
1.0
 40
1.0
 40
1.0
 10
-754.5392988783
 20
374.0114737816
 30
0.0
 10
-754.5399275137
 20
375.1656421663
 30
0.0
 10
-754.7582032049
 20
377.4837636197
 30
0.0
 10
-755.7297799405
 20
380.8420441941
 30
0.0
 10
-757.3143931642
 20
383.9793752188
 30
0.0
 10
-759.4580997258
 20
386.7924103382
 30
0.0
 10
-762.0917545816
 20
389.1897496395
 30
0.0
 10
-765.1295971736
 20
391.0929756048
 30
0.0
 10
-768.4717246132
 20
392.4414200507
 30
0.0
 10
-770.8312579967
 20
392.9395638193
 30
0.0
 10
-772.0237061537
 20
393.0850222632
 30
0.0
  0
SPLINE
  5
6A7
100
AcDbEntity
  8
0
100
AcDbSpline
 62
9
  6
CONTINUOUS
 70
0
 71
3
 72
17
 73
13
 74
0
 42
0.0000001
 43
0.0000001
 44
0.0000000001
 40
0.0
 40
0.0
 40
0.0
 40
0.0
 40
0.1949884978
 40
0.3825495826
 40
0.5553976762
 40
0.7069526184
 40
0.831354665
 40
0.9238196845
 40
0.9569036386
 40
0.9807660995
 40
0.9951661283
 40
1.0
 40
1.0
 40
1.0
 40
1.0
 10
2056.2562847201
 20
374.0114737758
 30
0.0
 10
2056.3128581209
 20
375.3112605004
 30
0.0
 10
2056.4148365184
 20
377.8617062114
 30
0.0
 10
2056.5681474637
 20
381.5642992164
 30
0.0
 10
2056.708582358
 20
384.9773776211
 30
0.0
 10
2056.8304234465
 20
387.9694520843
 30
0.0
 10
2056.9314055042
 20
390.4255845962
 30
0.0
 10
2056.9984905909
 20
392.0919914683
 30
0.0
 10
2057.0399528261
 20
393.0880244786
 30
0.0
 10
2057.0576390673
 20
393.5637744802
 30
0.0
 10
2057.0722410791
 20
393.8509113305
 30
0.0
 10
2057.0744240329
 20
393.9793228381
 30
0.0
 10
2057.0769982184
 20
394.01147288
 30
0.0
  0
SPLINE
  5
6A8
100
AcDbEntity
  8
0
100
AcDbSpline
 62
9
  6
CONTINUOUS
 70
0
 71
3
 72
17
 73
13
 74
0
 42
0.0000001
 43
0.0000001
 44
0.0000000001
 40
0.0
 40
0.0
 40
0.0
 40
0.0
 40
0.004833871
 40
0.0192339004
 40
0.0430963616
 40
0.0761803156
 40
0.1686453349
 40
0.2930473815
 40
0.4446023237
 40
0.6174504175
 40
0.8050115021
 40
1.0
 40
1.0
 40
1.0
 40
1.0
 10
1967.0769599087
 20
394.0114728801
 30
0.0
 10
1967.0795340921
 20
393.9793228423
 30
0.0
 10
1967.0817170561
 20
393.8509113365
 30
0.0
 10
1967.0963190601
 20
393.5637744849
 30
0.0
 10
1967.1140052825
 20
393.0880244781
 30
0.0
 10
1967.1554674885
 20
392.0919914658
 30
0.0
 10
1967.222552822
 20
390.4255846051
 30
0.0
 10
1967.3235343097
 20
387.9694520715
 30
0.0
 10
1967.4453762744
 20
384.9773776426
 30
0.0
 10
1967.5858100504
 20
381.5642991952
 30
0.0
 10
1967.739121267
 20
377.861706188
 30
0.0
 10
1967.8411094444
 20
375.3112609119
 30
0.0
 10
1967.8976734054
 20
374.0114737758
 30
0.0
  0
SPLINE
  5
6A9
100
AcDbEntity
  8
0
100
AcDbSpline
 62
9
  6
CONTINUOUS
 70
0
 71
3
 72
23
 73
19
 74
0
 42
0.0000001
 43
0.0000001
 44
0.0000000001
 40
0.0
 40
0.0
 40
0.0
 40
0.0
 40
0.1949781409
 40
0.3825298334
 40
0.5553722143
 40
0.6342045614
 40
0.7069269884
 40
0.7728546114
 40
0.8313346912
 40
0.8818199305
 40
0.9238086399
 40
0.9568969711
 40
0.970002399
 40
0.9807628072
 40
0.9891541514
 40
0.9951649008
 40
0.998783901
 40
1.0
 40
1.0
 40
1.0
 40
1.0
 10
1967.8976734037
 20
374.0114737816
 30
0.0
 10
1967.5320406588
 20
375.2601096455
 30
0.0
 10
1966.8086294899
 20
377.7080405946
 30
0.0
 10
1965.7704384297
 20
381.2655935172
 30
0.0
 10
1964.9539230823
 20
384.0804724953
 30
0.0
 10
1964.3526050172
 20
386.1599444982
 30
0.0
 10
1963.9508122097
 20
387.5544519284
 30
0.0
 10
1963.5875368708
 20
388.8187242263
 30
0.0
 10
1963.2658135531
 20
389.9405427889
 30
0.0
 10
1962.9885811987
 20
390.9089470378
 30
0.0
 10
1962.7581628514
 20
391.7144885708
 30
0.0
 10
1962.5967406274
 20
392.2803840331
 30
0.0
 10
1962.492199971
 20
392.6457146662
 30
0.0
 10
1962.4337681147
 20
392.8530035416
 30
0.0
 10
1962.3862736506
 20
393.0137439328
 30
0.0
 10
1962.3567466401
 20
393.13108838
 30
0.0
 10
1962.3309373169
 20
393.1977224085
 30
0.0
 10
1962.3283165552
 20
393.2318412207
 30
0.0
 10
1962.3234801033
 20
393.2383573788
 30
0.0
  0
SPLINE
  5
6AA
100
AcDbEntity
  8
0
100
AcDbSpline
 62
9
  6
CONTINUOUS
 70
0
 71
3
 72
16
 73
12
 74
0
 42
0.0000001
 43
0.0000001
 44
0.0000000001
 40
0.0
 40
0.0
 40
0.0
 40
0.0
 40
0.0085745816
 40
0.0244442913
 40
0.0820996621
 40
0.1741484816
 40
0.2973216019
 40
0.4473628381
 40
0.6188926538
 40
0.8057751154
 40
1.0
 40
1.0
 40
1.0
 40
1.0
 10
2061.8304998818
 20
393.2383501264
 30
0.0
 10
2061.8198245775
 20
393.2419170091
 30
0.0
 10
2061.8029033536
 20
393.2752890785
 30
0.0
 10
2061.7977815507
 20
393.3801368399
 30
0.0
 10
2061.8224684776
 20
393.599895642
 30
0.0
 10
2061.8920902052
 20
393.9495482194
 30
0.0
 10
2062.0038615641
 20
394.416656662
 30
0.0
 10
2062.1556439851
 20
394.9801497713
 30
0.0
 10
2062.3418560387
 20
395.6211966644
 30
0.0
 10
2062.555809669
 20
396.3143474319
 30
0.0
 10
2062.7101465976
 20
396.7902326747
 30
0.0
 10
2062.7905102801
 20
397.0321849863
 30
0.0
  0
SPLINE
  5
6AB
100
AcDbEntity
  8
0
100
AcDbSpline
 62
9
  6
CONTINUOUS
 70
0
 71
3
 72
18
 73
14
 74
0
 42
0.0000001
 43
0.0000001
 44
0.0000000001
 40
0.0
 40
0.0
 40
0.0
 40
0.0
 40
0.0058945966
 40
0.0206703622
 40
0.0446616766
 40
0.0777727646
 40
0.1197920843
 40
0.1702536686
 40
0.2943697434
 40
0.4455618078
 40
0.6181618316
 40
0.8057485545
 40
1.0
 40
1.0
 40
1.0
 40
1.0
 10
2057.0769790215
 20
394.011293842
 30
0.0
 10
2057.0691016203
 20
394.0112903182
 30
0.0
 10
2057.0584361388
 20
394.0470887189
 30
0.0
 10
2057.047336596
 20
394.0972122842
 30
0.0
 10
2057.0346973141
 20
394.1971318143
 30
0.0
 10
2057.0225256922
 20
394.3270367298
 30
0.0
 10
2057.0105442637
 20
394.4952195092
 30
0.0
 10
2056.994214711
 20
394.7838692334
 30
0.0
 10
2056.9767234743
 20
395.2191132455
 30
0.0
 10
2056.960243985
 20
395.8173786007
 30
0.0
 10
2056.9478942651
 20
396.5007007603
 30
0.0
 10
2056.9403303926
 20
397.2415971635
 30
0.0
 10
2056.9385930872
 20
397.7518806554
 30
0.0
 10
2056.9385936011
 20
398.0114737744
 30
0.0
  0
SPLINE
  5
6AC
100
AcDbEntity
  8
0
100
AcDbSpline
 62
9
  6
CONTINUOUS
 70
0
 71
3
 72
23
 73
19
 74
0
 42
0.0000001
 43
0.0000001
 44
0.0000000001
 40
0.0
 40
0.0
 40
0.0
 40
0.0
 40
0.0012160995
 40
0.0048350998
 40
0.0108458491
 40
0.0192371929
 40
0.0299976009
 40
0.0431030288
 40
0.0761913601
 40
0.1181800696
 40
0.1686653088
 40
0.2271453886
 40
0.2930730118
 40
0.3657954388
 40
0.4446277858
 40
0.6174701667
 40
0.8050218591
 40
1.0
 40
1.0
 40
1.0
 40
1.0
 10
2061.8304780205
 20
393.2383573792
 30
0.0
 10
2061.8256417427
 20
393.2318410873
 30
0.0
 10
2061.8230205513
 20
393.1977225882
 30
0.0
 10
2061.797211636
 20
393.1310882527
 30
0.0
 10
2061.7676843908
 20
393.0137439817
 30
0.0
 10
2061.720190033
 20
392.8530035181
 30
0.0
 10
2061.6617581468
 20
392.6457146733
 30
0.0
 10
2061.5572175296
 20
392.2803840216
 30
0.0
 10
2061.3957953106
 20
391.7144885625
 30
0.0
 10
2061.1653769165
 20
390.9089470396
 30
0.0
 10
2060.8881444711
 20
389.9405428177
 30
0.0
 10
2060.5664211958
 20
388.8187242427
 30
0.0
 10
2060.203146075
 20
387.5544518812
 30
0.0
 10
2059.8013533693
 20
386.1599444205
 30
0.0
 10
2059.20003455
 20
384.0804726363
 30
0.0
 10
2058.3835203072
 20
381.2655933402
 30
0.0
 10
2057.3453289426
 20
377.7080405058
 30
0.0
 10
2056.6219084333
 20
375.2601122903
 30
0.0
 10
2056.2562847218
 20
374.0114737817
 30
0.0
  0
SPLINE
  5
6AD
100
AcDbEntity
  8
0
100
AcDbSpline
 62
9
  6
CONTINUOUS
 70
0
 71
3
 72
32
 73
28
 74
0
 42
0.0000001
 43
0.0000001
 44
0.0000000001
 40
0.0
 40
0.0
 40
0.0
 40
0.0
 40
0.1440885
 40
0.2870144413
 40
0.4281579879
 40
0.4978189226
 40
0.5666823481
 40
0.6345480886
 40
0.7011386305
 40
0.7660401834
 40
0.7976651001
 40
0.8285874541
 40
0.8586409425
 40
0.8875996815
 40
0.9151265087
 40
0.9407138668
 40
0.9525518324
 40
0.9635801291
 40
0.9736039187
 40
0.9824208669
 40
0.9897647494
 40
0.9927850204
 40
0.9953175843
 40
0.9973283743
 40
0.9987939379
 40
0.9996919294
 40
1.0
 40
1.0
 40
1.0
 40
1.0
 10
2062.7905102498
 20
397.0321849863
 30
0.0
 10
2065.735385125
 20
396.0193642862
 30
0.0
 10
2071.5410881605
 20
393.8211799654
 30
0.0
 10
2079.9814949076
 20
390.0142420595
 30
0.0
 10
2086.7466963298
 20
386.441385549
 30
0.0
 10
2091.9520802706
 20
383.3673927467
 30
0.0
 10
2095.7192079644
 20
380.9770455263
 30
0.0
 10
2099.3517132362
 20
378.5027649995
 30
0.0
 10
2102.8305182052
 20
375.9591855996
 30
0.0
 10
2105.6033966718
 20
373.7807382877
 30
0.0
 10
2107.7217754936
 20
372.0198499134
 30
0.0
 10
2109.2365417448
 20
370.7116084769
 30
0.0
 10
2110.682530244
 20
369.4124620866
 30
0.0
 10
2112.0481736842
 20
368.1342637708
 30
0.0
 10
2113.3172817969
 20
366.8947719172
 30
0.0
 10
2114.2999820199
 20
365.8921097862
 30
0.0
 10
2115.0200513782
 20
365.1316999122
 30
0.0
 10
2115.5029690011
 20
364.6100511538
 30
0.0
 10
2115.936668813
 20
364.1318564785
 30
0.0
 10
2116.3124693537
 20
363.7087240932
 30
0.0
 10
2116.5850527458
 20
363.3963273748
 30
0.0
 10
2116.7668217884
 20
363.1850856844
 30
0.0
 10
2116.873667583
 20
363.0612026079
 30
0.0
 10
2116.9566728868
 20
362.9617245908
 30
0.0
 10
2117.0208169381
 20
362.8912021683
 30
0.0
 10
2117.0527385129
 20
362.8442863237
 30
0.0
 10
2117.0751254554
 20
362.8272699848
 30
0.0
 10
2117.0769790627
 20
362.820874888
 30
0.0
  0
SPLINE
  5
6AE
100
AcDbEntity
  8
0
100
AcDbSpline
 62
7
  6
CONTINUOUS
 70
0
 71
3
 72
9
 73
5
 74
0
 42
0.0000001
 43
0.0000001
 44
0.0000000001
 40
0.0
 40
0.0
 40
0.0
 40
0.0
 40
0.5050854238
 40
1.0
 40
1.0
 40
1.0
 40
1.0
 10
1878.5769790627
 20
326.6560571795
 30
0.0
 10
1877.0683841423
 20
324.2097074898
 30
0.0
 10
1874.1608341792
 20
319.317105705
 30
0.0
 10
1871.4946083831
 20
314.2841265809
 30
0.0
 10
1870.2854170869
 20
311.7407016222
 30
0.0
  0
SPLINE
  5
6AF
100
AcDbEntity
  8
0
100
AcDbSpline
 62
7
  6
CONTINUOUS
 70
0
 71
3
 72
10
 73
6
 74
0
 42
0.0000001
 43
0.0000001
 44
0.0000000001
 40
0.0
 40
0.0
 40
0.0
 40
0.0
 40
0.2341203603
 40
0.4822896946
 40
1.0
 40
1.0
 40
1.0
 40
1.0
 10
1941.8685410386
 20
384.7574860862
 30
0.0
 10
1941.2051557972
 20
384.4258176552
 30
0.0
 10
1939.8559992631
 20
383.707881143
 30
0.0
 10
1937.0951600854
 20
382.1543006667
 30
0.0
 10
1934.9968465989
 20
380.9360494569
 30
0.0
 10
1933.5769790627
 20
380.1151948375
 30
0.0
  0
SPLINE
  5
6B0
100
AcDbEntity
  8
0
100
AcDbSpline
 62
9
  6
CONTINUOUS
 70
0
 71
3
 72
15
 73
11
 74
0
 42
0.0000001
 43
0.0000001
 44
0.0000000001
 40
0.0
 40
0.0
 40
0.0
 40
0.0
 40
0.1245016175
 40
0.2490566544
 40
0.3737531405
 40
0.498635623
 40
0.6237284471
 40
0.7490217694
 40
0.8744638449
 40
1.0
 40
1.0
 40
1.0
 40
1.0
 10
1137.6253550806
 20
-325.8061253138
 30
0.0
 10
1137.6253624635
 20
-326.0654542504
 30
0.0
 10
1137.676890333
 20
-326.5856831925
 30
0.0
 10
1137.9059388925
 20
-327.3347998304
 30
0.0
 10
1138.2778679916
 20
-328.025442912
 30
0.0
 10
1138.778487483
 20
-328.6306890568
 30
0.0
 10
1139.3885242273
 20
-329.1273946814
 30
0.0
 10
1140.0846347136
 20
-329.4964366175
 30
0.0
 10
1140.8396696005
 20
-329.7237284554
 30
0.0
 10
1141.3638712683
 20
-329.7748564404
 30
0.0
 10
1141.6253550806
 20
-329.7748668087
 30
0.0
  0
SPLINE
  5
6B1
100
AcDbEntity
  8
0
100
AcDbSpline
 62
9
  6
CONTINUOUS
 70
0
 71
3
 72
11
 73
7
 74
0
 42
0.0000001
 43
0.0000001
 44
0.0000000001
 40
0.0
 40
0.0
 40
0.0
 40
0.0
 40
0.1637100438
 40
0.4006069181
 40
0.68777431
 40
1.0
 40
1.0
 40
1.0
 40
1.0
 10
1206.8852220138
 20
-330.7293058899
 30
0.0
 10
1206.9172934543
 20
-330.5615975239
 30
0.0
 10
1206.9770126482
 20
-330.1477514957
 30
0.0
 10
1207.0515510591
 20
-329.4342101298
 30
0.0
 10
1207.1089546664
 20
-328.5636342442
 30
0.0
 10
1207.1253454486
 20
-327.9384314563
 30
0.0
 10
1207.1253455355
 20
-327.6127842183
 30
0.0
  0
SPLINE
  5
6B2
100
AcDbEntity
  8
0
100
AcDbSpline
 62
9
  6
CONTINUOUS
 70
0
 71
3
 72
11
 73
7
 74
0
 42
0.0000001
 43
0.0000001
 44
0.0000000001
 40
0.0
 40
0.0
 40
0.0
 40
0.0
 40
0.3123150576
 40
0.599625108
 40
0.836601476
 40
1.0
 40
1.0
 40
1.0
 40
1.0
 10
1207.1253455364
 20
-415.6127842183
 30
0.0
 10
1207.1253454485
 20
-415.2870573785
 30
0.0
 10
1207.1085845841
 20
-414.6616352964
 30
0.0
 10
1207.0502476349
 20
-413.7908430787
 30
0.0
 10
1206.9753595603
 20
-413.0774459124
 30
0.0
 10
1206.916142697
 20
-412.6638493406
 30
0.0
 10
1206.8852221223
 20
-412.4962626018
 30
0.0
  0
SPLINE
  5
6B3
100
AcDbEntity
  8
0
100
AcDbSpline
 62
9
  6
CONTINUOUS
 70
0
 71
3
 72
9
 73
5
 74
0
 42
0.0000001
 43
0.0000001
 44
0.0000000001
 40
0.0
 40
0.0
 40
0.0
 40
0.0
 40
0.4956959773
 40
1.0
 40
1.0
 40
1.0
 40
1.0
 10
1206.8852221223
 20
-412.4962626018
 30
0.0
 10
1206.8759496174
 20
-412.4460055716
 30
0.0
 10
1206.8426387003
 20
-412.346180823
 30
0.0
 10
1206.7759699183
 20
-412.2645072624
 30
0.0
 10
1206.7374914933
 20
-412.229540766
 30
0.0
  0
SPLINE
  5
6B4
100
AcDbEntity
  8
0
100
AcDbSpline
 62
9
  6
CONTINUOUS
 70
0
 71
3
 72
9
 73
5
 74
0
 42
0.0000001
 43
0.0000001
 44
0.0000000001
 40
0.0
 40
0.0
 40
0.0
 40
0.0
 40
0.2400483714
 40
1.0
 40
1.0
 40
1.0
 40
1.0
 10
1206.7112768804
 20
-412.2071551982
 30
0.0
 10
1206.7046343601
 20
-412.2018182226
 30
0.0
 10
1206.676485358
 20
-412.1801811418
 30
0.0
 10
1206.6465547036
 20
-412.1609041099
 30
0.0
 10
1206.6231847355
 20
-412.1474304601
 30
0.0
  0
SPLINE
  5
6B5
100
AcDbEntity
  8
0
100
AcDbSpline
 62
9
  6
CONTINUOUS
 70
0
 71
3
 72
9
 73
5
 74
0
 42
0.0000001
 43
0.0000001
 44
0.0000000001
 40
0.0
 40
0.0
 40
0.0
 40
0.0
 40
0.2616297948
 40
1.0
 40
1.0
 40
1.0
 40
1.0
 10
1206.6232668182
 20
-331.0780906465
 30
0.0
 10
1206.631531688
 20
-331.0733243844
 30
0.0
 10
1206.6628026873
 20
-331.0545667827
 30
0.0
 10
1206.6927386733
 20
-331.0335270013
 30
0.0
 10
1206.7136519054
 20
-331.0165672354
 30
0.0
  0
SPLINE
  5
6B6
100
AcDbEntity
  8
0
100
AcDbSpline
 62
9
  6
CONTINUOUS
 70
0
 71
3
 72
9
 73
5
 74
0
 42
0.0000001
 43
0.0000001
 44
0.0000000001
 40
0.0
 40
0.0
 40
0.0
 40
0.0
 40
0.5029782956
 40
1.0
 40
1.0
 40
1.0
 40
1.0
 10
1206.7379790453
 20
-330.9956753945
 30
0.0
 10
1206.776244426
 20
-330.9608344201
 30
0.0
 10
1206.8425582618
 20
-330.8791079925
 30
0.0
 10
1206.8756169547
 20
-330.7795335612
 30
0.0
 10
1206.8852220138
 20
-330.7293058899
 30
0.0
  0
SPLINE
  5
6B7
100
AcDbEntity
  8
0
100
AcDbSpline
 62
9
  6
CONTINUOUS
 70
0
 71
3
 72
11
 73
7
 74
0
 42
0.0000001
 43
0.0000001
 44
0.0000000001
 40
0.0
 40
0.0
 40
0.0
 40
0.0
 40
0.2499364461
 40
0.4999140573
 40
0.7499420178
 40
1.0
 40
1.0
 40
1.0
 40
1.0
 10
1141.6253550806
 20
-416.4039663863
 30
0.0
 10
1141.4943235766
 20
-416.4039764082
 30
0.0
 10
1141.2292686766
 20
-416.4577703976
 30
0.0
 10
1140.8968577307
 20
-416.6860444153
 30
0.0
 10
1140.6765332005
 20
-417.0234104037
 30
0.0
 10
1140.6253646843
 20
-417.2883479024
 30
0.0
 10
1140.6253550806
 20
-417.4194431229
 30
0.0
  0
SPLINE
  5
6B8
100
AcDbEntity
  8
0
100
AcDbSpline
 62
9
  6
CONTINUOUS
 70
0
 71
3
 72
11
 73
7
 74
0
 42
0.0000001
 43
0.0000001
 44
0.0000000001
 40
0.0
 40
0.0
 40
0.0
 40
0.0
 40
0.2500083417
 40
0.5000052994
 40
0.7499996279
 40
1.0
 40
1.0
 40
1.0
 40
1.0
 10
1169.09706919
 20
-417.5917811457
 30
0.0
 10
1168.8753872931
 20
-417.4029854847
 30
0.0
 10
1168.3980884542
 20
-417.0632786101
 30
0.0
 10
1167.6048960539
 20
-416.6870686677
 30
0.0
 10
1166.7579516544
 20
-416.4559122236
 30
0.0
 10
1166.1743033577
 20
-416.4039760966
 30
0.0
 10
1165.8831311416
 20
-416.4039663863
 30
0.0
  0
SPLINE
  5
6B9
100
AcDbEntity
  8
0
100
AcDbSpline
 62
9
  6
CONTINUOUS
 70
0
 71
3
 72
11
 73
7
 74
0
 42
0.0000001
 43
0.0000001
 44
0.0000000001
 40
0.0
 40
0.0
 40
0.0
 40
0.0
 40
0.2500043589
 40
0.5000039987
 40
0.7500015826
 40
1.0
 40
1.0
 40
1.0
 40
1.0
 10
1202.6253550806
 20
-448.3316932857
 30
0.0
 10
1202.6253419235
 20
-447.967176879
 30
0.0
 10
1202.5459086456
 20
-447.235707034
 30
0.0
 10
1202.193677412
 20
-446.1916738722
 30
0.0
 10
1201.6250604038
 20
-445.2478471529
 30
0.0
 10
1201.1178209346
 20
-444.7147428624
 30
0.0
 10
1200.8392931291
 20
-444.4796085241
 30
0.0
  0
SPLINE
  5
6BA
100
AcDbEntity
  8
0
100
AcDbSpline
 62
9
  6
CONTINUOUS
 70
0
 71
3
 72
11
 73
7
 74
0
 42
0.0000001
 43
0.0000001
 44
0.0000000001
 40
0.0
 40
0.0
 40
0.0
 40
0.0
 40
0.2500003721
 40
0.4999947006
 40
0.7499916583
 40
1.0
 40
1.0
 40
1.0
 40
1.0
 10
1165.8831311416
 20
-326.8216020504
 30
0.0
 10
1166.1743033577
 20
-326.82159234
 30
0.0
 10
1166.7579516544
 20
-326.7696562132
 30
0.0
 10
1167.604896054
 20
-326.5384997691
 30
0.0
 10
1168.3980884537
 20
-326.1622898261
 30
0.0
 10
1168.875387294
 20
-325.822582953
 30
0.0
 10
1169.09706919
 20
-325.633787291
 30
0.0
  0
SPLINE
  5
6BB
100
AcDbEntity
  8
0
100
AcDbSpline
 62
9
  6
CONTINUOUS
 70
0
 71
3
 72
11
 73
7
 74
0
 42
0.0000001
 43
0.0000001
 44
0.0000000001
 40
0.0
 40
0.0
 40
0.0
 40
0.0
 40
0.2500579822
 40
0.5000859427
 40
0.7500635539
 40
1.0
 40
1.0
 40
1.0
 40
1.0
 10
1140.6253550806
 20
-325.8061253138
 30
0.0
 10
1140.6253646843
 20
-325.9372205343
 30
0.0
 10
1140.6765332005
 20
-326.202158033
 30
0.0
 10
1140.8968577307
 20
-326.5395240214
 30
0.0
 10
1141.2292686766
 20
-326.767798039
 30
0.0
 10
1141.4943235766
 20
-326.8215920286
 30
0.0
 10
1141.6253550806
 20
-326.8216020504
 30
0.0
  0
LINE
  5
6BC
100
AcDbEntity
  8
0
100
AcDbLine
 62
9
  6
CONTINUOUS
 10
1207.1253550841
 20
-457.3632685571
 11
1207.125355084
 21
-441.6127842183
  0
LINE
  5
6BD
100
AcDbEntity
  8
0
100
AcDbLine
 62
9
  6
CONTINUOUS
 10
1207.1253595287
 20
-289.1426549392
 11
1207.1253550839
 21
-285.8622998793
  0
SPLINE
  5
6BE
100
AcDbEntity
  8
0
100
AcDbSpline
 62
9
  6
CONTINUOUS
 70
0
 71
3
 72
15
 73
11
 74
0
 42
0.0000001
 43
0.0000001
 44
0.0000000001
 40
0.0
 40
0.0
 40
0.0
 40
0.0
 40
0.1255361551
 40
0.2509782306
 40
0.3762715529
 40
0.501364377
 40
0.6262468595
 40
0.7509433456
 40
0.8754983825
 40
1.0
 40
1.0
 40
1.0
 40
1.0
 10
1141.6253550806
 20
-413.4507016279
 30
0.0
 10
1141.3638712683
 20
-413.4507119964
 30
0.0
 10
1140.8396696005
 20
-413.5018399812
 30
0.0
 10
1140.0846347136
 20
-413.7291318192
 30
0.0
 10
1139.3885242273
 20
-414.0981737552
 30
0.0
 10
1138.778487483
 20
-414.5948793799
 30
0.0
 10
1138.2778679916
 20
-415.2001255247
 30
0.0
 10
1137.9059388926
 20
-415.8907686063
 30
0.0
 10
1137.6768903328
 20
-416.6398852442
 30
0.0
 10
1137.6253624638
 20
-417.1601141863
 30
0.0
 10
1137.6253550806
 20
-417.4194431229
 30
0.0
  0
SPLINE
  5
6BF
100
AcDbEntity
  8
0
100
AcDbSpline
 62
7
  6
CONTINUOUS
 70
0
 71
3
 72
13
 73
9
 74
0
 42
0.0000001
 43
0.0000001
 44
0.0000000001
 40
0.0
 40
0.0
 40
0.0
 40
0.0
 40
0.2999382323
 40
0.5761919133
 40
0.7013804809
 40
0.8152099913
 40
0.9153774945
 40
1.0
 40
1.0
 40
1.0
 40
1.0
 10
1410.1253550806
 20
-405.3663053451
 30
0.0
 10
1411.6509734312
 20
-406.6839567081
 30
0.0
 10
1414.6392721825
 20
-409.1493212762
 30
0.0
 10
1418.4698735652
 20
-411.9089317315
 30
0.0
 10
1421.4427467408
 20
-413.6891830638
 30
0.0
 10
1423.4868051557
 20
-414.7073400443
 30
0.0
 10
1425.3751852898
 20
-415.3974332823
 30
0.0
 10
1426.6145956351
 20
-415.6127842183
 30
0.0
 10
1427.1833382256
 20
-415.6127842183
 30
0.0
  0
SPLINE
  5
6C0
100
AcDbEntity
  8
0
100
AcDbSpline
 62
7
  6
CONTINUOUS
 70
0
 71
3
 72
13
 73
9
 74
0
 42
0.0000001
 43
0.0000001
 44
0.0000000001
 40
0.0
 40
0.0
 40
0.0
 40
0.0
 40
0.0845617709
 40
0.1847106717
 40
0.2985341497
 40
0.4237279185
 40
0.7000011648
 40
1.0
 40
1.0
 40
1.0
 40
1.0
 10
1427.1833382256
 20
-295.6127842183
 30
0.0
 10
1426.6150034286
 20
-295.6127842183
 30
0.0
 10
1425.37616974
 20
-295.8281207366
 30
0.0
 10
1423.4880519376
 20
-296.5172582939
 30
0.0
 10
1421.4442413395
 20
-297.5356850062
 30
0.0
 10
1418.4711008436
 20
-299.3156934484
 30
0.0
 10
1414.6400175472
 20
-302.0756701062
 30
0.0
 10
1411.6512827589
 20
-304.5413445673
 30
0.0
 10
1410.1253550806
 20
-305.8592630916
 30
0.0
  0
SPLINE
  5
6C1
100
AcDbEntity
  8
0
100
AcDbSpline
 62
9
  6
CONTINUOUS
 70
0
 71
3
 72
20
 73
16
 74
0
 42
0.0000001
 43
0.0000001
 44
0.0000000001
 40
0.0
 40
0.0
 40
0.0
 40
0.0
 40
0.0024169623
 40
0.0065486139
 40
0.0213980596
 40
0.0454532835
 40
0.0786014455
 40
0.1205557618
 40
0.1709343536
 40
0.229257623
 40
0.294993708
 40
0.4461005523
 40
0.6184545165
 40
0.8055135655
 40
1.0
 40
1.0
 40
1.0
 40
1.0
 10
1220.1253550806
 20
-399.7920898757
 30
0.0
 10
1220.1255501918
 20
-399.8082596109
 30
0.0
 10
1220.1568970114
 20
-399.8470125671
 30
0.0
 10
1220.2866080248
 20
-399.9043821945
 30
0.0
 10
1220.5701105329
 20
-399.9708767809
 30
0.0
 10
1221.045401854
 20
-400.0431771397
 30
0.0
 10
1221.7054635467
 20
-400.1170576416
 30
0.0
 10
1222.5418074086
 20
-400.1881583216
 30
0.0
 10
1223.5476545596
 20
-400.2555488004
 30
0.0
 10
1224.7130248333
 20
-400.31883549
 30
0.0
 10
1226.5522498057
 20
-400.400986403
 30
0.0
 10
1229.1549192364
 20
-400.4855425108
 30
0.0
 10
1232.5698823908
 20
-400.55806297
 30
0.0
 10
1236.2755736121
 20
-400.6027614734
 30
0.0
 10
1238.8283511624
 20
-400.6127925243
 30
0.0
 10
1240.1295808536
 20
-400.6128034276
 30
0.0
  0
SPLINE
  5
6C2
100
AcDbEntity
  8
0
100
AcDbSpline
 62
9
  6
CONTINUOUS
 70
0
 71
3
 72
17
 73
13
 74
0
 42
0.0000001
 43
0.0000001
 44
0.0000000001
 40
0.0
 40
0.0
 40
0.0
 40
0.0
 40
0.1797763638
 40
0.3532088609
 40
0.514142668
 40
0.6572251611
 40
0.7780841241
 40
0.8740288318
 40
0.9126631984
 40
0.9456697078
 40
0.9741848729
 40
1.0
 40
1.0
 40
1.0
 40
1.0
 10
1240.1298639176
 20
-405.366283678
 30
0.0
 10
1238.8281091192
 20
-405.3661790801
 30
0.0
 10
1236.2699919786
 20
-405.2986400556
 30
0.0
 10
1232.5574003087
 20
-404.9954126968
 30
0.0
 10
1229.1332347088
 20
-404.5022821478
 30
0.0
 10
1226.124474085
 20
-403.8397737083
 30
0.0
 10
1223.6434945606
 20
-403.0310628072
 30
0.0
 10
1221.9697306788
 20
-402.2117015261
 30
0.0
 10
1221.001001119
 20
-401.4738081307
 30
0.0
 10
1220.5066476431
 20
-400.9360545786
 30
0.0
 10
1220.1991742032
 20
-400.3745549137
 30
0.0
 10
1220.1257040954
 20
-399.9790160475
 30
0.0
 10
1220.1253550806
 20
-399.7920898774
 30
0.0
  0
SPLINE
  5
6C3
100
AcDbEntity
  8
0
100
AcDbSpline
 62
9
  6
CONTINUOUS
 70
0
 71
3
 72
14
 73
10
 74
0
 42
0.0000001
 43
0.0000001
 44
0.0000000001
 40
0.0
 40
0.0
 40
0.0
 40
0.0
 40
0.3487285411
 40
0.5076006185
 40
0.6491002916
 40
0.7694553857
 40
0.8666103463
 40
0.9412010321
 40
1.0
 40
1.0
 40
1.0
 40
1.0
 10
1313.7032027156
 20
-405.366292948
 30
0.0
 10
1313.2029956843
 20
-405.3315863062
 30
0.0
 10
1312.4704925965
 20
-405.3224225147
 30
0.0
 10
1311.5405584507
 20
-405.4095680588
 30
0.0
 10
1310.9442295275
 20
-405.5163336706
 30
0.0
 10
1310.4475889251
 20
-405.6623366396
 30
0.0
 10
1310.0659203808
 20
-405.8428906985
 30
0.0
 10
1309.8048533924
 20
-406.0563331446
 30
0.0
 10
1309.7215178697
 20
-406.2420209324
 30
0.0
 10
1309.7150199242
 20
-406.3263133074
 30
0.0
  0
SPLINE
  5
6C4
100
AcDbEntity
  8
0
100
AcDbSpline
 62
9
  6
CONTINUOUS
 70
0
 71
3
 72
14
 73
10
 74
0
 42
0.0000001
 43
0.0000001
 44
0.0000000001
 40
0.0
 40
0.0
 40
0.0
 40
0.0
 40
0.3487269895
 40
0.5075983859
 40
0.6490977444
 40
0.769453013
 40
0.8666086263
 40
0.9412002811
 40
1.0
 40
1.0
 40
1.0
 40
1.0
 10
1246.5475074462
 20
-405.3663050374
 30
0.0
 10
1247.0477078073
 20
-405.3316003337
 30
0.0
 10
1247.7802009353
 20
-405.3224378215
 30
0.0
 10
1248.7101229473
 20
-405.4095823581
 30
0.0
 10
1249.3064453731
 20
-405.5163462468
 30
0.0
 10
1249.8030824467
 20
-405.6623468651
 30
0.0
 10
1250.1847508315
 20
-405.8428983759
 30
0.0
 10
1250.4458201193
 20
-406.0563377433
 30
0.0
 10
1250.5291614437
 20
-406.2420229988
 30
0.0
 10
1250.5356626367
 20
-406.3263154357
 30
0.0
  0
SPLINE
  5
6C5
100
AcDbEntity
  8
0
100
AcDbSpline
 62
9
  6
CONTINUOUS
 70
0
 71
3
 72
17
 73
13
 74
0
 42
0.0000001
 43
0.0000001
 44
0.0000000001
 40
0.0
 40
0.0
 40
0.0
 40
0.0
 40
0.1304372923
 40
0.2578969895
 40
0.3822502942
 40
0.5036696501
 40
0.6228779893
 40
0.7417809997
 40
0.8025253483
 40
0.8653180404
 40
0.9312142888
 40
1.0
 40
1.0
 40
1.0
 40
1.0
 10
1246.5475074462
 20
-405.3663053449
 30
0.0
 10
1246.7912065454
 20
-408.4475496888
 30
0.0
 10
1247.4840103698
 20
-414.5254799043
 30
0.0
 10
1249.1733469862
 20
-423.4332529742
 30
0.0
 10
1251.5296222078
 20
-431.9693333409
 30
0.0
 10
1254.6246982468
 20
-440.0632322819
 30
0.0
 10
1258.6050022122
 20
-447.6212737317
 30
0.0
 10
1262.9057302594
 20
-453.3151525298
 30
0.0
 10
1267.1534807782
 20
-457.208463673
 30
0.0
 10
1270.9157267478
 20
-459.7003839962
 30
0.0
 10
1275.2886756352
 20
-461.4689510448
 30
0.0
 10
1278.4953962929
 20
-461.9036835864
 30
0.0
 10
1280.1253550806
 20
-461.9047096842
 30
0.0
  0
SPLINE
  5
6C6
100
AcDbEntity
  8
0
100
AcDbSpline
 62
9
  6
CONTINUOUS
 70
0
 71
3
 72
17
 73
13
 74
0
 42
0.0000001
 43
0.0000001
 44
0.0000000001
 40
0.0
 40
0.0
 40
0.0
 40
0.0
 40
0.0687930739
 40
0.1346932343
 40
0.1974887861
 40
0.2582334563
 40
0.3771346729
 40
0.4963383483
 40
0.617755809
 40
0.7421082774
 40
0.8695664474
 40
1.0
 40
1.0
 40
1.0
 40
1.0
 10
1280.1253550806
 20
-461.9047096842
 30
0.0
 10
1281.7554891764
 20
-461.9036765552
 30
0.0
 10
1284.9625161745
 20
-461.4690033201
 30
0.0
 10
1289.3356269675
 20
-459.6999179053
 30
0.0
 10
1293.0980298908
 20
-457.2079534146
 30
0.0
 10
1297.3456857753
 20
-453.3144692392
 30
0.0
 10
1301.6462261742
 20
-447.6206335551
 30
0.0
 10
1305.6261630442
 20
-440.0626204015
 30
0.0
 10
1308.7212365807
 20
-431.9689143723
 30
0.0
 10
1311.0774763623
 20
-423.4329180458
 30
0.0
 10
1312.766718934
 20
-414.5252711446
 30
0.0
 10
1313.4595114191
 20
-408.4474630188
 30
0.0
 10
1313.7032027151
 20
-405.3663053451
 30
0.0
  0
SPLINE
  5
6C7
100
AcDbEntity
  8
0
100
AcDbSpline
 62
9
  6
CONTINUOUS
 70
0
 71
3
 72
12
 73
8
 74
0
 42
0.0000001
 43
0.0000001
 44
0.0000000001
 40
0.0
 40
0.0
 40
0.0
 40
0.0
 40
0.250015781
 40
0.5000171115
 40
0.7499686635
 40
0.874991219
 40
1.0
 40
1.0
 40
1.0
 40
1.0
 10
1314.0389305698
 20
-400.6127842183
 30
0.0
 10
1314.1986570698
 20
-395.9996130652
 30
0.0
 10
1314.0772300365
 20
-386.7518909248
 30
0.0
 10
1312.5559860829
 20
-372.9688828594
 30
0.0
 10
1310.0526473335
 20
-361.6716535424
 30
0.0
 10
1307.1375133393
 20
-352.9056534863
 30
0.0
 10
1305.3216282613
 20
-348.6528141491
 30
0.0
 10
1304.3075594408
 20
-346.5795424652
 30
0.0
  0
SPLINE
  5
6C8
100
AcDbEntity
  8
0
100
AcDbSpline
 62
9
  6
CONTINUOUS
 70
0
 71
3
 72
12
 73
8
 74
0
 42
0.0000001
 43
0.0000001
 44
0.0000000001
 40
0.0
 40
0.0
 40
0.0
 40
0.0
 40
0.1250093544
 40
0.2500323757
 40
0.4999837657
 40
0.7499833752
 40
1.0
 40
1.0
 40
1.0
 40
1.0
 10
1255.94343341
 20
-346.5789612597
 30
0.0
 10
1254.9293190926
 20
-348.6522524573
 30
0.0
 10
1253.1133844967
 20
-352.9051515811
 30
0.0
 10
1250.198156133
 20
-361.67125039
 30
0.0
 10
1247.694766713
 20
-372.9685823219
 30
0.0
 10
1246.1734869103
 20
-386.7517292551
 30
0.0
 10
1246.0520491005
 20
-395.9995437183
 30
0.0
 10
1246.2117795915
 20
-400.6127842183
 30
0.0
  0
ELLIPSE
  5
6C9
100
AcDbEntity
  8
02___PRT_ALL_AXES
100
AcDbEllipse
 62
7
  6
CONTINUOUS
 10
180.9303559878
 20
64.0114737758
 30
0.0
 11
65.0
 21
0.0
 31
0.0
 40
0.4615384615
 41
0.0
 42
6.2831853072
  0
ELLIPSE
  5
6CA
100
AcDbEntity
  8
02___PRT_ALL_AXES
100
AcDbEllipse
 62
7
  6
CONTINUOUS
 10
1280.1253550806
 20
-395.6127842183
 30
0.0
 11
0.0
 21
65.0
 31
0.0
 40
0.4615384615
 41
0.7357532855
 42
5.5474320217
  0
ENDSEC
  0
SECTION
  2
OBJECTS
  0
DICTIONARY
  5
C
100
AcDbDictionary
280
0
281
1
  3
ACAD_GROUP
350
D
  3
ACAD_MLINESTYLE
350
17
  3
ACAD_LAYOUT
350
1A
  3
ACAD_PLOTSETTINGS
350
19
  3
ACAD_PLOTSTYLENAME
350
E
  0
DICTIONARY
  5
D
102
{ACAD_REACTORS
330
C
102
}
100
AcDbDictionary
280
0
281
1
  0
ACDBDICTIONARYWDFLT
  5
E
102
{ACAD_REACTORS
330
C
102
}
100
AcDbDictionary
281
1
  3
Normal
350
F
100
AcDbDictionaryWithDefault
340
F
  0
DICTIONARY
  5
17
102
{ACAD_REACTORS
330
C
102
}
100
AcDbDictionary
280
0
281
1
  3
Standard
350
18
  0
DICTIONARY
  5
19
102
{ACAD_REACTORS
330
C
102
}
100
AcDbDictionary
281
1
  0
DICTIONARY
  5
1A
102
{ACAD_REACTORS
330
C
102
}
100
AcDbDictionary
281
1
  3
Model
350
6CB
  3
Layout1
350
6CC
  0
ACDBPLACEHOLDER
  5
F
102
{ACAD_REACTORS
330
E
102
}
  0
MLINESTYLE
  5
18
102
{ACAD_REACTORS
330
17
102
}
100
AcDbMlineStyle
  2
STANDARD
 70
0
  3

 62
256
 51
90.0
 52
90.0
 71
2
 49
0.5
 62
256
  6
BYLAYER
 49
-0.5
 62
256
  6
BYLAYER
  0
LAYOUT
  5
6CB
102
{ACAD_REACTORS
330
1A
102
}
100
AcDbPlotSettings
  1

  2
none_device
  4

  6

 40
0.0
 41
0.0
 42
0.0
 43
0.0
 44
210.0
 45
297.0
 46
0.0
 47
0.0
 48
0.0
 49
0.0
140
0.0
141
0.0
142
1.0
143
1.0
 70
1024
 72
1
 73
0
 74
0
  7

 75
0
147
1.0
148
0.0
149
0.0
100
AcDbLayout
  1
Model
 70
0
 71
0
 10
0.0
 20
0.0
 11
210.0
 21
297.0
 12
0.0
 22
0.0
 32
0.0
 14
0.0
 24
0.0
 34
0.0
 15
0.0
 25
0.0
 35
0.0
146
0.0
 13
0.0
 23
0.0
 33
0.0
 16
1.0
 26
0.0
 36
0.0
 17
0.0
 27
1.0
 37
0.0
 76
0
330
21A
345
0
346
0
  0
LAYOUT
  5
6CC
102
{ACAD_REACTORS
330
1A
102
}
100
AcDbPlotSettings
  1

  2
none_device
  4

  6

 40
0.0
 41
0.0
 42
0.0
 43
0.0
 44
210.0
 45
297.0
 46
0.0
 47
0.0
 48
0.0
 49
0.0
140
0.0
141
0.0
142
1.0
143
1.0
 70
0
 72
1
 73
0
 74
0
  7

 75
0
147
1.0
148
0.0
149
0.0
100
AcDbLayout
  1
Layout1
 70
0
 71
1
 10
0.0
 20
0.0
 11
210.0
 21
297.0
 12
0.0
 22
0.0
 32
0.0
 14
0.0
 24
0.0
 34
0.0
 15
0.0
 25
0.0
 35
0.0
146
0.0
 13
0.0
 23
0.0
 33
0.0
 16
1.0
 26
0.0
 36
0.0
 17
0.0
 27
1.0
 37
0.0
 76
0
330
21B
345
0
346
0
  0
ENDSEC
  0
EOF
