999
DXF file: s_88_t_2.dxf
999
Pro/ENGINEER 2011370 by Parametric Technology Corporation
  0
SECTION
  2
HEADER
  9
$ACADVER
  1
AC1015
  9
$DWGCODEPAGE
  3
ANSI_1252
  9
$EXTMAX
 10
210.0
 20
297.0
 30
0.0
  9
$EXTMIN
 10
0.0
 20
0.0
 30
0.0
  9
$LIMMIN
 10
0.0
 20
0.0
  9
$LIMMAX
 10
210.0
 20
297.0
  9
$VIEWCTR
 10
105.0
 20
148.5
  9
$VIEWSIZE
 40
297.0
  9
$CLAYER
  8
0
  9
$LTSCALE
 40
19.36
  9
$CELTYPE
  6
BYLAYER
  9
$DIMSCALE
 40
1.0
  9
$DIMASZ
 40
2.0
  9
$DIMEXO
 40
2.2
  9
$DIMDLI
 40
13.376
  9
$DIMEXE
 40
6.336
  9
$DIMCEN
 40
3.168
  9
$DIMLFAC
 40
1.0
  9
$DIMBLK
  1
_FILLED
  9
$DIMTXT
 40
2.0
  9
$DIMTOL
 70
0
  9
$DIMLIM
 70
0
  9
$DIMTFAC
 40
1.0
  9
$PDMODE
 70
3
  9
$PDSIZE
 40
0.3125
  9
$HANDSEED
  5
6AC
  9
$TILEMODE
 70
1
  9
$MEASUREMENT
 70
1
  9
$INSUNITS
 70
4
  0
ENDSEC
  0
SECTION
  2
CLASSES
  0
CLASS
  1
ACDBDICTIONARYWDFLT
  2
AcDbDictionaryWithDefault
  3
AutoCAD 2000
 90
0
280
0
281
0
  0
CLASS
  1
ACDBPLACEHOLDER
  2
AcDbPlaceHolder
  3
AutoCAD 2000
 90
0
280
0
281
0
  0
CLASS
  1
LAYOUT
  2
AcDbLayout
  3
AutoCAD 2000
 90
0
280
0
281
0
  0
ENDSEC
  0
SECTION
  2
TABLES
  0
TABLE
  2
VPORT
  5
8
100
AcDbSymbolTable
 70
2
  0
VPORT
  5
1F4
100
AcDbSymbolTableRecord
100
AcDbViewportTableRecord
  2
*ACTIVE
 70
0
 10
0.0
 20
0.0
 11
1.0
 21
1.0
 12
105.0
 22
148.5
 13
0.0
 23
0.0
 14
1.0
 24
1.0
 15
0.0
 25
0.0
 16
0.0
 26
0.0
 36
1.0
 17
0.0
 27
0.0
 37
0.0
 40
297.0
 41
0.7070707071
 42
50.0
 43
0.0
 44
0.0
 50
0.0
 51
0.0
 71
0
 72
100
 73
1
 74
1
 75
0
 76
0
 77
0
 78
0
  0
ENDTAB
  0
TABLE
  2
LTYPE
  5
5
100
AcDbSymbolTable
 70
6
  0
LTYPE
  5
14
100
AcDbSymbolTableRecord
100
AcDbLinetypeTableRecord
  2
BYBLOCK
 70
0
  3

 72
65
 73
0
 40
0.0
  0
LTYPE
  5
15
100
AcDbSymbolTableRecord
100
AcDbLinetypeTableRecord
  2
BYLAYER
 70
0
  3

 72
65
 73
0
 40
0.0
  0
LTYPE
  5
16
100
AcDbSymbolTableRecord
100
AcDbLinetypeTableRecord
  2
CONTINUOUS
 70
64
  3
Solid line
 72
65
 73
0
 40
0.0
  0
LTYPE
  5
1F5
100
AcDbSymbolTableRecord
100
AcDbLinetypeTableRecord
  2
CENTER
 70
64
  3
____ _ ____ _ ____ _ ____ _ ____ _ ____ _ ____
 72
65
 73
4
 40
0.6
 49
0.375
 74
0
 49
-0.075
 74
0
 49
0.075
 74
0
 49
-0.075
 74
0
  0
LTYPE
  5
1F6
100
AcDbSymbolTableRecord
100
AcDbLinetypeTableRecord
  2
HIDDEN
 70
64
  3
- - - - - - - - - - - - - - - - - - - -
 72
65
 73
2
 40
0.2
 49
0.1
 74
0
 49
-0.1
 74
0
  0
LTYPE
  5
1F7
100
AcDbSymbolTableRecord
100
AcDbLinetypeTableRecord
  2
PHANTOM
 70
64
  3
_____ _ _ _____ _ _ _____ _ _ _____
 72
65
 73
6
 40
0.8
 49
0.45
 74
0
 49
-0.05
 74
0
 49
0.1
 74
0
 49
-0.05
 74
0
 49
0.1
 74
0
 49
-0.05
 74
0
  0
LTYPE
  5
1F8
100
AcDbSymbolTableRecord
100
AcDbLinetypeTableRecord
  2
DOT
 70
64
  3
. . . . . . . . . . . . . . . . . . . .
 72
65
 73
2
 40
0.2
 49
0.1
 74
0
 49
-0.1
 74
0
  0
LTYPE
  5
1F9
100
AcDbSymbolTableRecord
100
AcDbLinetypeTableRecord
  2
DASHED
 70
64
  3
- - - - - - - - - - - - - - - - - - - -
 72
65
 73
2
 40
0.2
 49
0.1
 74
0
 49
-0.1
 74
0
  0
ENDTAB
  0
TABLE
  2
LAYER
  5
2
100
AcDbSymbolTable
 70
36
  0
LAYER
  5
10
100
AcDbSymbolTableRecord
100
AcDbLayerTableRecord
  2
0
 70
0
 62
7
  6
CONTINUOUS
370
-3
390
F
  0
LAYER
  5
1FA
100
AcDbSymbolTableRecord
100
AcDbLayerTableRecord
  2
DEFAULT_1
 70
0
 62
7
  6
CENTER
370
-3
390
F
  0
LAYER
  5
1FB
100
AcDbSymbolTableRecord
100
AcDbLayerTableRecord
  2
DEFAULT_2
 70
0
 62
8
  6
HIDDEN
370
-3
390
F
  0
LAYER
  5
1FC
100
AcDbSymbolTableRecord
100
AcDbLayerTableRecord
  2
DEFAULT_3
 70
0
 62
7
  6
PHANTOM
370
-3
390
F
  0
LAYER
  5
1FD
100
AcDbSymbolTableRecord
100
AcDbLayerTableRecord
  2
01___PRT_ALL_DTM_PLN
 70
0
 62
7
  6
CONTINUOUS
370
-3
390
F
  0
LAYER
  5
1FE
100
AcDbSymbolTableRecord
100
AcDbLayerTableRecord
  2
01___PRT_DEF_DTM_PLN
 70
0
 62
7
  6
CONTINUOUS
370
-3
390
F
  0
LAYER
  5
1FF
100
AcDbSymbolTableRecord
100
AcDbLayerTableRecord
  2
02___PRT_ALL_AXES
 70
0
 62
7
  6
CONTINUOUS
370
-3
390
F
  0
LAYER
  5
200
100
AcDbSymbolTableRecord
100
AcDbLayerTableRecord
  2
03___PRT_ALL_CURVES
 70
0
 62
7
  6
CONTINUOUS
370
-3
390
F
  0
LAYER
  5
201
100
AcDbSymbolTableRecord
100
AcDbLayerTableRecord
  2
04___PRT_ALL_DTM_PNT
 70
0
 62
7
  6
CONTINUOUS
370
-3
390
F
  0
LAYER
  5
202
100
AcDbSymbolTableRecord
100
AcDbLayerTableRecord
  2
05___PRT_ALL_DTM_CSYS
 70
0
 62
7
  6
CONTINUOUS
370
-3
390
F
  0
LAYER
  5
203
100
AcDbSymbolTableRecord
100
AcDbLayerTableRecord
  2
05___PRT_DEF_DTM_CSYS
 70
0
 62
7
  6
CONTINUOUS
370
-3
390
F
  0
LAYER
  5
204
100
AcDbSymbolTableRecord
100
AcDbLayerTableRecord
  2
06___PRT_ALL_SURFS
 70
0
 62
7
  6
CONTINUOUS
370
-3
390
F
  0
LAYER
  5
205
100
AcDbSymbolTableRecord
100
AcDbLayerTableRecord
  2
1_ALL_PLANES
 70
0
 62
7
  6
CONTINUOUS
370
-3
390
F
  0
LAYER
  5
206
100
AcDbSymbolTableRecord
100
AcDbLayerTableRecord
  2
1_SISCO
 70
0
 62
7
  6
CONTINUOUS
370
-3
390
F
  0
LAYER
  5
207
100
AcDbSymbolTableRecord
100
AcDbLayerTableRecord
  2
1__DEF_ASM_PLN
 70
0
 62
7
  6
CONTINUOUS
370
-3
390
F
  0
LAYER
  5
208
100
AcDbSymbolTableRecord
100
AcDbLayerTableRecord
  2
1__DEF_PLANES
 70
0
 62
7
  6
CONTINUOUS
370
-3
390
F
  0
LAYER
  5
209
100
AcDbSymbolTableRecord
100
AcDbLayerTableRecord
  2
2_ALL_CSYS
 70
0
 62
7
  6
CONTINUOUS
370
-3
390
F
  0
LAYER
  5
20A
100
AcDbSymbolTableRecord
100
AcDbLayerTableRecord
  2
2_PIANI
 70
0
 62
7
  6
CONTINUOUS
370
-3
390
F
  0
LAYER
  5
20B
100
AcDbSymbolTableRecord
100
AcDbLayerTableRecord
  2
2__DEF_ASM_CSYS
 70
0
 62
7
  6
CONTINUOUS
370
-3
390
F
  0
LAYER
  5
20C
100
AcDbSymbolTableRecord
100
AcDbLayerTableRecord
  2
2__DEF_CSYS
 70
0
 62
7
  6
CONTINUOUS
370
-3
390
F
  0
LAYER
  5
20D
100
AcDbSymbolTableRecord
100
AcDbLayerTableRecord
  2
3_ALL_AXES
 70
0
 62
7
  6
CONTINUOUS
370
-3
390
F
  0
LAYER
  5
20E
100
AcDbSymbolTableRecord
100
AcDbLayerTableRecord
  2
3_PUNTI
 70
0
 62
7
  6
CONTINUOUS
370
-3
390
F
  0
LAYER
  5
20F
100
AcDbSymbolTableRecord
100
AcDbLayerTableRecord
  2
4_ALL_POINTS
 70
0
 62
7
  6
CONTINUOUS
370
-3
390
F
  0
LAYER
  5
210
100
AcDbSymbolTableRecord
100
AcDbLayerTableRecord
  2
4_CURVE
 70
0
 62
7
  6
CONTINUOUS
370
-3
390
F
  0
LAYER
  5
211
100
AcDbSymbolTableRecord
100
AcDbLayerTableRecord
  2
5_ALL_CURVES
 70
0
 62
7
  6
CONTINUOUS
370
-3
390
F
  0
LAYER
  5
212
100
AcDbSymbolTableRecord
100
AcDbLayerTableRecord
  2
5_SUPERFICI
 70
0
 62
7
  6
CONTINUOUS
370
-3
390
F
  0
LAYER
  5
213
100
AcDbSymbolTableRecord
100
AcDbLayerTableRecord
  2
6_ALL_SURFS
 70
0
 62
7
  6
CONTINUOUS
370
-3
390
F
  0
LAYER
  5
214
100
AcDbSymbolTableRecord
100
AcDbLayerTableRecord
  2
7_ALL_QUILTS
 70
0
 62
7
  6
CONTINUOUS
370
-3
390
F
  0
LAYER
  5
215
100
AcDbSymbolTableRecord
100
AcDbLayerTableRecord
  2
8_ALL_CGFEAT
 70
0
 62
7
  6
CONTINUOUS
370
-3
390
F
  0
LAYER
  5
216
100
AcDbSymbolTableRecord
100
AcDbLayerTableRecord
  2
9_ALL_THREAD
 70
0
 62
7
  6
CONTINUOUS
370
-3
390
F
  0
LAYER
  5
217
100
AcDbSymbolTableRecord
100
AcDbLayerTableRecord
  2
FILETTATURE
 70
0
 62
7
  6
CONTINUOUS
370
-3
390
F
  0
ENDTAB
  0
TABLE
  2
STYLE
  5
3
100
AcDbSymbolTable
 70
1
  0
STYLE
  5
11
100
AcDbSymbolTableRecord
100
AcDbTextStyleTableRecord
  2
STANDARD
 70
0
 40
0.0
 41
1.0
 50
0.0
 71
0
 42
0.2
  3
arial.ttf
  4

  0
STYLE
  5
218
100
AcDbSymbolTableRecord
100
AcDbTextStyleTableRecord
  2
TEXTSTYLE_1
 70
0
 40
0.0
 41
0.8
 50
0.0
 71
0
 42
0.2
  3
gdt
  4

  0
ENDTAB
  0
TABLE
  2
VIEW
  5
6
100
AcDbSymbolTable
 70
0
  0
ENDTAB
  0
TABLE
  2
UCS
  5
7
100
AcDbSymbolTable
 70
0
  0
ENDTAB
  0
TABLE
  2
APPID
  5
9
100
AcDbSymbolTable
 70
1
  0
APPID
  5
219
100
AcDbSymbolTableRecord
100
AcDbRegAppTableRecord
  2
ACAD
 70
0
  0
ENDTAB
  0
TABLE
  2
BLOCK_RECORD
  5
1
100
AcDbSymbolTable
 70
0
  0
BLOCK_RECORD
  5
21A
100
AcDbSymbolTableRecord
100
AcDbBlockTableRecord
  2
*Model_Space
  0
BLOCK_RECORD
  5
21B
100
AcDbSymbolTableRecord
100
AcDbBlockTableRecord
  2
*Paper_Space
  0
ENDTAB
  0
TABLE
  2
DIMSTYLE
  5
A
100
AcDbSymbolTable
 70
1
100
AcDbDimStyleTable
 71
0
  0
DIMSTYLE
105
21C
100
AcDbSymbolTableRecord
100
AcDbDimStyleTableRecord
  2
STANDARD
 70
0
  3

  4

 40
1.0
 41
2.0
 42
0.0625
 43
0.38
 44
0.18
 45
0.0
 46
0.0
 47
0.01
 48
0.01
140
2.0
141
0.09
142
0.0
143
25.4
144
1.0
145
0.0
146
1.0
147
0.09
 71
0.0
 72
0.0
 73
1
 74
1
 75
0
 76
0
 77
0
 78
8
170
0
171
2
172
0
173
0
174
0
175
0
176
0
177
0
178
0
270
2
271
2
272
2
273
2
274
2
275
0
280
0
281
0
282
0
283
1
284
8
285
0
286
0
287
3
288
0
340
11
  0
ENDTAB
  0
ENDSEC
  0
SECTION
  2
BLOCKS
  0
BLOCK
  5
20
100
AcDbEntity
  8
0
100
AcDbBlockBegin
  2
*Model_Space
 70
0
 10
0.0
 20
0.0
 30
0.0
  3
*Model_Space
  1

  0
ENDBLK
  5
21
100
AcDbEntity
  8
0
100
AcDbBlockEnd
  0
BLOCK
  5
1C
100
AcDbEntity
  8
0
100
AcDbBlockBegin
  2
*Paper_Space
 70
0
 10
0.0
 20
0.0
 30
0.0
  3
*Paper_Space
  1

  0
ENDBLK
  5
1D
100
AcDbEntity
  8
0
100
AcDbBlockEnd
  0
ENDSEC
  0
SECTION
  2
ENTITIES
  0
LINE
  5
21D
100
AcDbEntity
  8
0
100
AcDbLine
 62
7
  6
CONTINUOUS
 10
613.6248260591
 20
284.836046318
 11
613.6248260591
 21
81.4045430099
  0
LINE
  5
21E
100
AcDbEntity
  8
0
100
AcDbLine
 62
9
  6
CONTINUOUS
 10
619.4826889877
 20
67.262408763
 11
619.4826889877
 21
298.978180565
  0
LINE
  5
21F
100
AcDbEntity
  8
0
100
AcDbLine
 62
7
  6
CONTINUOUS
 10
619.4826889877
 20
67.262408763
 11
627.7669356768
 21
58.9781604313
  0
LINE
  5
220
100
AcDbEntity
  8
0
100
AcDbLine
 62
9
  6
CONTINUOUS
 10
627.7669357011
 20
307.2624289086
 11
627.7669357011
 21
58.9781604193
  0
LINE
  5
221
100
AcDbEntity
  8
0
100
AcDbLine
 62
9
  6
CONTINUOUS
 10
641.9090727044
 20
313.1202946511
 11
641.9090727044
 21
53.1202946768
  0
LINE
  5
222
100
AcDbEntity
  8
0
100
AcDbLine
 62
7
  6
CONTINUOUS
 10
619.4826889877
 20
298.978180565
 11
627.7669356768
 21
307.2624288967
  0
LINE
  5
223
100
AcDbEntity
  8
0
100
AcDbLine
 62
7
  6
CONTINUOUS
 10
683.6248260591
 20
63.120294664
 11
693.6248260591
 21
53.120294664
  0
LINE
  5
224
100
AcDbEntity
  8
0
100
AcDbLine
 62
7
  6
CONTINUOUS
 10
683.6248260591
 20
313.1187710268
 11
683.6248260591
 21
53.1218183011
  0
LINE
  5
225
100
AcDbEntity
  8
0
100
AcDbLine
 62
7
  6
CONTINUOUS
 10
693.6248260591
 20
313.120294664
 11
693.6248260591
 21
53.120294664
  0
LINE
  5
226
100
AcDbEntity
  8
0
100
AcDbLine
 62
7
  6
CONTINUOUS
 10
698.6248260591
 20
23.120294664
 11
698.6248260591
 21
27.120294664
  0
LINE
  5
227
100
AcDbEntity
  8
0
100
AcDbLine
 62
9
  6
CONTINUOUS
 10
713.6248260591
 20
23.120294664
 11
713.6248260591
 21
27.120294664
  0
LINE
  5
228
100
AcDbEntity
  8
0
100
AcDbLine
 62
9
  6
CONTINUOUS
 10
734.6248260591
 20
27.120294664
 11
734.6248260591
 21
23.120294664
  0
LINE
  5
229
100
AcDbEntity
  8
0
100
AcDbLine
 62
3
  6
CONTINUOUS
 10
738.6248260591
 20
43.120294664
 11
738.6248260591
 21
31.120294664
  0
LINE
  5
22A
100
AcDbEntity
  8
0
100
AcDbLine
 62
7
  6
CONTINUOUS
 10
683.6248260591
 20
303.120294664
 11
693.6248260591
 21
313.120294664
  0
LINE
  5
22B
100
AcDbEntity
  8
0
100
AcDbLine
 62
7
  6
CONTINUOUS
 10
742.6248260591
 20
43.120294664
 11
742.6248260591
 21
31.120294664
  0
LINE
  5
22C
100
AcDbEntity
  8
0
100
AcDbLine
 62
7
  6
CONTINUOUS
 10
744.6248260591
 20
51.120294664
 11
744.6248260591
 21
66.120294664
  0
LINE
  5
22D
100
AcDbEntity
  8
0
100
AcDbLine
 62
9
  6
CONTINUOUS
 10
746.6248260591
 20
51.120294664
 11
746.6248260591
 21
47.120294664
  0
LINE
  5
22E
100
AcDbEntity
  8
0
100
AcDbLine
 62
7
  6
CONTINUOUS
 10
1249.1248260591
 20
23.120294664
 11
1189.1248260591
 21
23.120294664
  0
LINE
  5
22F
100
AcDbEntity
  8
0
100
AcDbLine
 62
7
  6
CONTINUOUS
 10
1008.6248260591
 20
23.120294664
 11
972.6248260591
 21
23.120294664
  0
LINE
  5
230
100
AcDbEntity
  8
0
100
AcDbLine
 62
7
  6
CONTINUOUS
 10
734.6248260591
 20
23.120294664
 11
698.6248260591
 21
23.120294664
  0
LINE
  5
231
100
AcDbEntity
  8
0
100
AcDbLine
 62
7
  6
CONTINUOUS
 10
1319.1248260591
 20
26.120294664
 11
1249.1248260591
 21
26.120294664
  0
LINE
  5
232
100
AcDbEntity
  8
0
100
AcDbLine
 62
7
  6
CONTINUOUS
 10
1189.1248260591
 20
26.120294664
 11
1149.1248260591
 21
26.120294664
  0
LINE
  5
233
100
AcDbEntity
  8
0
100
AcDbLine
 62
3
  6
CONTINUOUS
 10
698.6248260591
 20
27.120294664
 11
734.6248260591
 21
27.120294664
  0
LINE
  5
234
100
AcDbEntity
  8
0
100
AcDbLine
 62
3
  6
CONTINUOUS
 10
972.6248260591
 20
27.120294664
 11
1008.6248260591
 21
27.120294664
  0
LINE
  5
235
100
AcDbEntity
  8
0
100
AcDbLine
 62
9
  6
CONTINUOUS
 10
968.6248260591
 20
31.120294664
 11
964.6248260591
 21
31.120294664
  0
LINE
  5
236
100
AcDbEntity
  8
0
100
AcDbLine
 62
9
  6
CONTINUOUS
 10
738.6248260591
 20
31.120294664
 11
742.6248260591
 21
31.120294664
  0
LINE
  5
237
100
AcDbEntity
  8
02___PRT_ALL_AXES
100
AcDbLine
 62
7
  6
CONTINUOUS
 10
1336.0658791973
 20
33.120294664
 11
1349.1248260591
 21
33.120294664
  0
LINE
  5
238
100
AcDbEntity
  8
0
100
AcDbLine
 62
9
  6
CONTINUOUS
 10
1199.1248260591
 20
38.120294664
 11
1249.1248260591
 21
38.120294664
  0
LINE
  5
239
100
AcDbEntity
  8
0
100
AcDbLine
 62
7
  6
CONTINUOUS
 10
1189.1248260591
 20
41.120294664
 11
1246.1248260591
 21
41.120294664
  0
LINE
  5
23A
100
AcDbEntity
  8
0
100
AcDbLine
 62
9
  6
CONTINUOUS
 10
968.6248260591
 20
43.120294664
 11
964.6248260591
 21
43.120294664
  0
LINE
  5
23B
100
AcDbEntity
  8
0
100
AcDbLine
 62
9
  6
CONTINUOUS
 10
738.6248260591
 20
43.120294664
 11
742.6248260591
 21
43.120294664
  0
LINE
  5
23C
100
AcDbEntity
  8
0
100
AcDbLine
 62
7
  6
CONTINUOUS
 10
960.6248260591
 20
47.120294664
 11
746.6248260591
 21
47.120294664
  0
LINE
  5
23D
100
AcDbEntity
  8
0
100
AcDbLine
 62
7
  6
CONTINUOUS
 10
1128.6248260591
 20
48.120294664
 11
1119.6248260591
 21
48.120294664
  0
LINE
  5
23E
100
AcDbEntity
  8
0
100
AcDbLine
 62
3
  6
CONTINUOUS
 10
960.6248260591
 20
51.120294664
 11
746.6248260591
 21
51.120294664
  0
LINE
  5
23F
100
AcDbEntity
  8
0
100
AcDbLine
 62
7
  6
CONTINUOUS
 10
744.6248260591
 20
51.120294664
 11
746.6248260591
 21
51.120294664
  0
LINE
  5
240
100
AcDbEntity
  8
0
100
AcDbLine
 62
7
  6
CONTINUOUS
 10
960.6248260591
 20
51.120294664
 11
962.6248260591
 21
51.120294664
  0
LINE
  5
241
100
AcDbEntity
  8
02___PRT_ALL_AXES
100
AcDbLine
 62
7
  6
CONTINUOUS
 10
641.9090726956
 20
53.120294664
 11
683.6248260591
 21
53.120294664
  0
LINE
  5
242
100
AcDbEntity
  8
02___PRT_ALL_AXES
100
AcDbLine
 62
7
  6
CONTINUOUS
 10
693.6248260591
 20
53.120294664
 11
744.6248260591
 21
53.120294664
  0
LINE
  5
243
100
AcDbEntity
  8
02___PRT_ALL_AXES
100
AcDbLine
 62
7
  6
CONTINUOUS
 10
962.6248260591
 20
53.120294664
 11
1011.6248259961
 21
53.120294664
  0
LINE
  5
244
100
AcDbEntity
  8
0
100
AcDbLine
 62
7
  6
CONTINUOUS
 10
1249.1248260591
 20
57.6919088849
 11
1199.1248260591
 21
57.6919088849
  0
LINE
  5
245
100
AcDbEntity
  8
0
100
AcDbLine
 62
7
  6
CONTINUOUS
 10
841.6248260591
 20
292.664806165
 11
841.6248260591
 21
363.120294664
  0
LINE
  5
246
100
AcDbEntity
  8
3_ALL_AXES
100
AcDbLine
 62
7
  6
CONTINUOUS
 10
1129.1248260591
 20
60.620294664
 11
1128.6248260591
 21
60.620294664
  0
LINE
  5
247
100
AcDbEntity
  8
0
100
AcDbLine
 62
7
  6
CONTINUOUS
 10
744.6248260591
 20
66.120294664
 11
962.6248260591
 21
66.120294664
  0
LINE
  5
248
100
AcDbEntity
  8
3_ALL_AXES
100
AcDbLine
 62
7
  6
CONTINUOUS
 10
1044.6248260591
 20
83.120294664
 11
1032.6248260591
 21
83.120294664
  0
LINE
  5
249
100
AcDbEntity
  8
0
100
AcDbLine
 62
7
  6
CONTINUOUS
 10
1032.6248260591
 20
83.120294664
 11
1113.6248260591
 21
83.120294664
  0
LINE
  5
24A
100
AcDbEntity
  8
0
100
AcDbLine
 62
9
  6
CONTINUOUS
 10
1046.6248260591
 20
85.120294664
 11
1117.6248260591
 21
85.1202946637
  0
LINE
  5
24B
100
AcDbEntity
  8
0
100
AcDbLine
 62
9
  6
CONTINUOUS
 10
1111.6294469624
 20
106.9223360172
 11
1114.6248260591
 21
107.0887814048
  0
LINE
  5
24C
100
AcDbEntity
  8
02___PRT_ALL_AXES
100
AcDbLine
 62
7
  6
CONTINUOUS
 10
1349.1248260591
 20
93.120294664
 11
1343.1248260591
 21
93.120294664
  0
LINE
  5
24D
100
AcDbEntity
  8
0
100
AcDbLine
 62
7
  6
CONTINUOUS
 10
1049.6248260591
 20
93.120294664
 11
1111.6248260591
 21
93.120294664
  0
LINE
  5
24E
100
AcDbEntity
  8
0
100
AcDbLine
 62
9
  6
CONTINUOUS
 10
1117.6248260591
 20
94.2473113175
 11
1115.6226473489
 21
94.2473113178
  0
LINE
  5
24F
100
AcDbEntity
  8
0
100
AcDbLine
 62
7
  6
CONTINUOUS
 10
1199.1248260591
 20
94.964010976
 11
1189.1248260591
 21
94.964010976
  0
LINE
  5
250
100
AcDbEntity
  8
0
100
AcDbLine
 62
9
  6
CONTINUOUS
 10
1046.6248260591
 20
96.120294664
 11
1114.6248260591
 21
96.120294664
  0
LINE
  5
251
100
AcDbEntity
  8
0
100
AcDbLine
 62
9
  6
CONTINUOUS
 10
1114.6248260591
 20
113.1203036934
 11
1117.6248260591
 21
113.120294664
  0
LINE
  5
252
100
AcDbEntity
  8
0
100
AcDbLine
 62
9
  6
CONTINUOUS
 10
1031.6248260591
 20
123.120294664
 11
1046.6248260591
 21
123.120294664
  0
LINE
  5
253
100
AcDbEntity
  8
0
100
AcDbLine
 62
7
  6
CONTINUOUS
 10
1349.1248260591
 20
128.120294664
 11
1343.1248260591
 21
128.120294664
  0
LINE
  5
254
100
AcDbEntity
  8
0
100
AcDbLine
 62
9
  6
CONTINUOUS
 10
1074.88260212
 20
139.5169691027
 11
1050.6248260591
 21
139.5169691027
  0
LINE
  5
255
100
AcDbEntity
  8
0
100
AcDbLine
 62
9
  6
CONTINUOUS
 10
1074.88260212
 20
142.3919136452
 11
1050.6248260591
 21
142.3919136452
  0
LWPOLYLINE
  5
256
100
AcDbEntity
  8
0
100
AcDbPolyline
 62
7
  6
CONTINUOUS
 90
6
 70
0
 10
1343.1248260591
 20
93.1203123252
 10
1342.5221599627
 20
93.1659736721
 10
1341.1856538415
 20
93.6217958504
 10
1340.0908210098
 20
94.5136228926
 10
1339.3741041031
 20
95.7303079852
 10
1339.1248216093
 20
97.1202204145
  0
LINE
  5
257
100
AcDbEntity
  8
0
100
AcDbLine
 62
9
  6
CONTINUOUS
 10
1339.1248260591
 20
153.120294664
 11
1349.1248260591
 21
153.120294664
  0
LINE
  5
258
100
AcDbEntity
  8
0
100
AcDbLine
 62
9
  6
CONTINUOUS
 10
1049.5759654266
 20
137.9352292919
 11
1046.6248260591
 21
138.4744661914
  0
LINE
  5
259
100
AcDbEntity
  8
0
100
AcDbLine
 62
9
  6
CONTINUOUS
 10
960.6248260591
 20
51.120294664
 11
960.6248260591
 21
47.120294664
  0
LINE
  5
25A
100
AcDbEntity
  8
0
100
AcDbLine
 62
7
  6
CONTINUOUS
 10
962.6248260591
 20
51.120294664
 11
962.6248260591
 21
66.120294664
  0
LINE
  5
25B
100
AcDbEntity
  8
0
100
AcDbLine
 62
7
  6
CONTINUOUS
 10
964.6248260591
 20
31.120294664
 11
964.6248260591
 21
43.120294664
  0
LINE
  5
25C
100
AcDbEntity
  8
0
100
AcDbLine
 62
3
  6
CONTINUOUS
 10
968.6248260591
 20
31.120294664
 11
968.6248260591
 21
43.120294664
  0
LINE
  5
25D
100
AcDbEntity
  8
0
100
AcDbLine
 62
9
  6
CONTINUOUS
 10
972.6248260591
 20
27.120294664
 11
972.6248260591
 21
23.120294664
  0
LINE
  5
25E
100
AcDbEntity
  8
0
100
AcDbLine
 62
9
  6
CONTINUOUS
 10
1046.6248260591
 20
175.120294664
 11
1044.6248260591
 21
175.120294664
  0
LINE
  5
25F
100
AcDbEntity
  8
0
100
AcDbLine
 62
9
  6
CONTINUOUS
 10
1114.6248260591
 20
175.120294664
 11
1117.6248260591
 21
175.120294664
  0
LINE
  5
260
100
AcDbEntity
  8
0
100
AcDbLine
 62
9
  6
CONTINUOUS
 10
1050.6248260591
 20
175.6477671914
 11
1074.88260212
 21
175.6477671914
  0
LINE
  5
261
100
AcDbEntity
  8
0
100
AcDbLine
 62
7
  6
CONTINUOUS
 10
1114.6248260591
 20
178.120294664
 11
1049.6248260591
 21
178.120294664
  0
LINE
  5
262
100
AcDbEntity
  8
0
100
AcDbLine
 62
9
  6
CONTINUOUS
 10
1049.6248260591
 20
180.120294664
 11
1117.6248260591
 21
180.1202946642
  0
LINE
  5
263
100
AcDbEntity
  8
0
100
AcDbLine
 62
9
  6
CONTINUOUS
 10
1129.1248260591
 20
183.120294664
 11
1339.1248260591
 21
183.120294664
  0
LINE
  5
264
100
AcDbEntity
  8
0
100
AcDbLine
 62
9
  6
CONTINUOUS
 10
1049.6248260591
 20
186.120294664
 11
1117.6248260591
 21
186.1202946638
  0
LINE
  5
265
100
AcDbEntity
  8
0
100
AcDbLine
 62
7
  6
CONTINUOUS
 10
1049.6248260591
 20
188.120294664
 11
1114.6248260591
 21
188.120294664
  0
LINE
  5
266
100
AcDbEntity
  8
0
100
AcDbLine
 62
9
  6
CONTINUOUS
 10
1074.88260212
 20
190.5928221365
 11
1050.6248260591
 21
190.5928221365
  0
LINE
  5
267
100
AcDbEntity
  8
0
100
AcDbLine
 62
9
  6
CONTINUOUS
 10
1117.6248260591
 20
191.120294664
 11
1114.6248260591
 21
191.120294664
  0
LINE
  5
268
100
AcDbEntity
  8
0
100
AcDbLine
 62
9
  6
CONTINUOUS
 10
1046.6248260591
 20
191.120294664
 11
1044.6248260592
 21
191.1202946642
  0
LINE
  5
269
100
AcDbEntity
  8
0
100
AcDbLine
 62
7
  6
CONTINUOUS
 10
981.6248260591
 20
292.664806165
 11
981.6248260591
 21
363.120294664
  0
LINE
  5
26A
100
AcDbEntity
  8
0
100
AcDbLine
 62
9
  6
CONTINUOUS
 10
993.6248260591
 20
23.120294664
 11
993.6248260591
 21
27.120294664
  0
LINE
  5
26B
100
AcDbEntity
  8
0
100
AcDbLine
 62
9
  6
CONTINUOUS
 10
1049.5759654266
 20
228.305360036
 11
1046.6248260591
 21
227.7661231365
  0
LINE
  5
26C
100
AcDbEntity
  8
0
100
AcDbLine
 62
9
  6
CONTINUOUS
 10
1339.1248260591
 20
223.120294664
 11
1349.1248260591
 21
223.120294664
  0
LINE
  5
26D
100
AcDbEntity
  8
0
100
AcDbLine
 62
9
  6
CONTINUOUS
 10
1050.6248260591
 20
223.8486756827
 11
1074.88260212
 21
223.8486756827
  0
LINE
  5
26E
100
AcDbEntity
  8
0
100
AcDbLine
 62
9
  6
CONTINUOUS
 10
1050.6248260591
 20
226.7236202252
 11
1074.88260212
 21
226.7236202252
  0
LINE
  5
26F
100
AcDbEntity
  8
0
100
AcDbLine
 62
7
  6
CONTINUOUS
 10
1008.6248260591
 20
23.120294664
 11
1008.6248260591
 21
27.120294664
  0
LINE
  5
270
100
AcDbEntity
  8
0
100
AcDbLine
 62
7
  6
CONTINUOUS
 10
1011.62482612
 20
313.120294664
 11
1011.62482612
 21
53.120294664
  0
LINE
  5
271
100
AcDbEntity
  8
0
100
AcDbLine
 62
7
  6
CONTINUOUS
 10
1031.6248260591
 20
293.1190164765
 11
1031.6248260591
 21
73.1215728515
  0
LINE
  5
272
100
AcDbEntity
  8
0
100
AcDbLine
 62
9
  6
CONTINUOUS
 10
1031.6248260591
 20
243.120294664
 11
1046.6248260591
 21
243.120294664
  0
LINE
  5
273
100
AcDbEntity
  8
0
100
AcDbLine
 62
9
  6
CONTINUOUS
 10
1129.1248260591
 20
243.4391898274
 11
1339.1248260591
 21
243.4391898274
  0
LINE
  5
274
100
AcDbEntity
  8
0
100
AcDbLine
 62
7
  6
CONTINUOUS
 10
1349.1248260591
 20
248.120294664
 11
1343.1248260591
 21
248.120294664
  0
LINE
  5
275
100
AcDbEntity
  8
02___PRT_ALL_AXES
100
AcDbLine
 62
7
  6
CONTINUOUS
 10
1343.1248260591
 20
248.120294664
 11
1349.1248260591
 21
248.120294664
  0
LINE
  5
276
100
AcDbEntity
  8
0
100
AcDbLine
 62
9
  6
CONTINUOUS
 10
1117.6248260591
 20
253.120294664
 11
1114.6248260591
 21
253.1202856712
  0
LINE
  5
277
100
AcDbEntity
  8
0
100
AcDbLine
 62
9
  6
CONTINUOUS
 10
1032.6248260591
 20
83.120294664
 11
1032.6248260591
 21
283.120294664
  0
LINE
  5
278
100
AcDbEntity
  8
0
100
AcDbLine
 62
9
  6
CONTINUOUS
 10
1044.6248260591
 20
283.120294664
 11
1044.6248260591
 21
191.120294664
  0
LINE
  5
279
100
AcDbEntity
  8
0
100
AcDbLine
 62
9
  6
CONTINUOUS
 10
1044.6248260591
 20
175.120294664
 11
1044.6248260591
 21
83.120294664
  0
LINE
  5
27A
100
AcDbEntity
  8
0
100
AcDbLine
 62
7
  6
CONTINUOUS
 10
1046.6248260591
 20
281.120294664
 11
1046.6248260591
 21
191.120294664
  0
LINE
  5
27B
100
AcDbEntity
  8
0
100
AcDbLine
 62
7
  6
CONTINUOUS
 10
1046.6248260591
 20
175.120294664
 11
1046.6248260591
 21
85.120294664
  0
LINE
  5
27C
100
AcDbEntity
  8
0
100
AcDbLine
 62
9
  6
CONTINUOUS
 10
1049.6248260591
 20
188.120294664
 11
1049.6248260591
 21
186.120294664
  0
LINE
  5
27D
100
AcDbEntity
  8
0
100
AcDbLine
 62
9
  6
CONTINUOUS
 10
1049.6248260591
 20
137.7082918453
 11
1049.6248260591
 21
83.120294664
  0
LINE
  5
27E
100
AcDbEntity
  8
0
100
AcDbLine
 62
9
  6
CONTINUOUS
 10
1049.6248260591
 20
178.120294664
 11
1049.6248260594
 21
180.1202946639
  0
LINE
  5
27F
100
AcDbEntity
  8
0
100
AcDbLine
 62
9
  6
CONTINUOUS
 10
1049.6248260591
 20
228.5322974826
 11
1049.6248260594
 21
283.120294664
  0
LINE
  5
280
100
AcDbEntity
  8
0
100
AcDbLine
 62
9
  6
CONTINUOUS
 10
1050.6248260591
 20
226.7236202252
 11
1050.6248260591
 21
188.120294664
  0
LINE
  5
281
100
AcDbEntity
  8
0
100
AcDbLine
 62
9
  6
CONTINUOUS
 10
1050.6248260591
 20
139.5169691027
 11
1050.6248260591
 21
178.120294664
  0
LINE
  5
282
100
AcDbEntity
  8
0
100
AcDbLine
 62
9
  6
CONTINUOUS
 10
1046.6248260591
 20
270.120294664
 11
1114.6248260591
 21
270.120294664
  0
LINE
  5
283
100
AcDbEntity
  8
0
100
AcDbLine
 62
9
  6
CONTINUOUS
 10
1115.622647496
 20
271.9932780102
 11
1117.6248260591
 21
271.9932780105
  0
LINE
  5
284
100
AcDbEntity
  8
0
100
AcDbLine
 62
7
  6
CONTINUOUS
 10
1360.1248260591
 20
273.120294664
 11
1339.1248260591
 21
273.120294664
  0
LINE
  5
285
100
AcDbEntity
  8
0
100
AcDbLine
 62
7
  6
CONTINUOUS
 10
1111.6248260591
 20
273.120294664
 11
1049.6248260591
 21
273.120294664
  0
LINE
  5
286
100
AcDbEntity
  8
0
100
AcDbLine
 62
9
  6
CONTINUOUS
 10
1046.6248260591
 20
281.120294664
 11
1117.6248260591
 21
281.1202946642
  0
LINE
  5
287
100
AcDbEntity
  8
0
100
AcDbLine
 62
7
  6
CONTINUOUS
 10
1364.1248260591
 20
282.120294664
 11
1384.1248260591
 21
282.120294664
  0
LINE
  5
288
100
AcDbEntity
  8
0
100
AcDbLine
 62
7
  6
CONTINUOUS
 10
1113.6248260591
 20
283.120294664
 11
1032.6248260591
 21
283.120294664
  0
LINE
  5
289
100
AcDbEntity
  8
0
100
AcDbLine
 62
9
  6
CONTINUOUS
 10
1362.1248260591
 20
285.120294664
 11
1349.1248260591
 21
285.120294664
  0
LINE
  5
28A
100
AcDbEntity
  8
0
100
AcDbLine
 62
9
  6
CONTINUOUS
 10
1349.1248260591
 20
288.120294664
 11
1339.1248260591
 21
288.120294664
  0
LINE
  5
28B
100
AcDbEntity
  8
0
100
AcDbLine
 62
9
  6
CONTINUOUS
 10
1111.6294469624
 20
259.3182533107
 11
1114.6248260591
 21
259.1518079232
  0
LINE
  5
28C
100
AcDbEntity
  8
0
100
AcDbLine
 62
9
  6
CONTINUOUS
 10
1078.2187269742
 20
228.0439917858
 11
1080.0249029975
 21
225.7359957603
  0
LINE
  5
28D
100
AcDbEntity
  8
0
100
AcDbLine
 62
9
  6
CONTINUOUS
 10
1074.88260212
 20
139.5169691027
 11
1074.88260212
 21
178.120294664
  0
LINE
  5
28E
100
AcDbEntity
  8
0
100
AcDbLine
 62
9
  6
CONTINUOUS
 10
1074.88260212
 20
188.120294664
 11
1074.88260212
 21
226.7236202252
  0
LINE
  5
28F
100
AcDbEntity
  8
0
100
AcDbLine
 62
9
  6
CONTINUOUS
 10
1080.0249029975
 20
140.5045935794
 11
1080.0249029975
 21
175.5142341149
  0
LINE
  5
290
100
AcDbEntity
  8
0
100
AcDbLine
 62
9
  6
CONTINUOUS
 10
1080.0249029975
 20
190.726355213
 11
1080.0249029975
 21
225.7359957603
  0
LINE
  5
291
100
AcDbEntity
  8
0
100
AcDbLine
 62
7
  6
CONTINUOUS
 10
841.6248260591
 20
292.664806165
 11
981.6248260591
 21
292.664806165
  0
LINE
  5
292
100
AcDbEntity
  8
3_ALL_AXES
100
AcDbLine
 62
7
  6
CONTINUOUS
 10
1129.1248260591
 20
305.620294664
 11
1128.6248260591
 21
305.620294664
  0
LINE
  5
293
100
AcDbEntity
  8
02___PRT_ALL_AXES
100
AcDbLine
 62
7
  6
CONTINUOUS
 10
641.9090726956
 20
313.120294664
 11
683.6248260591
 21
313.120294664
  0
LINE
  5
294
100
AcDbEntity
  8
02___PRT_ALL_AXES
100
AcDbLine
 62
7
  6
CONTINUOUS
 10
693.6248260591
 20
313.120294664
 11
841.6248260591
 21
313.120294664
  0
LINE
  5
295
100
AcDbEntity
  8
02___PRT_ALL_AXES
100
AcDbLine
 62
7
  6
CONTINUOUS
 10
981.6248260591
 20
313.120294664
 11
1011.6248259961
 21
313.120294664
  0
LINE
  5
296
100
AcDbEntity
  8
0
100
AcDbLine
 62
7
  6
CONTINUOUS
 10
1128.6248260591
 20
318.120294664
 11
1119.6248260591
 21
318.120294664
  0
LINE
  5
297
100
AcDbEntity
  8
0
100
AcDbLine
 62
7
  6
CONTINUOUS
 10
1031.6248368119
 20
293.120305366
 11
1011.6248387055
 21
313.1203073733
  0
LINE
  5
298
100
AcDbEntity
  8
0
100
AcDbLine
 62
9
  6
CONTINUOUS
 10
1111.6248260591
 20
91.1202701676
 11
1111.6248260591
 21
106.6363681926
  0
LINE
  5
299
100
AcDbEntity
  8
0
100
AcDbLine
 62
9
  6
CONTINUOUS
 10
1111.6248260591
 20
259.6042211354
 11
1111.6248260591
 21
275.1203191643
  0
LINE
  5
29A
100
AcDbEntity
  8
0
100
AcDbLine
 62
9
  6
CONTINUOUS
 10
1111.7671269366
 20
113.2392665108
 11
1111.7671269366
 21
175.3710981611
  0
LINE
  5
29B
100
AcDbEntity
  8
0
100
AcDbLine
 62
9
  6
CONTINUOUS
 10
1111.7671269366
 20
190.8694911668
 11
1111.7671269366
 21
253.0013228171
  0
LINE
  5
29C
100
AcDbEntity
  8
0
100
AcDbLine
 62
9
  6
CONTINUOUS
 10
1113.6248260591
 20
83.120294664
 11
1113.6248260591
 21
91.4266774239
  0
LINE
  5
29D
100
AcDbEntity
  8
0
100
AcDbLine
 62
9
  6
CONTINUOUS
 10
1113.6248260591
 20
274.8139121437
 11
1113.6248260591
 21
283.120294664
  0
LINE
  5
29E
100
AcDbEntity
  8
0
100
AcDbLine
 62
7
  6
CONTINUOUS
 10
1114.6248260591
 20
96.120294664
 11
1114.6248260591
 21
175.120294664
  0
LINE
  5
29F
100
AcDbEntity
  8
0
100
AcDbLine
 62
9
  6
CONTINUOUS
 10
1114.6248260591
 20
178.120294664
 11
1114.6248260591
 21
188.120294664
  0
LINE
  5
2A0
100
AcDbEntity
  8
0
100
AcDbLine
 62
7
  6
CONTINUOUS
 10
1114.6248260591
 20
191.120294664
 11
1114.6248260591
 21
270.120294664
  0
LINE
  5
2A1
100
AcDbEntity
  8
0
100
AcDbLine
 62
9
  6
CONTINUOUS
 10
1116.1248260577
 20
113.120294664
 11
1116.1248260591
 21
175.120294664
  0
LINE
  5
2A2
100
AcDbEntity
  8
0
100
AcDbLine
 62
9
  6
CONTINUOUS
 10
1116.1248260591
 20
191.120294664
 11
1116.1248260577
 21
253.1202946648
  0
LINE
  5
2A3
100
AcDbEntity
  8
0
100
AcDbLine
 62
7
  6
CONTINUOUS
 10
1117.6248260591
 20
316.120294664
 11
1117.6248260591
 21
50.120294664
  0
LINE
  5
2A4
100
AcDbEntity
  8
0
100
AcDbLine
 62
9
  6
CONTINUOUS
 10
1078.2187239788
 20
138.1965998867
 11
1080.0249029975
 21
140.5045935794
  0
LINE
  5
2A5
100
AcDbEntity
  8
0
100
AcDbLine
 62
9
  6
CONTINUOUS
 10
1109.845370211
 20
255.2686446092
 11
1111.7671269366
 21
253.0013228171
  0
LINE
  5
2A6
100
AcDbEntity
  8
0
100
AcDbLine
 62
9
  6
CONTINUOUS
 10
1110.0480450792
 20
255.4474437499
 11
1111.9708030899
 21
253.1788277744
  0
LINE
  5
2A7
100
AcDbEntity
  8
0
100
AcDbLine
 62
9
  6
CONTINUOUS
 10
1119.6248260591
 20
318.120294664
 11
1119.6248260591
 21
48.120294664
  0
LINE
  5
2A8
100
AcDbEntity
  8
0
100
AcDbLine
 62
7
  6
CONTINUOUS
 10
1128.6248260591
 20
318.120294664
 11
1128.6248260591
 21
48.120294664
  0
LINE
  5
2A9
100
AcDbEntity
  8
0
100
AcDbLine
 62
7
  6
CONTINUOUS
 10
1129.1248260591
 20
418.120294664
 11
1129.1248260591
 21
395.120294664
  0
LINE
  5
2AA
100
AcDbEntity
  8
3_ALL_AXES
100
AcDbLine
 62
7
  6
CONTINUOUS
 10
1129.1248260591
 20
202.2278453306
 11
1129.1248260591
 21
127.7035215
  0
LINE
  5
2AB
100
AcDbEntity
  8
0
100
AcDbLine
 62
7
  6
CONTINUOUS
 10
1129.1248260591
 20
46.1202947147
 11
1129.1248260591
 21
135.5251179534
  0
LINE
  5
2AC
100
AcDbEntity
  8
0
100
AcDbLine
 62
7
  6
CONTINUOUS
 10
1129.1248260591
 20
202.2278453306
 11
1129.1248260591
 21
373.120294664
  0
LINE
  5
2AD
100
AcDbEntity
  8
0
100
AcDbLine
 62
7
  6
CONTINUOUS
 10
1138.1248260591
 20
422.120294664
 11
1138.1248260591
 21
435.120294664
  0
LINE
  5
2AE
100
AcDbEntity
  8
0
100
AcDbLine
 62
9
  6
CONTINUOUS
 10
1141.1248260591
 20
420.120294664
 11
1141.1248260591
 21
408.120294664
  0
LINE
  5
2AF
100
AcDbEntity
  8
0
100
AcDbLine
 62
9
  6
CONTINUOUS
 10
1144.1248260591
 20
408.120294664
 11
1144.1248260591
 21
395.120294664
  0
LINE
  5
2B0
100
AcDbEntity
  8
0
100
AcDbLine
 62
7
  6
CONTINUOUS
 10
1146.6248260591
 20
392.8382041935
 11
1146.6248260591
 21
395.120294664
  0
LWPOLYLINE
  5
2B1
100
AcDbEntity
  8
0
100
AcDbPolyline
 62
7
  6
CONTINUOUS
 90
6
 70
0
 10
1159.1248188986
 20
397.120294664
 10
1159.0791528255
 20
396.5175978048
 10
1158.623305344
 20
395.1810690809
 10
1157.7314392261
 20
394.0862315716
 10
1156.5147119508
 20
393.3695332491
 10
1155.2085581406
 20
393.1353090243
  0
LINE
  5
2B2
100
AcDbEntity
  8
0
100
AcDbLine
 62
7
  6
CONTINUOUS
 10
1031.6248368119
 20
73.1202839619
 11
1011.6248387055
 21
53.1202819546
  0
LINE
  5
2B3
100
AcDbEntity
  8
0
100
AcDbLine
 62
7
  6
CONTINUOUS
 10
841.6248260591
 20
363.120294664
 11
981.6248260591
 21
363.120294664
  0
LINE
  5
2B4
100
AcDbEntity
  8
0
100
AcDbLine
 62
9
  6
CONTINUOUS
 10
1349.1248260591
 20
378.120294664
 11
1336.182809204
 21
378.120294664
  0
LINE
  5
2B5
100
AcDbEntity
  8
0
100
AcDbLine
 62
9
  6
CONTINUOUS
 10
1149.1248260591
 20
26.120294664
 11
1149.1248260873
 21
393.120294664
  0
LINE
  5
2B6
100
AcDbEntity
  8
02___PRT_ALL_AXES
100
AcDbLine
 62
7
  6
CONTINUOUS
 10
1159.1248260591
 20
408.120294664
 11
1159.1248260591
 21
397.120294664
  0
LINE
  5
2B7
100
AcDbEntity
  8
0
100
AcDbLine
 62
9
  6
CONTINUOUS
 10
1109.8453702368
 20
110.9719446968
 11
1111.7671269366
 21
113.2392665108
  0
LINE
  5
2B8
100
AcDbEntity
  8
0
100
AcDbLine
 62
9
  6
CONTINUOUS
 10
1110.0480450792
 20
110.793145578
 11
1111.9708030899
 21
113.0617615536
  0
LINE
  5
2B9
100
AcDbEntity
  8
0
100
AcDbLine
 62
9
  6
CONTINUOUS
 10
1362.1248260591
 20
381.120294664
 11
1349.1248260591
 21
381.120294664
  0
LINE
  5
2BA
100
AcDbEntity
  8
0
100
AcDbLine
 62
7
  6
CONTINUOUS
 10
1364.1248260591
 20
384.120294664
 11
1384.1248260591
 21
384.120294664
  0
LINE
  5
2BB
100
AcDbEntity
  8
0
100
AcDbLine
 62
9
  6
CONTINUOUS
 10
1222.7026736936
 20
392.3471719354
 11
1319.1248260591
 21
392.3471719354
  0
LINE
  5
2BC
100
AcDbEntity
  8
0
100
AcDbLine
 62
9
  6
CONTINUOUS
 10
1149.1248260907
 20
392.3471857441
 11
1155.5469784246
 21
392.3471719355
  0
LINE
  5
2BD
100
AcDbEntity
  8
0
100
AcDbLine
 62
7
  6
CONTINUOUS
 10
1360.1248260591
 20
393.120294664
 11
1223.0384015482
 21
393.120294664
  0
LINE
  5
2BE
100
AcDbEntity
  8
0
100
AcDbLine
 62
7
  6
CONTINUOUS
 10
1155.21125057
 20
393.120294664
 11
1149.1248260591
 21
393.120294664
  0
LINE
  5
2BF
100
AcDbEntity
  8
0
100
AcDbLine
 62
7
  6
CONTINUOUS
 10
1249.1248260591
 20
395.120294664
 11
1219.6758515574
 21
395.120294664
  0
LINE
  5
2C0
100
AcDbEntity
  8
0
100
AcDbLine
 62
7
  6
CONTINUOUS
 10
1158.5737978666
 20
395.120294664
 11
1129.1248260591
 21
395.120294664
  0
LINE
  5
2C1
100
AcDbEntity
  8
0
100
AcDbLine
 62
9
  6
CONTINUOUS
 10
1159.1248260638
 20
397.120294664
 11
1159.2088560074
 21
397.120294664
  0
LINE
  5
2C2
100
AcDbEntity
  8
0
100
AcDbLine
 62
9
  6
CONTINUOUS
 10
1219.0407961108
 20
397.120294664
 11
1219.1248260553
 21
397.120294664
  0
LINE
  5
2C3
100
AcDbEntity
  8
0
100
AcDbLine
 62
7
  6
CONTINUOUS
 10
1189.1248260591
 20
23.120294664
 11
1189.1248260591
 21
94.964010976
  0
LINE
  5
2C4
100
AcDbEntity
  8
0
100
AcDbLine
 62
7
  6
CONTINUOUS
 10
1199.1248260591
 20
38.120294664
 11
1199.1248260591
 21
94.964010976
  0
LINE
  5
2C5
100
AcDbEntity
  8
0
100
AcDbLine
 62
7
  6
CONTINUOUS
 10
1249.1248260591
 20
408.120294664
 11
1219.1248260591
 21
408.120294664
  0
LINE
  5
2C6
100
AcDbEntity
  8
0
100
AcDbLine
 62
7
  6
CONTINUOUS
 10
1159.1248260591
 20
408.120294664
 11
1129.1248260591
 21
408.120294664
  0
LINE
  5
2C7
100
AcDbEntity
  8
02___PRT_ALL_AXES
100
AcDbLine
 62
7
  6
CONTINUOUS
 10
1159.1248260591
 20
408.120294664
 11
1219.1248260591
 21
408.120294664
  0
LINE
  5
2C8
100
AcDbEntity
  8
0
100
AcDbLine
 62
9
  6
CONTINUOUS
 10
1129.1248260591
 20
418.120294664
 11
1249.1248260591
 21
418.120294664
  0
LINE
  5
2C9
100
AcDbEntity
  8
0
100
AcDbLine
 62
7
  6
CONTINUOUS
 10
1131.1248260591
 20
420.120294664
 11
1247.1248260591
 21
420.120294664
  0
LINE
  5
2CA
100
AcDbEntity
  8
0
100
AcDbLine
 62
9
  6
CONTINUOUS
 10
1138.1248260591
 20
422.120294664
 11
1240.1248260591
 21
422.120294664
  0
LINE
  5
2CB
100
AcDbEntity
  8
0
100
AcDbLine
 62
7
  6
CONTINUOUS
 10
1138.1248260591
 20
435.120294664
 11
1240.1248260591
 21
435.120294664
  0
LWPOLYLINE
  5
2CC
100
AcDbEntity
  8
0
100
AcDbPolyline
 62
7
  6
CONTINUOUS
 90
6
 70
0
 10
1223.0410939634
 20
393.1353090763
 10
1221.7349493053
 20
393.3695296101
 10
1220.5182168668
 20
394.0862268142
 10
1219.6263470438
 20
395.181065241
 10
1219.1704976399
 20
396.5175957234
 10
1219.1248312395
 20
397.120294664
  0
LINE
  5
2CD
100
AcDbEntity
  8
02___PRT_ALL_AXES
100
AcDbLine
 62
7
  6
CONTINUOUS
 10
1219.1248260591
 20
397.120294664
 11
1219.1248260591
 21
408.120294664
  0
LINE
  5
2CE
100
AcDbEntity
  8
0
100
AcDbLine
 62
7
  6
CONTINUOUS
 10
1231.6248260591
 20
393.120294664
 11
1231.6248260591
 21
395.120294664
  0
LINE
  5
2CF
100
AcDbEntity
  8
0
100
AcDbLine
 62
9
  6
CONTINUOUS
 10
1234.1248260591
 20
408.120294664
 11
1234.1248260591
 21
395.120294664
  0
LINE
  5
2D0
100
AcDbEntity
  8
0
100
AcDbLine
 62
9
  6
CONTINUOUS
 10
1237.1248260591
 20
420.120294664
 11
1237.1248260591
 21
408.120294664
  0
LINE
  5
2D1
100
AcDbEntity
  8
0
100
AcDbLine
 62
9
  6
CONTINUOUS
 10
1237.1248260591
 20
23.120294664
 11
1237.1248260591
 21
41.120294664
  0
LINE
  5
2D2
100
AcDbEntity
  8
0
100
AcDbLine
 62
7
  6
CONTINUOUS
 10
1240.1248260591
 20
422.120294664
 11
1240.1248260591
 21
435.120294664
  0
LINE
  5
2D3
100
AcDbEntity
  8
0
100
AcDbLine
 62
7
  6
CONTINUOUS
 10
1249.1248260591
 20
418.120294664
 11
1249.1248260591
 21
395.120294664
  0
LINE
  5
2D4
100
AcDbEntity
  8
0
100
AcDbLine
 62
7
  6
CONTINUOUS
 10
1249.1248260591
 20
57.6919088849
 11
1249.1248260591
 21
23.120294664
  0
LINE
  5
2D5
100
AcDbEntity
  8
0
100
AcDbLine
 62
9
  6
CONTINUOUS
 10
1319.1248260591
 20
392.3471719354
 11
1319.1248260591
 21
26.120294664
  0
LINE
  5
2D6
100
AcDbEntity
  8
0
100
AcDbLine
 62
7
  6
CONTINUOUS
 10
1339.1248260591
 20
366.6016841185
 11
1339.1248260591
 21
64.7229413651
  0
LINE
  5
2D7
100
AcDbEntity
  8
0
100
AcDbLine
 62
9
  6
CONTINUOUS
 10
1343.1248260591
 20
248.120294664
 11
1343.1248260591
 21
128.120294664
  0
LINE
  5
2D8
100
AcDbEntity
  8
0
100
AcDbLine
 62
9
  6
CONTINUOUS
 10
1343.1248260591
 20
93.120294664
 11
1343.1248260591
 21
64.3646093959
  0
LINE
  5
2D9
100
AcDbEntity
  8
02___PRT_ALL_AXES
100
AcDbLine
 62
7
  6
CONTINUOUS
 10
1349.1248260591
 20
248.120294664
 11
1349.1248260591
 21
128.120294664
  0
LINE
  5
2DA
100
AcDbEntity
  8
02___PRT_ALL_AXES
100
AcDbLine
 62
7
  6
CONTINUOUS
 10
1349.1248260591
 20
93.120294664
 11
1349.1248260591
 21
33.120294664
  0
LINE
  5
2DB
100
AcDbEntity
  8
0
100
AcDbLine
 62
7
  6
CONTINUOUS
 10
1349.1248260591
 20
273.120294664
 11
1349.1248260591
 21
393.120294664
  0
LINE
  5
2DC
100
AcDbEntity
  8
0
100
AcDbLine
 62
9
  6
CONTINUOUS
 10
1360.1248260591
 20
393.120294664
 11
1360.1248260591
 21
273.120294664
  0
LINE
  5
2DD
100
AcDbEntity
  8
0
100
AcDbLine
 62
7
  6
CONTINUOUS
 10
1362.1248260591
 20
391.120294664
 11
1362.1248260591
 21
275.120294664
  0
LINE
  5
2DE
100
AcDbEntity
  8
0
100
AcDbLine
 62
9
  6
CONTINUOUS
 10
1364.1248260591
 20
384.120294664
 11
1364.1248260591
 21
282.120294664
  0
LWPOLYLINE
  5
2DF
100
AcDbEntity
  8
0
100
AcDbPolyline
 62
7
  6
CONTINUOUS
 90
4
 70
0
 10
1333.2423665159
 20
31.9536120055
 10
1334.2122067326
 20
32.6648362372
 10
1335.5112870355
 20
33.0816433433
 10
1336.065879188
 20
33.1202763986
  0
LINE
  5
2E0
100
AcDbEntity
  8
0
100
AcDbLine
 62
7
  6
CONTINUOUS
 10
1384.1248260591
 20
384.120294664
 11
1384.1248260591
 21
282.120294664
  0
LINE
  5
2E1
100
AcDbEntity
  8
0
100
AcDbLine
 62
7
  6
CONTINUOUS
 10
313.0355478411
 20
23.120294664
 11
23.0355478411
 21
23.120294664
  0
LINE
  5
2E2
100
AcDbEntity
  8
0
100
AcDbLine
 62
7
  6
CONTINUOUS
 10
263.0355478411
 20
26.120294664
 11
73.0355478411
 21
26.120294664
  0
LINE
  5
2E3
100
AcDbEntity
  8
0
100
AcDbLine
 62
9
  6
CONTINUOUS
 10
23.0355478411
 20
38.120294664
 11
70.0355478411
 21
38.120294664
  0
LINE
  5
2E4
100
AcDbEntity
  8
0
100
AcDbLine
 62
9
  6
CONTINUOUS
 10
266.0355478411
 20
38.120294664
 11
313.0355478411
 21
38.120294664
  0
LINE
  5
2E5
100
AcDbEntity
  8
0
100
AcDbLine
 62
7
  6
CONTINUOUS
 10
26.0355478411
 20
41.120294664
 11
73.0355478411
 21
41.120294664
  0
LINE
  5
2E6
100
AcDbEntity
  8
0
100
AcDbLine
 62
7
  6
CONTINUOUS
 10
263.0355478411
 20
41.120294664
 11
310.0355478411
 21
41.120294664
  0
LINE
  5
2E7
100
AcDbEntity
  8
0
100
AcDbLine
 62
7
  6
CONTINUOUS
 10
23.0355478411
 20
23.120294664
 11
23.0355478411
 21
41.120294664
  0
LINE
  5
2E8
100
AcDbEntity
  8
0
100
AcDbLine
 62
7
  6
CONTINUOUS
 10
27.0355478411
 20
243.4391898274
 11
27.0355478411
 21
183.120294664
  0
LINE
  5
2E9
100
AcDbEntity
  8
0
100
AcDbLine
 62
7
  6
CONTINUOUS
 10
78.5845899595
 20
360.0846463844
 11
78.4419579297
 21
359.8330095986
  0
LINE
  5
2EA
100
AcDbEntity
  8
0
100
AcDbLine
 62
7
  6
CONTINUOUS
 10
78.5624834271
 20
360.0427807436
 11
78.3945290438
 21
359.7579189193
  0
LINE
  5
2EB
100
AcDbEntity
  8
0
100
AcDbLine
 62
7
  6
CONTINUOUS
 10
78.4419579297
 20
359.8330095986
 11
78.2915211758
 21
359.6062985448
  0
LINE
  5
2EC
100
AcDbEntity
  8
0
100
AcDbLine
 62
7
  6
CONTINUOUS
 10
78.3945290438
 20
359.7579189193
 11
78.2177633379
 21
359.5063669469
  0
LINE
  5
2ED
100
AcDbEntity
  8
0
100
AcDbLine
 62
7
  6
CONTINUOUS
 10
78.2915211758
 20
359.6062985448
 11
78.1405432831
 21
359.4081179997
  0
LINE
  5
2EE
100
AcDbEntity
  8
0
100
AcDbLine
 62
7
  6
CONTINUOUS
 10
78.2177633379
 20
359.5063669469
 11
78.036225346
 21
359.2849670316
  0
LWPOLYLINE
  5
2EF
100
AcDbEntity
  8
0
100
AcDbPolyline
 62
7
  6
CONTINUOUS
 90
3
 70
0
 10
78.1405432831
 20
359.4081179997
 10
77.9956844712
 20
359.2395762708
 10
77.8732547637
 20
359.1107770335
  0
LINE
  5
2F0
100
AcDbEntity
  8
0
100
AcDbLine
 62
7
  6
CONTINUOUS
 10
78.036225346
 20
359.2849670316
 11
77.8732081421
 21
359.1108450777
  0
LINE
  5
2F1
100
AcDbEntity
  8
0
100
AcDbLine
 62
9
  6
CONTINUOUS
 10
252.9635295222
 20
64.7229409645
 11
248.9791636401
 21
64.3645690146
  0
LINE
  5
2F2
100
AcDbEntity
  8
0
100
AcDbLine
 62
9
  6
CONTINUOUS
 10
115.1075659718
 20
64.7229411656
 11
119.0914836905
 21
64.3646093728
  0
LINE
  5
2F3
100
AcDbEntity
  8
0
100
AcDbLine
 62
9
  6
CONTINUOUS
 10
35.0355478411
 20
23.120294664
 11
35.0355478411
 21
41.120294664
  0
LINE
  5
2F4
100
AcDbEntity
  8
0
100
AcDbLine
 62
9
  6
CONTINUOUS
 10
47.0355478411
 20
243.4391898274
 11
47.0355478411
 21
183.120294664
  0
LINE
  5
2F5
100
AcDbEntity
  8
0
100
AcDbLine
 62
7
  6
CONTINUOUS
 10
78.7084035064
 20
360.3453311922
 11
78.7251001517
 21
360.384604135
  0
LINE
  5
2F6
100
AcDbEntity
  8
0
100
AcDbLine
 62
7
  6
CONTINUOUS
 10
78.7084035064
 20
360.3453311922
 11
78.5845899595
 21
360.0846463844
  0
LINE
  5
2F7
100
AcDbEntity
  8
0
100
AcDbLine
 62
7
  6
CONTINUOUS
 10
78.7250995417
 20
360.3846045258
 11
78.5624834271
 21
360.0427807436
  0
LINE
  5
2F8
100
AcDbEntity
  8
02___PRT_ALL_AXES
100
AcDbLine
 62
7
  6
CONTINUOUS
 10
73.0355478411
 20
23.120294664
 11
73.0355478411
 21
26.9781590402
  0
LINE
  5
2F9
100
AcDbEntity
  8
0
100
AcDbLine
 62
7
  6
CONTINUOUS
 10
79.0355478411
 20
408.120294664
 11
79.0355478411
 21
361.9296957762
  0
LINE
  5
2FA
100
AcDbEntity
  8
0
100
AcDbLine
 62
9
  6
CONTINUOUS
 10
119.0355478411
 20
124.120294664
 11
249.0355478411
 21
124.120294664
  0
LINE
  5
2FB
100
AcDbEntity
  8
0
100
AcDbLine
 62
9
  6
CONTINUOUS
 10
90.0355478411
 20
223.120294664
 11
90.0355478411
 21
153.120294664
  0
LINE
  5
2FC
100
AcDbEntity
  8
02___PRT_ALL_AXES
100
AcDbLine
 62
7
  6
CONTINUOUS
 10
94.0355478411
 20
223.120294664
 11
94.0355478411
 21
153.120294664
  0
LINE
  5
2FD
100
AcDbEntity
  8
02___PRT_ALL_AXES
100
AcDbLine
 62
7
  6
CONTINUOUS
 10
119.0355478411
 20
128.120294664
 11
249.0355478411
 21
128.120294664
  0
LINE
  5
2FE
100
AcDbEntity
  8
02___PRT_ALL_AXES
100
AcDbLine
 62
7
  6
CONTINUOUS
 10
249.5643010082
 20
40.4494058731
 11
263.0355478411
 21
26.9781590402
  0
LINE
  5
2FF
100
AcDbEntity
  8
0
100
AcDbLine
 62
9
  6
CONTINUOUS
 10
278.0355478411
 20
153.120294664
 11
274.0355478411
 21
153.120294664
  0
LINE
  5
300
100
AcDbEntity
  8
0
100
AcDbLine
 62
9
  6
CONTINUOUS
 10
90.0355478411
 20
153.120294664
 11
94.0355478411
 21
153.120294664
  0
LINE
  5
301
100
AcDbEntity
  8
0
100
AcDbLine
 62
7
  6
CONTINUOUS
 10
266.0355478411
 20
38.120294664
 11
258.9885891316
 21
45.1672533735
  0
LINE
  5
302
100
AcDbEntity
  8
0
100
AcDbLine
 62
9
  6
CONTINUOUS
 10
119.0355478411
 20
252.120294664
 11
119.0355478411
 21
248.120294664
  0
LINE
  5
303
100
AcDbEntity
  8
0
100
AcDbLine
 62
9
  6
CONTINUOUS
 10
119.0355478411
 20
124.120294664
 11
119.0355478411
 21
128.120294664
  0
LINE
  5
304
100
AcDbEntity
  8
0
100
AcDbLine
 62
7
  6
CONTINUOUS
 10
124.0355478411
 20
381.120294664
 11
124.0355478411
 21
285.120294664
  0
LINE
  5
305
100
AcDbEntity
  8
0
100
AcDbLine
 62
9
  6
CONTINUOUS
 10
126.0355478411
 20
381.120294664
 11
126.0355478411
 21
285.120294664
  0
LINE
  5
306
100
AcDbEntity
  8
0
100
AcDbLine
 62
9
  6
CONTINUOUS
 10
136.0355478411
 20
275.120294664
 11
136.0355478411
 21
273.120294664
  0
LINE
  5
307
100
AcDbEntity
  8
0
100
AcDbLine
 62
9
  6
CONTINUOUS
 10
136.0355478411
 20
391.120294664
 11
136.0355478411
 21
393.120294664
  0
LINE
  5
308
100
AcDbEntity
  8
0
100
AcDbLine
 62
7
  6
CONTINUOUS
 10
23.0355478411
 20
41.120294664
 11
54.122231948
 21
94.964010976
  0
LINE
  5
309
100
AcDbEntity
  8
0
100
AcDbLine
 62
9
  6
CONTINUOUS
 10
47.0355478411
 20
183.120294664
 11
27.0355478411
 21
183.120294664
  0
LINE
  5
30A
100
AcDbEntity
  8
0
100
AcDbLine
 62
9
  6
CONTINUOUS
 10
321.0355478411
 20
183.120294664
 11
341.0355478411
 21
183.120294664
  0
LINE
  5
30B
100
AcDbEntity
  8
0
100
AcDbLine
 62
9
  6
CONTINUOUS
 10
278.0355478411
 20
223.120294664
 11
274.0355478411
 21
223.120294664
  0
LINE
  5
30C
100
AcDbEntity
  8
0
100
AcDbLine
 62
9
  6
CONTINUOUS
 10
90.0355478411
 20
223.120294664
 11
94.0355478411
 21
223.120294664
  0
LINE
  5
30D
100
AcDbEntity
  8
0
100
AcDbLine
 62
9
  6
CONTINUOUS
 10
47.0355478411
 20
243.4391898274
 11
27.0355478411
 21
243.4391898274
  0
LINE
  5
30E
100
AcDbEntity
  8
0
100
AcDbLine
 62
9
  6
CONTINUOUS
 10
321.0355478411
 20
243.4391898274
 11
341.0355478411
 21
243.4391898274
  0
LINE
  5
30F
100
AcDbEntity
  8
02___PRT_ALL_AXES
100
AcDbLine
 62
7
  6
CONTINUOUS
 10
249.0355478411
 20
248.120294664
 11
119.0355478411
 21
248.120294664
  0
LINE
  5
310
100
AcDbEntity
  8
0
100
AcDbLine
 62
7
  6
CONTINUOUS
 10
295.1118314955
 20
72.165082035
 11
313.0355478411
 21
41.120294664
  0
LINE
  5
311
100
AcDbEntity
  8
0
100
AcDbLine
 62
7
  6
CONTINUOUS
 10
209.0355478411
 20
408.120294664
 11
209.0355478411
 21
397.120294664
  0
LINE
  5
312
100
AcDbEntity
  8
0
100
AcDbLine
 62
9
  6
CONTINUOUS
 10
249.0355478411
 20
252.120294664
 11
119.0355478411
 21
252.120294664
  0
LINE
  5
313
100
AcDbEntity
  8
0
100
AcDbLine
 62
7
  6
CONTINUOUS
 10
230.0355478411
 20
418.120294664
 11
230.0355478411
 21
395.120294664
  0
LINE
  5
314
100
AcDbEntity
  8
0
100
AcDbLine
 62
9
  6
CONTINUOUS
 10
232.0355478411
 20
275.120294664
 11
232.0355478411
 21
273.120294664
  0
LINE
  5
315
100
AcDbEntity
  8
0
100
AcDbLine
 62
9
  6
CONTINUOUS
 10
232.0355478411
 20
391.120294664
 11
232.0355478411
 21
393.120294664
  0
LINE
  5
316
100
AcDbEntity
  8
0
100
AcDbLine
 62
7
  6
CONTINUOUS
 10
239.0355478411
 20
422.120294664
 11
239.0355478411
 21
435.120294664
  0
LINE
  5
317
100
AcDbEntity
  8
0
100
AcDbLine
 62
7
  6
CONTINUOUS
 10
89.607162062
 20
57.6919088849
 11
70.0355478411
 21
38.120294664
  0
LINE
  5
318
100
AcDbEntity
  8
0
100
AcDbLine
 62
7
  6
CONTINUOUS
 10
136.0355478411
 20
273.120294664
 11
232.0355478411
 21
273.120294664
  0
LINE
  5
319
100
AcDbEntity
  8
0
100
AcDbLine
 62
9
  6
CONTINUOUS
 10
136.0355478411
 20
275.120294664
 11
232.0355478411
 21
275.120294664
  0
LINE
  5
31A
100
AcDbEntity
  8
0
100
AcDbLine
 62
9
  6
CONTINUOUS
 10
242.0355478411
 20
420.120294664
 11
242.0355478411
 21
408.120294664
  0
LINE
  5
31B
100
AcDbEntity
  8
0
100
AcDbLine
 62
9
  6
CONTINUOUS
 10
242.0355478411
 20
285.120294664
 11
242.0355478411
 21
381.120294664
  0
LINE
  5
31C
100
AcDbEntity
  8
0
100
AcDbLine
 62
7
  6
CONTINUOUS
 10
244.0355478411
 20
285.120294664
 11
244.0355478411
 21
381.120294664
  0
LINE
  5
31D
100
AcDbEntity
  8
0
100
AcDbLine
 62
9
  6
CONTINUOUS
 10
245.0355478411
 20
408.120294664
 11
245.0355478411
 21
395.120294664
  0
LINE
  5
31E
100
AcDbEntity
  8
0
100
AcDbLine
 62
7
  6
CONTINUOUS
 10
247.5355478411
 20
387.0245303048
 11
247.5355478411
 21
395.120294664
  0
LINE
  5
31F
100
AcDbEntity
  8
0
100
AcDbLine
 62
9
  6
CONTINUOUS
 10
249.0355478411
 20
252.120294664
 11
249.0355478411
 21
248.120294664
  0
LINE
  5
320
100
AcDbEntity
  8
0
100
AcDbLine
 62
9
  6
CONTINUOUS
 10
249.0355478411
 20
124.120294664
 11
249.0355478411
 21
128.120294664
  0
LINE
  5
321
100
AcDbEntity
  8
02___PRT_ALL_AXES
100
AcDbLine
 62
7
  6
CONTINUOUS
 10
73.0355478411
 20
26.9781590402
 11
97.9095738449
 21
51.852185044
  0
LINE
  5
322
100
AcDbEntity
  8
0
100
AcDbLine
 62
9
  6
CONTINUOUS
 10
126.0355478411
 20
285.120294664
 11
124.0355478411
 21
285.120294664
  0
LINE
  5
323
100
AcDbEntity
  8
0
100
AcDbLine
 62
9
  6
CONTINUOUS
 10
242.0355478411
 20
285.120294664
 11
244.0355478411
 21
285.120294664
  0
LINE
  5
324
100
AcDbEntity
  8
0
100
AcDbLine
 62
9
  6
CONTINUOUS
 10
262.5355478411
 20
379.4051782215
 11
262.5355478411
 21
395.120294664
  0
LINE
  5
325
100
AcDbEntity
  8
02___PRT_ALL_AXES
100
AcDbLine
 62
7
  6
CONTINUOUS
 10
263.0355478411
 20
23.120294664
 11
263.0355478411
 21
26.9781590402
  0
LINE
  5
326
100
AcDbEntity
  8
02___PRT_ALL_AXES
100
AcDbLine
 62
7
  6
CONTINUOUS
 10
274.0355478411
 20
153.120294664
 11
274.0355478411
 21
223.120294664
  0
LINE
  5
327
100
AcDbEntity
  8
0
100
AcDbLine
 62
9
  6
CONTINUOUS
 10
278.0355478411
 20
153.120294664
 11
278.0355478411
 21
223.120294664
  0
LINE
  5
328
100
AcDbEntity
  8
0
100
AcDbLine
 62
9
  6
CONTINUOUS
 10
301.0355478411
 20
23.120294664
 11
301.0355478411
 21
41.120294664
  0
LINE
  5
329
100
AcDbEntity
  8
0
100
AcDbLine
 62
7
  6
CONTINUOUS
 10
313.0355478411
 20
23.120294664
 11
313.0355478411
 21
41.120294664
  0
LINE
  5
32A
100
AcDbEntity
  8
0
100
AcDbLine
 62
9
  6
CONTINUOUS
 10
317.5355478411
 20
326.0633388397
 11
317.5355478411
 21
395.120294664
  0
LINE
  5
32B
100
AcDbEntity
  8
0
100
AcDbLine
 62
9
  6
CONTINUOUS
 10
321.0355478411
 20
183.120294664
 11
321.0355478411
 21
243.4391898274
  0
LINE
  5
32C
100
AcDbEntity
  8
0
100
AcDbLine
 62
7
  6
CONTINUOUS
 10
332.5355478411
 20
294.3975061261
 11
332.5355478411
 21
395.120294664
  0
LINE
  5
32D
100
AcDbEntity
  8
0
100
AcDbLine
 62
9
  6
CONTINUOUS
 10
335.0355478411
 20
408.120294664
 11
335.0355478411
 21
395.120294664
  0
LINE
  5
32E
100
AcDbEntity
  8
0
100
AcDbLine
 62
9
  6
CONTINUOUS
 10
338.0355478411
 20
420.120294664
 11
338.0355478411
 21
408.120294664
  0
LINE
  5
32F
100
AcDbEntity
  8
0
100
AcDbLine
 62
7
  6
CONTINUOUS
 10
341.0355478411
 20
183.120294664
 11
341.0355478411
 21
243.4391898274
  0
LINE
  5
330
100
AcDbEntity
  8
0
100
AcDbLine
 62
7
  6
CONTINUOUS
 10
341.0355478411
 20
422.120294664
 11
341.0355478411
 21
435.120294664
  0
LINE
  5
331
100
AcDbEntity
  8
0
100
AcDbLine
 62
9
  6
CONTINUOUS
 10
126.0355478411
 20
381.120294664
 11
124.0355478411
 21
381.120294664
  0
LINE
  5
332
100
AcDbEntity
  8
0
100
AcDbLine
 62
9
  6
CONTINUOUS
 10
242.0355478411
 20
381.120294664
 11
244.0355478411
 21
381.120294664
  0
LINE
  5
333
100
AcDbEntity
  8
0
100
AcDbLine
 62
7
  6
CONTINUOUS
 10
350.0355478411
 20
418.120294664
 11
350.0355478411
 21
395.120294664
  0
LINE
  5
334
100
AcDbEntity
  8
0
100
AcDbLine
 62
9
  6
CONTINUOUS
 10
232.0355478411
 20
391.120294664
 11
136.0355478411
 21
391.120294664
  0
LINE
  5
335
100
AcDbEntity
  8
0
100
AcDbLine
 62
7
  6
CONTINUOUS
 10
232.0355478411
 20
393.120294664
 11
136.0355478411
 21
393.120294664
  0
LINE
  5
336
100
AcDbEntity
  8
0
100
AcDbLine
 62
7
  6
CONTINUOUS
 10
350.0355478411
 20
395.120294664
 11
230.0355478411
 21
395.120294664
  0
LINE
  5
337
100
AcDbEntity
  8
0
100
AcDbLine
 62
9
  6
CONTINUOUS
 10
139.1739341358
 20
397.120294664
 11
209.0355478411
 21
397.120294664
  0
LINE
  5
338
100
AcDbEntity
  8
0
100
AcDbLine
 62
7
  6
CONTINUOUS
 10
350.0355478411
 20
408.120294664
 11
230.0355478411
 21
408.120294664
  0
LINE
  5
339
100
AcDbEntity
  8
02___PRT_ALL_AXES
100
AcDbLine
 62
7
  6
CONTINUOUS
 10
79.0355478411
 20
408.120294664
 11
209.0355478411
 21
408.120294664
  0
LINE
  5
33A
100
AcDbEntity
  8
0
100
AcDbLine
 62
9
  6
CONTINUOUS
 10
230.0355478411
 20
418.120294664
 11
350.0355478411
 21
418.120294664
  0
LINE
  5
33B
100
AcDbEntity
  8
0
100
AcDbLine
 62
7
  6
CONTINUOUS
 10
232.0355478411
 20
420.120294664
 11
348.0355478411
 21
420.120294664
  0
LINE
  5
33C
100
AcDbEntity
  8
0
100
AcDbLine
 62
9
  6
CONTINUOUS
 10
239.0355478411
 20
422.120294664
 11
341.0355478411
 21
422.120294664
  0
LINE
  5
33D
100
AcDbEntity
  8
0
100
AcDbLine
 62
7
  6
CONTINUOUS
 10
239.0355512937
 20
435.120294664
 11
341.0355443885
 21
435.120294664
  0
LINE
  5
33E
100
AcDbEntity
  8
0
100
AcDbLine
 62
7
  6
CONTINUOUS
 10
-1007.3049467309
 20
282.120294664
 11
-1007.3049467309
 21
384.120294664
  0
LINE
  5
33F
100
AcDbEntity
  8
0
100
AcDbLine
 62
9
  6
CONTINUOUS
 10
-987.3049467309
 20
282.120294664
 11
-987.3049467309
 21
384.120294664
  0
LINE
  5
340
100
AcDbEntity
  8
0
100
AcDbLine
 62
7
  6
CONTINUOUS
 10
-985.3049467309
 20
275.120294664
 11
-985.3049467309
 21
391.120294664
  0
LINE
  5
341
100
AcDbEntity
  8
0
100
AcDbLine
 62
9
  6
CONTINUOUS
 10
-983.3049467309
 20
273.120294664
 11
-983.3049467309
 21
393.120294664
  0
LINE
  5
342
100
AcDbEntity
  8
02___PRT_ALL_AXES
100
AcDbLine
 62
7
  6
CONTINUOUS
 10
-972.3049467309
 20
33.120294664
 11
-972.3049467309
 21
93.120294664
  0
LINE
  5
343
100
AcDbEntity
  8
02___PRT_ALL_AXES
100
AcDbLine
 62
7
  6
CONTINUOUS
 10
-972.3049467309
 20
128.120294664
 11
-972.3049467309
 21
248.120294664
  0
LINE
  5
344
100
AcDbEntity
  8
0
100
AcDbLine
 62
7
  6
CONTINUOUS
 10
-972.3049467309
 20
273.120294664
 11
-972.3049467309
 21
393.120294664
  0
LINE
  5
345
100
AcDbEntity
  8
0
100
AcDbLine
 62
9
  6
CONTINUOUS
 10
-966.3049467309
 20
64.3646093959
 11
-966.3049467309
 21
93.1202946599
  0
LINE
  5
346
100
AcDbEntity
  8
0
100
AcDbLine
 62
9
  6
CONTINUOUS
 10
-966.3049467309
 20
128.120294664
 11
-966.3049467309
 21
248.120294664
  0
LINE
  5
347
100
AcDbEntity
  8
0
100
AcDbLine
 62
7
  6
CONTINUOUS
 10
-962.3049467309
 20
64.7229603062
 11
-962.3049467309
 21
366.6016841185
  0
LINE
  5
348
100
AcDbEntity
  8
0
100
AcDbLine
 62
9
  6
CONTINUOUS
 10
-942.3049467309
 20
26.120294664
 11
-942.3049467309
 21
392.3471719354
  0
LWPOLYLINE
  5
349
100
AcDbEntity
  8
0
100
AcDbPolyline
 62
7
  6
CONTINUOUS
 90
6
 70
0
 10
-962.304942281
 20
97.1202204145
 10
-962.5542247749
 20
95.7303079852
 10
-963.2709416816
 20
94.5136228926
 10
-964.3657745132
 20
93.6217958504
 10
-965.7022806345
 20
93.1659736721
 10
-966.3049467309
 20
93.1203123252
  0
LINE
  5
34A
100
AcDbEntity
  8
0
100
AcDbLine
 62
7
  6
CONTINUOUS
 10
-872.3049467309
 20
418.120294664
 11
-872.3049467309
 21
395.120294664
  0
LINE
  5
34B
100
AcDbEntity
  8
0
100
AcDbLine
 62
7
  6
CONTINUOUS
 10
-872.3049467309
 20
23.120294664
 11
-872.3049467309
 21
45.1672533735
  0
LINE
  5
34C
100
AcDbEntity
  8
0
100
AcDbLine
 62
7
  6
CONTINUOUS
 10
-863.3049467309
 20
422.120294664
 11
-863.3049467309
 21
435.120294664
  0
LINE
  5
34D
100
AcDbEntity
  8
0
100
AcDbLine
 62
9
  6
CONTINUOUS
 10
-860.3049467309
 20
420.120294664
 11
-860.3049467309
 21
408.120294664
  0
LINE
  5
34E
100
AcDbEntity
  8
0
100
AcDbLine
 62
9
  6
CONTINUOUS
 10
-860.3049467309
 20
23.120294664
 11
-860.3049467309
 21
41.120294664
  0
LINE
  5
34F
100
AcDbEntity
  8
0
100
AcDbLine
 62
9
  6
CONTINUOUS
 10
-857.3049467309
 20
408.120294664
 11
-857.3049467309
 21
395.120294664
  0
LINE
  5
350
100
AcDbEntity
  8
0
100
AcDbLine
 62
7
  6
CONTINUOUS
 10
-854.8049467309
 20
326.0633388397
 11
-854.8049467309
 21
395.120294664
  0
LINE
  5
351
100
AcDbEntity
  8
0
100
AcDbLine
 62
9
  6
CONTINUOUS
 10
-839.8049467309
 20
294.3975061261
 11
-839.8049467309
 21
395.120294664
  0
LINE
  5
352
100
AcDbEntity
  8
0
100
AcDbLine
 62
7
  6
CONTINUOUS
 10
-822.3049467309
 20
38.120294664
 11
-822.3049467309
 21
72.165082035
  0
LINE
  5
353
100
AcDbEntity
  8
0
100
AcDbLine
 62
7
  6
CONTINUOUS
 10
-321.8049467309
 20
23.120294664
 11
-357.8049467309
 21
23.120294664
  0
LINE
  5
354
100
AcDbEntity
  8
0
100
AcDbLine
 62
7
  6
CONTINUOUS
 10
-595.8049467309
 20
23.120294664
 11
-631.8049467309
 21
23.120294664
  0
LINE
  5
355
100
AcDbEntity
  8
0
100
AcDbLine
 62
7
  6
CONTINUOUS
 10
-812.3049467309
 20
23.120294664
 11
-872.3049467309
 21
23.120294664
  0
LINE
  5
356
100
AcDbEntity
  8
0
100
AcDbLine
 62
7
  6
CONTINUOUS
 10
-942.3049467309
 20
26.120294664
 11
-872.3049467309
 21
26.120294664
  0
LINE
  5
357
100
AcDbEntity
  8
0
100
AcDbLine
 62
7
  6
CONTINUOUS
 10
-812.3049467309
 20
26.120294664
 11
-772.3049467309
 21
26.120294664
  0
LINE
  5
358
100
AcDbEntity
  8
0
100
AcDbLine
 62
3
  6
CONTINUOUS
 10
-631.8049467309
 20
27.120294664
 11
-595.8049467309
 21
27.120294664
  0
LINE
  5
359
100
AcDbEntity
  8
0
100
AcDbLine
 62
3
  6
CONTINUOUS
 10
-357.8049467309
 20
27.120294664
 11
-321.8049467309
 21
27.120294664
  0
LWPOLYLINE
  5
35A
100
AcDbEntity
  8
0
100
AcDbPolyline
 62
7
  6
CONTINUOUS
 90
4
 70
0
 10
-959.2459998598
 20
33.1202763986
 10
-958.6914077073
 20
33.0816433433
 10
-957.3923274044
 20
32.6648362372
 10
-956.4224871876
 20
31.9536120055
  0
LINE
  5
35B
100
AcDbEntity
  8
0
100
AcDbLine
 62
7
  6
CONTINUOUS
 10
-812.3049467309
 20
23.120294664
 11
-812.3049467309
 21
72.165082035
  0
LINE
  5
35C
100
AcDbEntity
  8
0
100
AcDbLine
 62
9
  6
CONTINUOUS
 10
-591.8049467309
 20
31.120294664
 11
-587.8049467309
 21
31.120294664
  0
LINE
  5
35D
100
AcDbEntity
  8
0
100
AcDbLine
 62
9
  6
CONTINUOUS
 10
-361.8049467309
 20
31.120294664
 11
-365.8049467309
 21
31.120294664
  0
LINE
  5
35E
100
AcDbEntity
  8
02___PRT_ALL_AXES
100
AcDbLine
 62
7
  6
CONTINUOUS
 10
-972.3049467309
 20
33.120294664
 11
-959.245999869
 21
33.120294664
  0
LINE
  5
35F
100
AcDbEntity
  8
0
100
AcDbLine
 62
9
  6
CONTINUOUS
 10
-872.3049467309
 20
38.120294664
 11
-822.3049467309
 21
38.120294664
  0
LINE
  5
360
100
AcDbEntity
  8
0
100
AcDbLine
 62
7
  6
CONTINUOUS
 10
-812.3049467309
 20
41.120294664
 11
-869.3049467309
 21
41.120294664
  0
LINE
  5
361
100
AcDbEntity
  8
0
100
AcDbLine
 62
9
  6
CONTINUOUS
 10
-591.8049467309
 20
43.120294664
 11
-587.8049467309
 21
43.120294664
  0
LINE
  5
362
100
AcDbEntity
  8
0
100
AcDbLine
 62
9
  6
CONTINUOUS
 10
-361.8049467309
 20
43.120294664
 11
-365.8049467309
 21
43.120294664
  0
LINE
  5
363
100
AcDbEntity
  8
0
100
AcDbLine
 62
7
  6
CONTINUOUS
 10
-872.3049467309
 20
45.1672533735
 11
-822.3049467309
 21
45.1672533735
  0
LINE
  5
364
100
AcDbEntity
  8
0
100
AcDbLine
 62
7
  6
CONTINUOUS
 10
-583.8049467309
 20
47.120294664
 11
-369.8049467309
 21
47.120294664
  0
LINE
  5
365
100
AcDbEntity
  8
0
100
AcDbLine
 62
7
  6
CONTINUOUS
 10
-751.8049467309
 20
48.120294664
 11
-742.8049467309
 21
48.120294664
  0
LINE
  5
366
100
AcDbEntity
  8
0
100
AcDbLine
 62
7
  6
CONTINUOUS
 10
-585.8049467309
 20
51.120294664
 11
-583.8049467309
 21
51.120294664
  0
LINE
  5
367
100
AcDbEntity
  8
0
100
AcDbLine
 62
3
  6
CONTINUOUS
 10
-583.8049467309
 20
51.120294664
 11
-369.8049467309
 21
51.120294664
  0
LINE
  5
368
100
AcDbEntity
  8
0
100
AcDbLine
 62
7
  6
CONTINUOUS
 10
-369.8049467309
 20
51.120294664
 11
-367.8049467309
 21
51.120294664
  0
LINE
  5
369
100
AcDbEntity
  8
02___PRT_ALL_AXES
100
AcDbLine
 62
7
  6
CONTINUOUS
 10
-265.0891933673
 20
53.120294664
 11
-306.8049467309
 21
53.120294664
  0
LINE
  5
36A
100
AcDbEntity
  8
02___PRT_ALL_AXES
100
AcDbLine
 62
7
  6
CONTINUOUS
 10
-316.8049467309
 20
53.120294664
 11
-367.8049467309
 21
53.120294664
  0
LINE
  5
36B
100
AcDbEntity
  8
02___PRT_ALL_AXES
100
AcDbLine
 62
7
  6
CONTINUOUS
 10
-585.8049467309
 20
53.120294664
 11
-634.8049466679
 21
53.120294664
  0
LINE
  5
36C
100
AcDbEntity
  8
0
100
AcDbLine
 62
9
  6
CONTINUOUS
 10
-784.8049467309
 20
294.3975061261
 11
-784.8049467309
 21
395.120294664
  0
LINE
  5
36D
100
AcDbEntity
  8
0
100
AcDbLine
 62
9
  6
CONTINUOUS
 10
-772.3049467309
 20
26.120294664
 11
-772.3049467309
 21
310.8495225104
  0
LINE
  5
36E
100
AcDbEntity
  8
0
100
AcDbLine
 62
7
  6
CONTINUOUS
 10
-769.8049467309
 20
325.7648780677
 11
-769.8049467309
 21
395.120294664
  0
LINE
  5
36F
100
AcDbEntity
  8
0
100
AcDbLine
 62
9
  6
CONTINUOUS
 10
-767.3049467309
 20
408.120294664
 11
-767.3049467309
 21
395.120294664
  0
LINE
  5
370
100
AcDbEntity
  8
0
100
AcDbLine
 62
9
  6
CONTINUOUS
 10
-764.3049467309
 20
420.120294664
 11
-764.3049467309
 21
408.120294664
  0
LINE
  5
371
100
AcDbEntity
  8
3_ALL_AXES
100
AcDbLine
 62
7
  6
CONTINUOUS
 10
-752.3049467309
 20
60.620294664
 11
-751.8049467309
 21
60.620294664
  0
LINE
  5
372
100
AcDbEntity
  8
0
100
AcDbLine
 62
7
  6
CONTINUOUS
 10
-585.8049467309
 20
66.120294664
 11
-367.8049467309
 21
66.120294664
  0
LINE
  5
373
100
AcDbEntity
  8
0
100
AcDbLine
 62
7
  6
CONTINUOUS
 10
-822.3049467309
 20
72.165082035
 11
-812.3049467309
 21
72.165082035
  0
LINE
  5
374
100
AcDbEntity
  8
0
100
AcDbLine
 62
7
  6
CONTINUOUS
 10
-736.8049467309
 20
83.120294664
 11
-655.8049467309
 21
83.120294664
  0
LINE
  5
375
100
AcDbEntity
  8
0
100
AcDbLine
 62
9
  6
CONTINUOUS
 10
-669.8049467309
 20
85.120294664
 11
-740.8049467309
 21
85.1202946637
  0
LINE
  5
376
100
AcDbEntity
  8
0
100
AcDbLine
 62
9
  6
CONTINUOUS
 10
-733.228165751
 20
110.793145578
 11
-735.1509237616
 21
113.0617615536
  0
LINE
  5
377
100
AcDbEntity
  8
0
100
AcDbLine
 62
9
  6
CONTINUOUS
 10
-733.0254908827
 20
110.9719447187
 11
-734.9472476084
 21
113.2392665108
  0
LINE
  5
378
100
AcDbEntity
  8
0
100
AcDbLine
 62
7
  6
CONTINUOUS
 10
-761.3049467309
 20
422.120294664
 11
-761.3049467309
 21
435.120294664
  0
LINE
  5
379
100
AcDbEntity
  8
0
100
AcDbLine
 62
7
  6
CONTINUOUS
 10
-752.3049467309
 20
418.120294664
 11
-752.3049467309
 21
395.120294664
  0
LINE
  5
37A
100
AcDbEntity
  8
0
100
AcDbLine
 62
7
  6
CONTINUOUS
 10
-752.3049467309
 20
373.120294664
 11
-752.3049467309
 21
46.1202947147
  0
LINE
  5
37B
100
AcDbEntity
  8
0
100
AcDbLine
 62
7
  6
CONTINUOUS
 10
-751.8049467309
 20
48.120294664
 11
-751.8049467309
 21
318.120294664
  0
LINE
  5
37C
100
AcDbEntity
  8
0
100
AcDbLine
 62
9
  6
CONTINUOUS
 10
-742.8049467309
 20
48.120294664
 11
-742.8049467309
 21
318.120294664
  0
LINE
  5
37D
100
AcDbEntity
  8
0
100
AcDbLine
 62
7
  6
CONTINUOUS
 10
-740.8049467309
 20
50.120294664
 11
-740.8049467309
 21
316.120294664
  0
LINE
  5
37E
100
AcDbEntity
  8
0
100
AcDbLine
 62
9
  6
CONTINUOUS
 10
-739.3049467295
 20
253.120294664
 11
-739.3049467309
 21
191.120294664
  0
LINE
  5
37F
100
AcDbEntity
  8
0
100
AcDbLine
 62
9
  6
CONTINUOUS
 10
-739.3049467309
 20
175.120294664
 11
-739.3049467295
 21
113.1202946632
  0
LINE
  5
380
100
AcDbEntity
  8
0
100
AcDbLine
 62
7
  6
CONTINUOUS
 10
-737.8049467309
 20
270.120294664
 11
-737.8049467309
 21
191.120294664
  0
LINE
  5
381
100
AcDbEntity
  8
0
100
AcDbLine
 62
7
  6
CONTINUOUS
 10
-737.8049467309
 20
175.120294664
 11
-737.8049467309
 21
96.120294664
  0
LINE
  5
382
100
AcDbEntity
  8
0
100
AcDbLine
 62
9
  6
CONTINUOUS
 10
-737.8049467309
 20
178.120294664
 11
-737.8049467309
 21
188.120294664
  0
LINE
  5
383
100
AcDbEntity
  8
0
100
AcDbLine
 62
9
  6
CONTINUOUS
 10
-736.8049467309
 20
83.120294664
 11
-736.8049467309
 21
91.4266771843
  0
LINE
  5
384
100
AcDbEntity
  8
0
100
AcDbLine
 62
9
  6
CONTINUOUS
 10
-736.8049467309
 20
274.813911904
 11
-736.8049467309
 21
283.120294664
  0
LINE
  5
385
100
AcDbEntity
  8
0
100
AcDbLine
 62
9
  6
CONTINUOUS
 10
-734.9472476084
 20
253.0013228171
 11
-734.9472476084
 21
190.8694911668
  0
LINE
  5
386
100
AcDbEntity
  8
0
100
AcDbLine
 62
9
  6
CONTINUOUS
 10
-734.9472476084
 20
175.3710981611
 11
-734.9472476084
 21
113.2392665108
  0
LINE
  5
387
100
AcDbEntity
  8
0
100
AcDbLine
 62
9
  6
CONTINUOUS
 10
-734.8049467309
 20
106.6363681926
 11
-734.8049467309
 21
91.1202701637
  0
LINE
  5
388
100
AcDbEntity
  8
0
100
AcDbLine
 62
9
  6
CONTINUOUS
 10
-734.8049467309
 20
259.6042211354
 11
-734.8049467309
 21
275.1203191603
  0
LINE
  5
389
100
AcDbEntity
  8
0
100
AcDbLine
 62
7
  6
CONTINUOUS
 10
-734.8049467309
 20
93.120294664
 11
-672.8049467309
 21
93.120294664
  0
LINE
  5
38A
100
AcDbEntity
  8
02___PRT_ALL_AXES
100
AcDbLine
 62
7
  6
CONTINUOUS
 10
-966.3049467309
 20
93.120294664
 11
-972.3049467309
 21
93.120294664
  0
LINE
  5
38B
100
AcDbEntity
  8
0
100
AcDbLine
 62
9
  6
CONTINUOUS
 10
-738.8027681677
 20
94.2473113178
 11
-740.8049467309
 21
94.2473113175
  0
LINE
  5
38C
100
AcDbEntity
  8
0
100
AcDbLine
 62
9
  6
CONTINUOUS
 10
-669.8049467309
 20
96.120294664
 11
-737.8049467309
 21
96.120294664
  0
LINE
  5
38D
100
AcDbEntity
  8
0
100
AcDbLine
 62
9
  6
CONTINUOUS
 10
-737.8049467309
 20
113.1203036567
 11
-740.8049467309
 21
113.120294664
  0
LINE
  5
38E
100
AcDbEntity
  8
0
100
AcDbLine
 62
9
  6
CONTINUOUS
 10
-734.8095676342
 20
106.9223360172
 11
-737.8049467309
 21
107.0887814048
  0
LINE
  5
38F
100
AcDbEntity
  8
0
100
AcDbLine
 62
7
  6
CONTINUOUS
 10
-654.8049574836
 20
73.1202839619
 11
-634.8049593772
 21
53.1202819546
  0
LINE
  5
390
100
AcDbEntity
  8
0
100
AcDbLine
 62
9
  6
CONTINUOUS
 10
-701.398847646
 20
138.1965975421
 11
-703.2050236693
 21
140.5045935676
  0
LINE
  5
391
100
AcDbEntity
  8
0
100
AcDbLine
 62
9
  6
CONTINUOUS
 10
-735.1509237616
 20
253.1788277744
 11
-733.228165751
 21
255.4474437499
  0
LINE
  5
392
100
AcDbEntity
  8
0
100
AcDbLine
 62
9
  6
CONTINUOUS
 10
-734.9472476084
 20
253.0013228171
 11
-733.0254909086
 21
255.2686446311
  0
LINE
  5
393
100
AcDbEntity
  8
0
100
AcDbLine
 62
9
  6
CONTINUOUS
 10
-654.8049467309
 20
123.120294664
 11
-669.8049467309
 21
123.120294664
  0
LINE
  5
394
100
AcDbEntity
  8
0
100
AcDbLine
 62
7
  6
CONTINUOUS
 10
-972.3049467309
 20
128.120294664
 11
-966.3049467309
 21
128.120294664
  0
LINE
  5
395
100
AcDbEntity
  8
02___PRT_ALL_AXES
100
AcDbLine
 62
7
  6
CONTINUOUS
 10
-966.3049467309
 20
128.120294664
 11
-972.3049467309
 21
128.120294664
  0
LINE
  5
396
100
AcDbEntity
  8
0
100
AcDbLine
 62
9
  6
CONTINUOUS
 10
-673.8049467309
 20
139.5169691027
 11
-698.0627227918
 21
139.5169691027
  0
LINE
  5
397
100
AcDbEntity
  8
0
100
AcDbLine
 62
9
  6
CONTINUOUS
 10
-673.8049467309
 20
142.3919136452
 11
-698.0627227918
 21
142.3919136452
  0
LINE
  5
398
100
AcDbEntity
  8
0
100
AcDbLine
 62
9
  6
CONTINUOUS
 10
-703.2050236693
 20
225.7359957485
 11
-703.2050236693
 21
190.726355213
  0
LINE
  5
399
100
AcDbEntity
  8
0
100
AcDbLine
 62
9
  6
CONTINUOUS
 10
-703.2050236693
 20
175.5142341149
 11
-703.2050236693
 21
140.5045935676
  0
LINE
  5
39A
100
AcDbEntity
  8
0
100
AcDbLine
 62
9
  6
CONTINUOUS
 10
-698.0627227918
 20
139.5169691027
 11
-698.0627227918
 21
178.120294664
  0
LINE
  5
39B
100
AcDbEntity
  8
0
100
AcDbLine
 62
9
  6
CONTINUOUS
 10
-698.0627227918
 20
188.120294664
 11
-698.0627227918
 21
226.7236202252
  0
LINE
  5
39C
100
AcDbEntity
  8
0
100
AcDbLine
 62
9
  6
CONTINUOUS
 10
-703.2050236693
 20
225.7359957485
 11
-701.3988446506
 21
228.0439894412
  0
LINE
  5
39D
100
AcDbEntity
  8
0
100
AcDbLine
 62
7
  6
CONTINUOUS
 10
-654.8049574836
 20
293.120305366
 11
-634.8049593772
 21
313.1203073733
  0
LINE
  5
39E
100
AcDbEntity
  8
0
100
AcDbLine
 62
9
  6
CONTINUOUS
 10
-672.7560860983
 20
137.9352292919
 11
-669.8049467309
 21
138.4744661914
  0
LINE
  5
39F
100
AcDbEntity
  8
0
100
AcDbLine
 62
9
  6
CONTINUOUS
 10
-962.3049467309
 20
153.120294664
 11
-972.3049467309
 21
153.120294664
  0
LINE
  5
3A0
100
AcDbEntity
  8
0
100
AcDbLine
 62
9
  6
CONTINUOUS
 10
-673.8049467309
 20
139.5169691027
 11
-673.8049467309
 21
178.120294664
  0
LINE
  5
3A1
100
AcDbEntity
  8
0
100
AcDbLine
 62
9
  6
CONTINUOUS
 10
-673.8049467309
 20
188.120294664
 11
-673.8049467309
 21
226.7236202252
  0
LINE
  5
3A2
100
AcDbEntity
  8
0
100
AcDbLine
 62
9
  6
CONTINUOUS
 10
-672.8049467309
 20
188.120294664
 11
-672.8049467311
 21
186.120294664
  0
LINE
  5
3A3
100
AcDbEntity
  8
0
100
AcDbLine
 62
9
  6
CONTINUOUS
 10
-672.8049467311
 20
83.120294664
 11
-672.8049467309
 21
137.7082918453
  0
LINE
  5
3A4
100
AcDbEntity
  8
0
100
AcDbLine
 62
9
  6
CONTINUOUS
 10
-672.8049467309
 20
178.120294664
 11
-672.8049467309
 21
180.120294664
  0
LINE
  5
3A5
100
AcDbEntity
  8
0
100
AcDbLine
 62
9
  6
CONTINUOUS
 10
-672.8049467309
 20
228.5322974826
 11
-672.8049467309
 21
283.120294664
  0
LINE
  5
3A6
100
AcDbEntity
  8
0
100
AcDbLine
 62
7
  6
CONTINUOUS
 10
-669.8049467309
 20
85.120294664
 11
-669.8049467309
 21
175.120294664
  0
LINE
  5
3A7
100
AcDbEntity
  8
0
100
AcDbLine
 62
7
  6
CONTINUOUS
 10
-669.8049467309
 20
191.120294664
 11
-669.8049467309
 21
281.120294664
  0
LINE
  5
3A8
100
AcDbEntity
  8
0
100
AcDbLine
 62
9
  6
CONTINUOUS
 10
-667.8049467309
 20
83.120294664
 11
-667.8049467309
 21
175.120294664
  0
LINE
  5
3A9
100
AcDbEntity
  8
0
100
AcDbLine
 62
9
  6
CONTINUOUS
 10
-667.8049467309
 20
191.120294664
 11
-667.8049467309
 21
283.120294664
  0
LINE
  5
3AA
100
AcDbEntity
  8
0
100
AcDbLine
 62
9
  6
CONTINUOUS
 10
-655.8049467309
 20
283.120294664
 11
-655.8049467309
 21
83.120294664
  0
LINE
  5
3AB
100
AcDbEntity
  8
0
100
AcDbLine
 62
7
  6
CONTINUOUS
 10
-654.8049467309
 20
73.1215728515
 11
-654.8049467309
 21
293.1190164765
  0
LINE
  5
3AC
100
AcDbEntity
  8
0
100
AcDbLine
 62
9
  6
CONTINUOUS
 10
-740.8049467309
 20
175.120294664
 11
-737.8049467309
 21
175.120294664
  0
LINE
  5
3AD
100
AcDbEntity
  8
0
100
AcDbLine
 62
9
  6
CONTINUOUS
 10
-669.8049467309
 20
175.120294664
 11
-667.8049467309
 21
175.1202946637
  0
LINE
  5
3AE
100
AcDbEntity
  8
0
100
AcDbLine
 62
9
  6
CONTINUOUS
 10
-698.0627227918
 20
175.6477671914
 11
-673.8049467309
 21
175.6477671914
  0
LINE
  5
3AF
100
AcDbEntity
  8
0
100
AcDbLine
 62
7
  6
CONTINUOUS
 10
-672.8049467309
 20
178.120294664
 11
-737.8049467309
 21
178.120294664
  0
LINE
  5
3B0
100
AcDbEntity
  8
0
100
AcDbLine
 62
9
  6
CONTINUOUS
 10
-672.8049467309
 20
180.120294664
 11
-740.8049467309
 21
180.1202946642
  0
LINE
  5
3B1
100
AcDbEntity
  8
0
100
AcDbLine
 62
9
  6
CONTINUOUS
 10
-752.3049467309
 20
183.120294664
 11
-962.3049467309
 21
183.120294664
  0
LINE
  5
3B2
100
AcDbEntity
  8
0
100
AcDbLine
 62
9
  6
CONTINUOUS
 10
-672.8049467309
 20
186.120294664
 11
-740.8049467309
 21
186.1202946638
  0
LINE
  5
3B3
100
AcDbEntity
  8
0
100
AcDbLine
 62
7
  6
CONTINUOUS
 10
-737.8049467309
 20
188.120294664
 11
-672.8049467309
 21
188.120294664
  0
LINE
  5
3B4
100
AcDbEntity
  8
0
100
AcDbLine
 62
9
  6
CONTINUOUS
 10
-673.8049467309
 20
190.5928221365
 11
-698.0627227918
 21
190.5928221365
  0
LINE
  5
3B5
100
AcDbEntity
  8
0
100
AcDbLine
 62
9
  6
CONTINUOUS
 10
-669.8049467309
 20
191.120294664
 11
-667.8049467309
 21
191.120294664
  0
LINE
  5
3B6
100
AcDbEntity
  8
0
100
AcDbLine
 62
9
  6
CONTINUOUS
 10
-737.8049467309
 20
191.120294664
 11
-740.8049467309
 21
191.120294664
  0
LINE
  5
3B7
100
AcDbEntity
  8
0
100
AcDbLine
 62
7
  6
CONTINUOUS
 10
-634.8049467917
 20
53.120294664
 11
-634.8049467917
 21
313.120294664
  0
LINE
  5
3B8
100
AcDbEntity
  8
0
100
AcDbLine
 62
7
  6
CONTINUOUS
 10
-631.8049467309
 20
23.120294664
 11
-631.8049467309
 21
27.120294664
  0
LINE
  5
3B9
100
AcDbEntity
  8
0
100
AcDbLine
 62
9
  6
CONTINUOUS
 10
-962.3049467309
 20
223.120294664
 11
-972.3049467309
 21
223.120294664
  0
LINE
  5
3BA
100
AcDbEntity
  8
0
100
AcDbLine
 62
9
  6
CONTINUOUS
 10
-698.0627227918
 20
223.8486756827
 11
-673.8049467309
 21
223.8486756827
  0
LINE
  5
3BB
100
AcDbEntity
  8
0
100
AcDbLine
 62
9
  6
CONTINUOUS
 10
-698.0627227918
 20
226.7236202252
 11
-673.8049467309
 21
226.7236202252
  0
LINE
  5
3BC
100
AcDbEntity
  8
0
100
AcDbLine
 62
9
  6
CONTINUOUS
 10
-669.8049467309
 20
227.7661231365
 11
-672.7560860983
 21
228.305360036
  0
LINE
  5
3BD
100
AcDbEntity
  8
0
100
AcDbLine
 62
9
  6
CONTINUOUS
 10
-616.8049467309
 20
23.120294664
 11
-616.8049467309
 21
27.120294664
  0
LINE
  5
3BE
100
AcDbEntity
  8
0
100
AcDbLine
 62
7
  6
CONTINUOUS
 10
-604.8049467309
 20
292.664806165
 11
-604.8049467309
 21
363.120294664
  0
LINE
  5
3BF
100
AcDbEntity
  8
0
100
AcDbLine
 62
9
  6
CONTINUOUS
 10
-595.8049467309
 20
27.120294664
 11
-595.8049467309
 21
23.120294664
  0
LINE
  5
3C0
100
AcDbEntity
  8
0
100
AcDbLine
 62
3
  6
CONTINUOUS
 10
-591.8049467309
 20
31.120294664
 11
-591.8049467309
 21
43.120294664
  0
LINE
  5
3C1
100
AcDbEntity
  8
0
100
AcDbLine
 62
9
  6
CONTINUOUS
 10
-654.8049467309
 20
243.120294664
 11
-669.8049467309
 21
243.120294664
  0
LINE
  5
3C2
100
AcDbEntity
  8
0
100
AcDbLine
 62
9
  6
CONTINUOUS
 10
-752.3049467309
 20
243.4391898274
 11
-962.3049467309
 21
243.4391898274
  0
LINE
  5
3C3
100
AcDbEntity
  8
0
100
AcDbLine
 62
7
  6
CONTINUOUS
 10
-972.3049467309
 20
248.120294664
 11
-966.3049467309
 21
248.120294664
  0
LINE
  5
3C4
100
AcDbEntity
  8
0
100
AcDbLine
 62
9
  6
CONTINUOUS
 10
-740.8049467309
 20
253.120294664
 11
-737.8049467309
 21
253.1202856345
  0
LINE
  5
3C5
100
AcDbEntity
  8
0
100
AcDbLine
 62
7
  6
CONTINUOUS
 10
-587.8049467309
 20
31.120294664
 11
-587.8049467309
 21
43.120294664
  0
LINE
  5
3C6
100
AcDbEntity
  8
0
100
AcDbLine
 62
7
  6
CONTINUOUS
 10
-585.8049467309
 20
51.120294664
 11
-585.8049467309
 21
66.120294664
  0
LINE
  5
3C7
100
AcDbEntity
  8
0
100
AcDbLine
 62
9
  6
CONTINUOUS
 10
-583.8049467309
 20
51.120294664
 11
-583.8049467309
 21
47.120294664
  0
LINE
  5
3C8
100
AcDbEntity
  8
0
100
AcDbLine
 62
9
  6
CONTINUOUS
 10
-737.8049467309
 20
259.1518079232
 11
-734.8095676342
 21
259.3182533107
  0
LINE
  5
3C9
100
AcDbEntity
  8
0
100
AcDbLine
 62
9
  6
CONTINUOUS
 10
-669.8049467309
 20
270.120294664
 11
-737.8049467309
 21
270.120294664
  0
LINE
  5
3CA
100
AcDbEntity
  8
0
100
AcDbLine
 62
9
  6
CONTINUOUS
 10
-740.8049467309
 20
271.9932780105
 11
-738.8027680207
 21
271.9932780102
  0
LINE
  5
3CB
100
AcDbEntity
  8
0
100
AcDbLine
 62
7
  6
CONTINUOUS
 10
-983.3049467309
 20
273.120294664
 11
-962.3049467309
 21
273.120294664
  0
LINE
  5
3CC
100
AcDbEntity
  8
0
100
AcDbLine
 62
7
  6
CONTINUOUS
 10
-672.8049467309
 20
273.120294664
 11
-734.8049467309
 21
273.120294664
  0
LINE
  5
3CD
100
AcDbEntity
  8
0
100
AcDbLine
 62
9
  6
CONTINUOUS
 10
-669.8049467309
 20
281.120294664
 11
-740.8049467309
 21
281.1202946642
  0
LINE
  5
3CE
100
AcDbEntity
  8
0
100
AcDbLine
 62
7
  6
CONTINUOUS
 10
-987.3049467309
 20
282.120294664
 11
-1007.3049467309
 21
282.120294664
  0
LINE
  5
3CF
100
AcDbEntity
  8
3_ALL_AXES
100
AcDbLine
 62
7
  6
CONTINUOUS
 10
-667.8049467309
 20
283.120294664
 11
-655.8049467309
 21
283.120294664
  0
LINE
  5
3D0
100
AcDbEntity
  8
0
100
AcDbLine
 62
7
  6
CONTINUOUS
 10
-655.8049467309
 20
283.120294664
 11
-736.8049467309
 21
283.120294664
  0
LINE
  5
3D1
100
AcDbEntity
  8
0
100
AcDbLine
 62
9
  6
CONTINUOUS
 10
-985.3049467309
 20
285.120294664
 11
-972.3049467309
 21
285.120294664
  0
LINE
  5
3D2
100
AcDbEntity
  8
0
100
AcDbLine
 62
9
  6
CONTINUOUS
 10
-972.3049467309
 20
288.120294664
 11
-962.3049467309
 21
288.120294664
  0
LINE
  5
3D3
100
AcDbEntity
  8
0
100
AcDbLine
 62
7
  6
CONTINUOUS
 10
-464.8049467309
 20
292.664806165
 11
-604.8049467309
 21
292.664806165
  0
LINE
  5
3D4
100
AcDbEntity
  8
0
100
AcDbLine
 62
7
  6
CONTINUOUS
 10
-839.8049467309
 20
294.3975061261
 11
-784.8049467309
 21
294.3975061261
  0
LINE
  5
3D5
100
AcDbEntity
  8
3_ALL_AXES
100
AcDbLine
 62
7
  6
CONTINUOUS
 10
-752.3049467309
 20
305.620294664
 11
-751.8049467309
 21
305.620294664
  0
LINE
  5
3D6
100
AcDbEntity
  8
02___PRT_ALL_AXES
100
AcDbLine
 62
7
  6
CONTINUOUS
 10
-265.0891933673
 20
313.120294664
 11
-306.8049467309
 21
313.120294664
  0
LINE
  5
3D7
100
AcDbEntity
  8
02___PRT_ALL_AXES
100
AcDbLine
 62
7
  6
CONTINUOUS
 10
-316.8049467309
 20
313.120294664
 11
-464.8049467309
 21
313.120294664
  0
LINE
  5
3D8
100
AcDbEntity
  8
02___PRT_ALL_AXES
100
AcDbLine
 62
7
  6
CONTINUOUS
 10
-604.8049467309
 20
313.120294664
 11
-634.8049466679
 21
313.120294664
  0
LINE
  5
3D9
100
AcDbEntity
  8
0
100
AcDbLine
 62
7
  6
CONTINUOUS
 10
-751.8049467309
 20
318.120294664
 11
-742.8049467309
 21
318.120294664
  0
LINE
  5
3DA
100
AcDbEntity
  8
0
100
AcDbLine
 62
7
  6
CONTINUOUS
 10
-604.8049467309
 20
363.120294664
 11
-464.8049467309
 21
363.120294664
  0
LINE
  5
3DB
100
AcDbEntity
  8
0
100
AcDbLine
 62
9
  6
CONTINUOUS
 10
-959.3629298758
 20
378.120294664
 11
-972.3049467309
 21
378.120294664
  0
LINE
  5
3DC
100
AcDbEntity
  8
0
100
AcDbLine
 62
7
  6
CONTINUOUS
 10
-464.8049467309
 20
292.664806165
 11
-464.8049467309
 21
363.120294664
  0
LINE
  5
3DD
100
AcDbEntity
  8
0
100
AcDbLine
 62
9
  6
CONTINUOUS
 10
-985.3049467309
 20
381.120294664
 11
-972.3049467309
 21
381.120294664
  0
LINE
  5
3DE
100
AcDbEntity
  8
0
100
AcDbLine
 62
7
  6
CONTINUOUS
 10
-987.3049467309
 20
384.120294664
 11
-1007.3049467309
 21
384.120294664
  0
LINE
  5
3DF
100
AcDbEntity
  8
0
100
AcDbLine
 62
9
  6
CONTINUOUS
 10
-854.8049467309
 20
392.3471790421
 11
-942.3049467309
 21
392.3471719354
  0
LINE
  5
3E0
100
AcDbEntity
  8
0
100
AcDbLine
 62
7
  6
CONTINUOUS
 10
-983.3049467309
 20
393.120294664
 11
-854.8049467309
 21
393.120294664
  0
LINE
  5
3E1
100
AcDbEntity
  8
0
100
AcDbLine
 62
7
  6
CONTINUOUS
 10
-752.3049467309
 20
395.120294664
 11
-872.3049467309
 21
395.120294664
  0
LINE
  5
3E2
100
AcDbEntity
  8
0
100
AcDbLine
 62
7
  6
CONTINUOUS
 10
-752.3049467309
 20
408.120294664
 11
-872.3049467309
 21
408.120294664
  0
LINE
  5
3E3
100
AcDbEntity
  8
0
100
AcDbLine
 62
9
  6
CONTINUOUS
 10
-872.3049467309
 20
418.120294664
 11
-752.3049467309
 21
418.120294664
  0
LINE
  5
3E4
100
AcDbEntity
  8
0
100
AcDbLine
 62
7
  6
CONTINUOUS
 10
-870.3049467309
 20
420.120294664
 11
-754.3049467309
 21
420.120294664
  0
LINE
  5
3E5
100
AcDbEntity
  8
0
100
AcDbLine
 62
9
  6
CONTINUOUS
 10
-863.3049467309
 20
422.120294664
 11
-761.3049467309
 21
422.120294664
  0
LINE
  5
3E6
100
AcDbEntity
  8
0
100
AcDbLine
 62
7
  6
CONTINUOUS
 10
-863.3049467309
 20
435.120294664
 11
-761.3049467309
 21
435.120294664
  0
LINE
  5
3E7
100
AcDbEntity
  8
0
100
AcDbLine
 62
9
  6
CONTINUOUS
 10
-369.8049467309
 20
51.120294664
 11
-369.8049467309
 21
47.120294664
  0
LINE
  5
3E8
100
AcDbEntity
  8
0
100
AcDbLine
 62
7
  6
CONTINUOUS
 10
-367.8049467309
 20
51.120294664
 11
-367.8049467309
 21
66.120294664
  0
LINE
  5
3E9
100
AcDbEntity
  8
0
100
AcDbLine
 62
7
  6
CONTINUOUS
 10
-365.8049467309
 20
43.120294664
 11
-365.8049467309
 21
31.120294664
  0
LINE
  5
3EA
100
AcDbEntity
  8
0
100
AcDbLine
 62
3
  6
CONTINUOUS
 10
-361.8049467309
 20
43.120294664
 11
-361.8049467309
 21
31.120294664
  0
LINE
  5
3EB
100
AcDbEntity
  8
0
100
AcDbLine
 62
9
  6
CONTINUOUS
 10
-357.8049467309
 20
27.120294664
 11
-357.8049467309
 21
23.120294664
  0
LINE
  5
3EC
100
AcDbEntity
  8
0
100
AcDbLine
 62
9
  6
CONTINUOUS
 10
-336.8049467309
 20
23.120294664
 11
-336.8049467309
 21
27.120294664
  0
LINE
  5
3ED
100
AcDbEntity
  8
0
100
AcDbLine
 62
7
  6
CONTINUOUS
 10
-306.8049467309
 20
303.120294664
 11
-316.8049467309
 21
313.120294664
  0
LINE
  5
3EE
100
AcDbEntity
  8
0
100
AcDbLine
 62
7
  6
CONTINUOUS
 10
-321.8049467309
 20
23.120294664
 11
-321.8049467309
 21
27.120294664
  0
LINE
  5
3EF
100
AcDbEntity
  8
0
100
AcDbLine
 62
7
  6
CONTINUOUS
 10
-316.8049467309
 20
53.120294664
 11
-316.8049467309
 21
313.120294664
  0
LINE
  5
3F0
100
AcDbEntity
  8
0
100
AcDbLine
 62
7
  6
CONTINUOUS
 10
-306.8049467309
 20
53.1218183011
 11
-306.8049467309
 21
313.1187710268
  0
LINE
  5
3F1
100
AcDbEntity
  8
0
100
AcDbLine
 62
7
  6
CONTINUOUS
 10
-242.6628096595
 20
298.978180565
 11
-250.9470563486
 21
307.2624288967
  0
LINE
  5
3F2
100
AcDbEntity
  8
0
100
AcDbLine
 62
7
  6
CONTINUOUS
 10
-306.8049467309
 20
63.120294664
 11
-316.8049467309
 21
53.120294664
  0
LINE
  5
3F3
100
AcDbEntity
  8
0
100
AcDbLine
 62
9
  6
CONTINUOUS
 10
-265.0891933762
 20
53.1202946768
 11
-265.0891933762
 21
313.1202946511
  0
LINE
  5
3F4
100
AcDbEntity
  8
0
100
AcDbLine
 62
9
  6
CONTINUOUS
 10
-250.9470563728
 20
58.9781604193
 11
-250.9470563728
 21
307.2624289086
  0
LINE
  5
3F5
100
AcDbEntity
  8
0
100
AcDbLine
 62
9
  6
CONTINUOUS
 10
-242.6628096595
 20
298.978180565
 11
-242.6628096595
 21
67.262408763
  0
LINE
  5
3F6
100
AcDbEntity
  8
0
100
AcDbLine
 62
7
  6
CONTINUOUS
 10
-236.8049467309
 20
284.8360463647
 11
-236.8049467309
 21
81.4045429632
  0
LINE
  5
3F7
100
AcDbEntity
  8
0
100
AcDbLine
 62
7
  6
CONTINUOUS
 10
-242.6628096595
 20
67.262408763
 11
-250.9470563486
 21
58.9781604313
  0
LINE
  5
3F8
100
AcDbEntity
  8
0
100
AcDbLine
 62
7
  6
CONTINUOUS
 10
1669.3430661909
 20
23.120294664
 11
1959.3430661909
 21
23.120294664
  0
LINE
  5
3F9
100
AcDbEntity
  8
0
100
AcDbLine
 62
3
  6
CONTINUOUS
 10
1684.3430661909
 20
27.120294664
 11
1944.3430661909
 21
27.120294664
  0
LINE
  5
3FA
100
AcDbEntity
  8
0
100
AcDbLine
 62
9
  6
CONTINUOUS
 10
1684.3430661909
 20
31.120294664
 11
1944.3430661909
 21
31.120294664
  0
LINE
  5
3FB
100
AcDbEntity
  8
0
100
AcDbLine
 62
9
  6
CONTINUOUS
 10
1684.3430661909
 20
43.120294664
 11
1944.3430661909
 21
43.120294664
  0
LINE
  5
3FC
100
AcDbEntity
  8
0
100
AcDbLine
 62
7
  6
CONTINUOUS
 10
1684.3430661909
 20
51.120294664
 11
1944.3430661909
 21
51.120294664
  0
LINE
  5
3FD
100
AcDbEntity
  8
0
100
AcDbLine
 62
7
  6
CONTINUOUS
 10
1632.3430661909
 20
418.120294664
 11
1632.3430661909
 21
395.120294664
  0
LINE
  5
3FE
100
AcDbEntity
  8
0
100
AcDbLine
 62
7
  6
CONTINUOUS
 10
1748.5895450641
 20
392.3471719354
 11
1728.1346281667
 21
383.8663069744
  0
LINE
  5
3FF
100
AcDbEntity
  8
0
100
AcDbLine
 62
7
  6
CONTINUOUS
 10
1684.3430661909
 20
66.120294664
 11
1757.6773799248
 21
66.120294664
  0
LINE
  5
400
100
AcDbEntity
  8
0
100
AcDbLine
 62
7
  6
CONTINUOUS
 10
1871.0087524569
 20
66.120294664
 11
1944.3430661909
 21
66.120294664
  0
LINE
  5
401
100
AcDbEntity
  8
0
100
AcDbLine
 62
7
  6
CONTINUOUS
 10
1641.3430661909
 20
243.4391898274
 11
1641.3430661909
 21
183.120294664
  0
LINE
  5
402
100
AcDbEntity
  8
0
100
AcDbLine
 62
7
  6
CONTINUOUS
 10
1641.3430661909
 20
422.120294664
 11
1641.3430661909
 21
435.120294664
  0
LINE
  5
403
100
AcDbEntity
  8
0
100
AcDbLine
 62
9
  6
CONTINUOUS
 10
1644.3430661909
 20
420.120294664
 11
1644.3430661909
 21
408.120294664
  0
LINE
  5
404
100
AcDbEntity
  8
0
100
AcDbLine
 62
9
  6
CONTINUOUS
 10
1647.3430661909
 20
408.120294664
 11
1647.3430661909
 21
395.120294664
  0
LINE
  5
405
100
AcDbEntity
  8
0
100
AcDbLine
 62
7
  6
CONTINUOUS
 10
1649.8430661909
 20
294.3975061261
 11
1649.8430661909
 21
395.120294664
  0
LINE
  5
406
100
AcDbEntity
  8
0
100
AcDbLine
 62
9
  6
CONTINUOUS
 10
1661.3430661909
 20
243.4391898274
 11
1661.3430661909
 21
183.120294664
  0
LINE
  5
407
100
AcDbEntity
  8
0
100
AcDbLine
 62
9
  6
CONTINUOUS
 10
1664.8430661909
 20
325.7648780677
 11
1664.8430661909
 21
395.120294664
  0
LINE
  5
408
100
AcDbEntity
  8
0
100
AcDbLine
 62
7
  6
CONTINUOUS
 10
1669.3430661909
 20
23.120294664
 11
1669.3430661909
 21
41.120294664
  0
LINE
  5
409
100
AcDbEntity
  8
0
100
AcDbLine
 62
3
  6
CONTINUOUS
 10
1684.3430661909
 20
51.120294664
 11
1684.3430661909
 21
27.120294664
  0
LINE
  5
40A
100
AcDbEntity
  8
0
100
AcDbLine
 62
7
  6
CONTINUOUS
 10
1684.3430661909
 20
23.120294664
 11
1684.3430661909
 21
27.120294664
  0
LINE
  5
40B
100
AcDbEntity
  8
0
100
AcDbLine
 62
7
  6
CONTINUOUS
 10
1684.3430661909
 20
51.120294664
 11
1684.3430661909
 21
66.120294664
  0
LINE
  5
40C
100
AcDbEntity
  8
0
100
AcDbLine
 62
9
  6
CONTINUOUS
 10
1699.3430661909
 20
23.120294664
 11
1699.3430661909
 21
27.120294664
  0
LINE
  5
40D
100
AcDbEntity
  8
0
100
AcDbLine
 62
9
  6
CONTINUOUS
 10
1719.8430661909
 20
379.2240157257
 11
1719.8430661909
 21
395.120294664
  0
LINE
  5
40E
100
AcDbEntity
  8
0
100
AcDbLine
 62
7
  6
CONTINUOUS
 10
1734.8430661909
 20
387.0245303048
 11
1734.8430661909
 21
395.120294664
  0
LINE
  5
40F
100
AcDbEntity
  8
0
100
AcDbLine
 62
9
  6
CONTINUOUS
 10
1737.3430661909
 20
408.120294664
 11
1737.3430661909
 21
395.120294664
  0
LINE
  5
410
100
AcDbEntity
  8
0
100
AcDbLine
 62
9
  6
CONTINUOUS
 10
1740.3430661909
 20
420.120294664
 11
1740.3430661909
 21
408.120294664
  0
LINE
  5
411
100
AcDbEntity
  8
0
100
AcDbLine
 62
7
  6
CONTINUOUS
 10
1743.3430661909
 20
422.120294664
 11
1743.3430661909
 21
435.120294664
  0
LINE
  5
412
100
AcDbEntity
  8
0
100
AcDbLine
 62
7
  6
CONTINUOUS
 10
1744.3430661909
 20
292.664806165
 11
1744.3430661909
 21
363.120294664
  0
LINE
  5
413
100
AcDbEntity
  8
0
100
AcDbLine
 62
7
  6
CONTINUOUS
 10
1752.3430661909
 20
418.120294664
 11
1752.3430661909
 21
395.120294664
  0
LINE
  5
414
100
AcDbEntity
  8
0
100
AcDbLine
 62
9
  6
CONTINUOUS
 10
1661.3430661909
 20
183.120294664
 11
1641.3430661909
 21
183.120294664
  0
LINE
  5
415
100
AcDbEntity
  8
0
100
AcDbLine
 62
9
  6
CONTINUOUS
 10
1949.2608278394
 20
183.120294664
 11
1955.3430661909
 21
183.120294664
  0
LINE
  5
416
100
AcDbEntity
  8
0
100
AcDbLine
 62
7
  6
CONTINUOUS
 10
1773.3430661909
 20
408.120294664
 11
1773.3430661909
 21
397.120294664
  0
LINE
  5
417
100
AcDbEntity
  8
0
100
AcDbLine
 62
7
  6
CONTINUOUS
 10
1687.2667825365
 20
72.165082035
 11
1669.3430661909
 21
41.120294664
  0
LINE
  5
418
100
AcDbEntity
  8
0
100
AcDbLine
 62
9
  6
CONTINUOUS
 10
1661.3430661909
 20
243.4391898274
 11
1641.3430661909
 21
243.4391898274
  0
LINE
  5
419
100
AcDbEntity
  8
0
100
AcDbLine
 62
9
  6
CONTINUOUS
 10
1935.3430661909
 20
243.4391898274
 11
1955.3430661909
 21
243.4391898274
  0
LINE
  5
41A
100
AcDbEntity
  8
0
100
AcDbLine
 62
7
  6
CONTINUOUS
 10
1959.3430661909
 20
41.120294664
 11
1928.2563820839
 21
94.964010976
  0
LINE
  5
41B
100
AcDbEntity
  8
0
100
AcDbLine
 62
7
  6
CONTINUOUS
 10
1884.3430661909
 20
292.664806165
 11
1884.3430661909
 21
363.120294664
  0
LINE
  5
41C
100
AcDbEntity
  8
0
100
AcDbLine
 62
7
  6
CONTINUOUS
 10
1903.3430661909
 20
408.120294664
 11
1903.3430661909
 21
361.9296957762
  0
LINE
  5
41D
100
AcDbEntity
  8
0
100
AcDbLine
 62
9
  6
CONTINUOUS
 10
1929.3430661909
 20
23.120294664
 11
1929.3430661909
 21
27.120294664
  0
LINE
  5
41E
100
AcDbEntity
  8
0
100
AcDbLine
 62
9
  6
CONTINUOUS
 10
1935.3430661909
 20
242.9345733711
 11
1935.3430661909
 21
243.4391898274
  0
LINE
  5
41F
100
AcDbEntity
  8
0
100
AcDbLine
 62
7
  6
CONTINUOUS
 10
1744.3430661909
 20
363.120294664
 11
1884.3430661909
 21
363.120294664
  0
LINE
  5
420
100
AcDbEntity
  8
0
100
AcDbLine
 62
3
  6
CONTINUOUS
 10
1944.3430661909
 20
51.120294664
 11
1944.3430661909
 21
27.120294664
  0
LINE
  5
421
100
AcDbEntity
  8
0
100
AcDbLine
 62
7
  6
CONTINUOUS
 10
1944.3430661909
 20
23.120294664
 11
1944.3430661909
 21
27.120294664
  0
LINE
  5
422
100
AcDbEntity
  8
0
100
AcDbLine
 62
7
  6
CONTINUOUS
 10
1944.3430661909
 20
51.120294664
 11
1944.3430661909
 21
66.120294664
  0
LINE
  5
423
100
AcDbEntity
  8
0
100
AcDbLine
 62
7
  6
CONTINUOUS
 10
1955.3430661909
 20
183.120294664
 11
1955.3430661909
 21
243.4391898274
  0
LINE
  5
424
100
AcDbEntity
  8
0
100
AcDbLine
 62
9
  6
CONTINUOUS
 10
1842.5222224512
 20
373.120294664
 11
1754.1639126819
 21
373.120294664
  0
LINE
  5
425
100
AcDbEntity
  8
0
100
AcDbLine
 62
7
  6
CONTINUOUS
 10
1903.9803877008
 20
359.7635791121
 11
1903.8555222456
 21
359.9709044666
  0
LINE
  5
426
100
AcDbEntity
  8
0
100
AcDbLine
 62
7
  6
CONTINUOUS
 10
1903.9309192126
 20
359.8424172652
 11
1903.8005979628
 21
360.072096249
  0
LINE
  5
427
100
AcDbEntity
  8
0
100
AcDbLine
 62
7
  6
CONTINUOUS
 10
1903.8555222456
 20
359.9709044666
 11
1903.7405205577
 21
360.1914078255
  0
LWPOLYLINE
  5
428
100
AcDbEntity
  8
0
100
AcDbPolyline
 62
7
  6
CONTINUOUS
 90
3
 70
0
 10
1903.8005979628
 20
360.072096249
 10
1903.6830879038
 20
360.3158228138
 10
1903.6535509905
 20
360.384517398
  0
LINE
  5
429
100
AcDbEntity
  8
0
100
AcDbLine
 62
7
  6
CONTINUOUS
 10
1903.7405205577
 20
360.1914078255
 11
1903.6703151309
 21
360.3450887675
  0
LINE
  5
42A
100
AcDbEntity
  8
0
100
AcDbLine
 62
7
  6
CONTINUOUS
 10
1959.3430661909
 20
23.120294664
 11
1959.3430661909
 21
41.120294664
  0
LINE
  5
42B
100
AcDbEntity
  8
0
100
AcDbLine
 62
7
  6
CONTINUOUS
 10
1750.3430661909
 20
393.120294664
 11
1843.3430634841
 21
393.120294664
  0
LINE
  5
42C
100
AcDbEntity
  8
0
100
AcDbLine
 62
7
  6
CONTINUOUS
 10
1752.3430661909
 20
395.120294664
 11
1632.3430661909
 21
395.120294664
  0
LINE
  5
42D
100
AcDbEntity
  8
0
100
AcDbLine
 62
9
  6
CONTINUOUS
 10
1773.3430661909
 20
397.120294664
 11
1843.2046798962
 21
397.120294664
  0
LWPOLYLINE
  5
42E
100
AcDbEntity
  8
0
100
AcDbPolyline
 62
7
  6
CONTINUOUS
 90
3
 70
0
 10
1904.5053592683
 20
359.1107770335
 10
1904.3822971368
 20
359.2402721526
 10
1904.3728855386
 20
359.251185094
  0
LINE
  5
42F
100
AcDbEntity
  8
0
100
AcDbLine
 62
7
  6
CONTINUOUS
 10
1904.5054058898
 20
359.1108450777
 11
1904.3650814023
 21
359.2594497311
  0
LINE
  5
430
100
AcDbEntity
  8
0
100
AcDbLine
 62
7
  6
CONTINUOUS
 10
1904.32931231
 20
359.3017091475
 11
1904.247202224
 21
359.3969174787
  0
LINE
  5
431
100
AcDbEntity
  8
0
100
AcDbLine
 62
7
  6
CONTINUOUS
 10
1904.3650814023
 20
359.2594497311
 11
1904.2166615564
 21
359.4348004505
  0
LINE
  5
432
100
AcDbEntity
  8
0
100
AcDbLine
 62
7
  6
CONTINUOUS
 10
1904.247202224
 20
359.3969174787
 11
1904.1121606829
 21
359.5715702304
  0
LINE
  5
433
100
AcDbEntity
  8
0
100
AcDbLine
 62
7
  6
CONTINUOUS
 10
1904.2166615564
 20
359.4348004505
 11
1904.0708132018
 21
359.6293575897
  0
LINE
  5
434
100
AcDbEntity
  8
0
100
AcDbLine
 62
7
  6
CONTINUOUS
 10
1904.1121606829
 20
359.5715702304
 11
1903.9803877008
 21
359.7635791121
  0
LINE
  5
435
100
AcDbEntity
  8
0
100
AcDbLine
 62
7
  6
CONTINUOUS
 10
1904.0708132018
 20
359.6293575897
 11
1903.9309192126
 21
359.8424172652
  0
LINE
  5
436
100
AcDbEntity
  8
0
100
AcDbLine
 62
7
  6
CONTINUOUS
 10
1752.3430661909
 20
408.120294664
 11
1632.3430661909
 21
408.120294664
  0
LINE
  5
437
100
AcDbEntity
  8
02___PRT_ALL_AXES
100
AcDbLine
 62
7
  6
CONTINUOUS
 10
1773.3430661909
 20
408.120294664
 11
1903.3430661909
 21
408.120294664
  0
LINE
  5
438
100
AcDbEntity
  8
0
100
AcDbLine
 62
9
  6
CONTINUOUS
 10
1632.3430661909
 20
418.120294664
 11
1752.3430661909
 21
418.120294664
  0
LINE
  5
439
100
AcDbEntity
  8
0
100
AcDbLine
 62
7
  6
CONTINUOUS
 10
1634.3430661909
 20
420.120294664
 11
1750.3430661909
 21
420.120294664
  0
LINE
  5
43A
100
AcDbEntity
  8
0
100
AcDbLine
 62
9
  6
CONTINUOUS
 10
1641.3430661909
 20
422.120294664
 11
1743.3430661909
 21
422.120294664
  0
LINE
  5
43B
100
AcDbEntity
  8
0
100
AcDbLine
 62
7
  6
CONTINUOUS
 10
1641.3430696435
 20
435.120294664
 11
1743.3430627382
 21
435.120294664
  0
LINE
  5
43C
100
AcDbEntity
  8
0
100
AcDbLine
 62
7
  6
CONTINUOUS
 10
613.6248260591
 20
-438.3935898176
 11
613.6248260591
 21
-234.9620863684
  0
LINE
  5
43D
100
AcDbEntity
  8
0
100
AcDbLine
 62
9
  6
CONTINUOUS
 10
619.4826890333
 20
-452.53572404
 11
619.4826890333
 21
-220.8199521468
  0
LINE
  5
43E
100
AcDbEntity
  8
0
100
AcDbLine
 62
9
  6
CONTINUOUS
 10
627.7669356658
 20
-212.5357038717
 11
627.7669356658
 21
-460.819972315
  0
LINE
  5
43F
100
AcDbEntity
  8
0
100
AcDbLine
 62
7
  6
CONTINUOUS
 10
619.4826890333
 20
-452.53572404
 11
627.7669356658
 21
-460.819972315
  0
LINE
  5
440
100
AcDbEntity
  8
0
100
AcDbLine
 62
9
  6
CONTINUOUS
 10
641.9090726916
 20
-206.6778380934
 11
641.9090726916
 21
-466.6778380934
  0
LINE
  5
441
100
AcDbEntity
  8
0
100
AcDbLine
 62
7
  6
CONTINUOUS
 10
619.4826890333
 20
-220.8199521468
 11
627.7669356658
 21
-212.5357038717
  0
LINE
  5
442
100
AcDbEntity
  8
0
100
AcDbLine
 62
7
  6
CONTINUOUS
 10
683.6248260591
 20
-206.6778380934
 11
683.6248260591
 21
-466.6778380934
  0
LINE
  5
443
100
AcDbEntity
  8
0
100
AcDbLine
 62
7
  6
CONTINUOUS
 10
693.6248260591
 20
-206.6778380934
 11
693.6248260591
 21
-466.6778380934
  0
LINE
  5
444
100
AcDbEntity
  8
0
100
AcDbLine
 62
7
  6
CONTINUOUS
 10
683.6248260591
 20
-456.6778380934
 11
693.6248260591
 21
-466.6778380934
  0
LINE
  5
445
100
AcDbEntity
  8
0
100
AcDbLine
 62
7
  6
CONTINUOUS
 10
683.6248260591
 20
-216.6778380934
 11
693.6248260591
 21
-206.6778380934
  0
LINE
  5
446
100
AcDbEntity
  8
0
100
AcDbLine
 62
7
  6
CONTINUOUS
 10
841.6248260591
 20
-266.6778380934
 11
841.6248260591
 21
-406.6778380934
  0
LINE
  5
447
100
AcDbEntity
  8
0
100
AcDbLine
 62
7
  6
CONTINUOUS
 10
1189.1248260591
 20
-481.6778380934
 11
1237.1248260591
 21
-481.6778380934
  0
LINE
  5
448
100
AcDbEntity
  8
0
100
AcDbLine
 62
9
  6
CONTINUOUS
 10
1199.1248260591
 20
-478.6778380934
 11
1237.1248260591
 21
-478.6778380934
  0
LINE
  5
449
100
AcDbEntity
  8
0
100
AcDbLine
 62
7
  6
CONTINUOUS
 10
1319.1248260591
 20
-477.6778380934
 11
1149.1248260591
 21
-477.6778380934
  0
LINE
  5
44A
100
AcDbEntity
  8
0
100
AcDbLine
 62
7
  6
CONTINUOUS
 10
1128.6248260591
 20
-471.6778380934
 11
1119.6248260591
 21
-471.6778380934
  0
LINE
  5
44B
100
AcDbEntity
  8
0
100
AcDbLine
 62
7
  6
CONTINUOUS
 10
641.9090726916
 20
-466.6778380934
 11
683.6248260591
 21
-466.6778380934
  0
LINE
  5
44C
100
AcDbEntity
  8
02___PRT_ALL_AXES
100
AcDbLine
 62
7
  6
CONTINUOUS
 10
641.9090726916
 20
-466.6778380934
 11
683.6248260591
 21
-466.6778380934
  0
LINE
  5
44D
100
AcDbEntity
  8
02___PRT_ALL_AXES
100
AcDbLine
 62
7
  6
CONTINUOUS
 10
693.6248260591
 20
-466.6778380934
 11
1011.6248260591
 21
-466.6778380934
  0
LINE
  5
44E
100
AcDbEntity
  8
0
100
AcDbLine
 62
7
  6
CONTINUOUS
 10
693.6248260591
 20
-466.6778380934
 11
1011.6248260591
 21
-466.6778380934
  0
LINE
  5
44F
100
AcDbEntity
  8
3_ALL_AXES
100
AcDbLine
 62
7
  6
CONTINUOUS
 10
1128.6248260591
 20
-459.1778380934
 11
1129.1248260591
 21
-459.1778380934
  0
LINE
  5
450
100
AcDbEntity
  8
3_ALL_AXES
100
AcDbLine
 62
7
  6
CONTINUOUS
 10
1044.6248260591
 20
-436.6778380934
 11
1032.6248260591
 21
-436.6778380934
  0
LINE
  5
451
100
AcDbEntity
  8
0
100
AcDbLine
 62
7
  6
CONTINUOUS
 10
1032.6248260591
 20
-436.6778380934
 11
1114.6248260591
 21
-436.6778380934
  0
LINE
  5
452
100
AcDbEntity
  8
0
100
AcDbLine
 62
9
  6
CONTINUOUS
 10
1046.6248260591
 20
-434.6778380934
 11
1117.6248260591
 21
-434.6778380934
  0
LINE
  5
453
100
AcDbEntity
  8
0
100
AcDbLine
 62
9
  6
CONTINUOUS
 10
1117.6248260591
 20
-425.5508214396
 11
1114.6248260591
 21
-425.5508214396
  0
LINE
  5
454
100
AcDbEntity
  8
0
100
AcDbLine
 62
9
  6
CONTINUOUS
 10
1114.6248260591
 20
-419.3058234412
 11
1111.6248260591
 21
-419.3058234412
  0
LINE
  5
455
100
AcDbEntity
  8
0
100
AcDbLine
 62
9
  6
CONTINUOUS
 10
1114.6248260591
 20
-413.3967471607
 11
1111.6248260591
 21
-413.3967471607
  0
LINE
  5
456
100
AcDbEntity
  8
0
100
AcDbLine
 62
7
  6
CONTINUOUS
 10
1349.1248260591
 20
-410.6778380934
 11
1343.1248260591
 21
-410.6778380934
  0
LINE
  5
457
100
AcDbEntity
  8
0
100
AcDbLine
 62
7
  6
CONTINUOUS
 10
841.6248260591
 20
-406.6778380934
 11
981.6248260591
 21
-406.6778380934
  0
LINE
  5
458
100
AcDbEntity
  8
0
100
AcDbLine
 62
9
  6
CONTINUOUS
 10
1114.6248260591
 20
-406.6778290639
 11
1117.6248260591
 21
-406.6778380934
  0
LINE
  5
459
100
AcDbEntity
  8
0
100
AcDbLine
 62
9
  6
CONTINUOUS
 10
1155.2112505658
 20
-365.6778380522
 11
1159.208831922
 21
-365.5394526317
  0
LINE
  5
45A
100
AcDbEntity
  8
0
100
AcDbLine
 62
9
  6
CONTINUOUS
 10
1031.6248260591
 20
-396.6778380934
 11
1046.6248260591
 21
-396.6778380934
  0
LINE
  5
45B
100
AcDbEntity
  8
0
100
AcDbLine
 62
9
  6
CONTINUOUS
 10
1339.1248260591
 20
-385.6778380934
 11
1349.1248260591
 21
-385.6778380934
  0
LINE
  5
45C
100
AcDbEntity
  8
0
100
AcDbLine
 62
9
  6
CONTINUOUS
 10
1046.6248260591
 20
-382.4844969979
 11
1049.6248260591
 21
-382.4844969979
  0
LINE
  5
45D
100
AcDbEntity
  8
0
100
AcDbLine
 62
9
  6
CONTINUOUS
 10
1074.88260212
 20
-381.4690202613
 11
1050.6248260591
 21
-381.4690202613
  0
LINE
  5
45E
100
AcDbEntity
  8
0
100
AcDbLine
 62
7
  6
CONTINUOUS
 10
1360.1248260591
 20
-380.6778380934
 11
1336.182809204
 21
-380.6778380934
  0
LINE
  5
45F
100
AcDbEntity
  8
0
100
AcDbLine
 62
9
  6
CONTINUOUS
 10
1114.6248260591
 20
-380.6778380934
 11
1117.6248260591
 21
-380.6778380934
  0
LINE
  5
460
100
AcDbEntity
  8
0
100
AcDbLine
 62
9
  6
CONTINUOUS
 10
1046.6248260591
 20
-379.6778380934
 11
1044.6248260591
 21
-379.6778380934
  0
LINE
  5
461
100
AcDbEntity
  8
0
100
AcDbLine
 62
9
  6
CONTINUOUS
 10
1074.88260212
 20
-378.515755503
 11
1050.6248260591
 21
-378.515755503
  0
LINE
  5
462
100
AcDbEntity
  8
0
100
AcDbLine
 62
7
  6
CONTINUOUS
 10
1113.6248260591
 20
-376.6778380934
 11
1049.6248260591
 21
-376.6778380934
  0
LINE
  5
463
100
AcDbEntity
  8
0
100
AcDbLine
 62
9
  6
CONTINUOUS
 10
1049.6248260591
 20
-374.6778380934
 11
1117.6248260591
 21
-374.6778380934
  0
LINE
  5
464
100
AcDbEntity
  8
0
100
AcDbLine
 62
7
  6
CONTINUOUS
 10
1364.1248260591
 20
-371.6778380934
 11
1384.1248260591
 21
-371.6778380934
  0
LINE
  5
465
100
AcDbEntity
  8
0
100
AcDbLine
 62
9
  6
CONTINUOUS
 10
1222.7026736936
 20
-370.4313592201
 11
1319.1248260591
 21
-370.4313592201
  0
LINE
  5
466
100
AcDbEntity
  8
0
100
AcDbLine
 62
9
  6
CONTINUOUS
 10
1149.1248260907
 20
-370.4313178917
 11
1155.5469784246
 21
-370.43135922
  0
LINE
  5
467
100
AcDbEntity
  8
0
100
AcDbLine
 62
9
  6
CONTINUOUS
 10
1362.1248260591
 20
-368.6778380934
 11
1349.1248260591
 21
-368.6778380934
  0
LINE
  5
468
100
AcDbEntity
  8
0
100
AcDbLine
 62
9
  6
CONTINUOUS
 10
1349.1248260591
 20
-365.6778380934
 11
1223.0384015482
 21
-365.6778380934
  0
LINE
  5
469
100
AcDbEntity
  8
0
100
AcDbLine
 62
9
  6
CONTINUOUS
 10
1155.21125057
 20
-365.6778380934
 11
1149.1248260591
 21
-365.6778353866
  0
LINE
  5
46A
100
AcDbEntity
  8
0
100
AcDbLine
 62
9
  6
CONTINUOUS
 10
1223.0384015482
 20
-365.6778380934
 11
1219.0407985719
 21
-365.5394518839
  0
LINE
  5
46B
100
AcDbEntity
  8
0
100
AcDbLine
 62
7
  6
CONTINUOUS
 10
981.6248260591
 20
-406.6778380934
 11
981.6248260591
 21
-266.6778380934
  0
LINE
  5
46C
100
AcDbEntity
  8
0
100
AcDbLine
 62
7
  6
CONTINUOUS
 10
1011.6248260591
 20
-206.6778380934
 11
1011.6248260591
 21
-466.6778380934
  0
LINE
  5
46D
100
AcDbEntity
  8
0
100
AcDbLine
 62
9
  6
CONTINUOUS
 10
1049.6248260591
 20
-298.6778380934
 11
1117.6248260591
 21
-298.6778380934
  0
LINE
  5
46E
100
AcDbEntity
  8
0
100
AcDbLine
 62
7
  6
CONTINUOUS
 10
1049.6248260591
 20
-296.6778380934
 11
1113.6248260591
 21
-296.6778380934
  0
LINE
  5
46F
100
AcDbEntity
  8
0
100
AcDbLine
 62
9
  6
CONTINUOUS
 10
1050.6248260591
 20
-294.8399206838
 11
1074.88260212
 21
-294.8399206838
  0
LINE
  5
470
100
AcDbEntity
  8
0
100
AcDbLine
 62
9
  6
CONTINUOUS
 10
1046.6248260591
 20
-293.6778380934
 11
1044.6248260592
 21
-293.6778380931
  0
LINE
  5
471
100
AcDbEntity
  8
0
100
AcDbLine
 62
9
  6
CONTINUOUS
 10
1114.6248260591
 20
-292.6778380934
 11
1117.6248260591
 21
-292.6778380934
  0
LINE
  5
472
100
AcDbEntity
  8
0
100
AcDbLine
 62
9
  6
CONTINUOUS
 10
1050.6248260591
 20
-291.8866559255
 11
1074.88260212
 21
-291.8866559255
  0
LINE
  5
473
100
AcDbEntity
  8
0
100
AcDbLine
 62
9
  6
CONTINUOUS
 10
1046.6248260591
 20
-290.8711791888
 11
1049.6248260591
 21
-290.8711791888
  0
LINE
  5
474
100
AcDbEntity
  8
0
100
AcDbLine
 62
7
  6
CONTINUOUS
 10
1031.6248260591
 20
-226.6778380934
 11
1031.6248260591
 21
-446.6778380933
  0
LINE
  5
475
100
AcDbEntity
  8
0
100
AcDbLine
 62
9
  6
CONTINUOUS
 10
1032.6248260591
 20
-436.6778380934
 11
1032.6248260591
 21
-236.6778380934
  0
LINE
  5
476
100
AcDbEntity
  8
0
100
AcDbLine
 62
9
  6
CONTINUOUS
 10
1044.6248260591
 20
-236.6778380934
 11
1044.6248260591
 21
-293.6778380934
  0
LINE
  5
477
100
AcDbEntity
  8
0
100
AcDbLine
 62
9
  6
CONTINUOUS
 10
1044.6248260591
 20
-379.6778380934
 11
1044.6248260591
 21
-436.6778380934
  0
LINE
  5
478
100
AcDbEntity
  8
0
100
AcDbLine
 62
7
  6
CONTINUOUS
 10
1046.6248260591
 20
-238.6778380934
 11
1046.6248260591
 21
-293.6778380934
  0
LINE
  5
479
100
AcDbEntity
  8
0
100
AcDbLine
 62
7
  6
CONTINUOUS
 10
1046.6248260591
 20
-379.6778380934
 11
1046.6248260591
 21
-434.6778380934
  0
LINE
  5
47A
100
AcDbEntity
  8
0
100
AcDbLine
 62
9
  6
CONTINUOUS
 10
1049.6248260591
 20
-376.6778380934
 11
1049.6248260594
 21
-374.6778380934
  0
LINE
  5
47B
100
AcDbEntity
  8
0
100
AcDbLine
 62
9
  6
CONTINUOUS
 10
1049.6248260594
 20
-236.6778380934
 11
1049.6248260591
 21
-290.8711791888
  0
LINE
  5
47C
100
AcDbEntity
  8
0
100
AcDbLine
 62
9
  6
CONTINUOUS
 10
1049.6248260591
 20
-296.6778380934
 11
1049.6248260591
 21
-298.6778380934
  0
LINE
  5
47D
100
AcDbEntity
  8
0
100
AcDbLine
 62
9
  6
CONTINUOUS
 10
1049.6248260591
 20
-382.4844969979
 11
1049.6248260591
 21
-436.6778380934
  0
LINE
  5
47E
100
AcDbEntity
  8
0
100
AcDbLine
 62
9
  6
CONTINUOUS
 10
1050.6248260591
 20
-291.8866559255
 11
1050.6248260591
 21
-296.6778380934
  0
LINE
  5
47F
100
AcDbEntity
  8
0
100
AcDbLine
 62
9
  6
CONTINUOUS
 10
1050.6248260591
 20
-376.6778380934
 11
1050.6248260591
 21
-381.4690202613
  0
LINE
  5
480
100
AcDbEntity
  8
0
100
AcDbLine
 62
9
  6
CONTINUOUS
 10
1031.6248260591
 20
-276.6778380934
 11
1046.6248260591
 21
-276.6778380934
  0
LINE
  5
481
100
AcDbEntity
  8
0
100
AcDbLine
 62
9
  6
CONTINUOUS
 10
1349.1248260591
 20
-275.6778380934
 11
1149.1248260591
 21
-275.6778407996
  0
LINE
  5
482
100
AcDbEntity
  8
0
100
AcDbLine
 62
7
  6
CONTINUOUS
 10
1141.1248260591
 20
-274.6778380934
 11
1237.1248260591
 21
-274.6778380934
  0
LINE
  5
483
100
AcDbEntity
  8
0
100
AcDbLine
 62
9
  6
CONTINUOUS
 10
1362.1248260591
 20
-272.6778380934
 11
1349.1248260591
 21
-272.6778380934
  0
LINE
  5
484
100
AcDbEntity
  8
0
100
AcDbLine
 62
9
  6
CONTINUOUS
 10
1141.1248260591
 20
-272.6778380934
 11
1237.1248260591
 21
-272.6778380934
  0
LINE
  5
485
100
AcDbEntity
  8
0
100
AcDbLine
 62
9
  6
CONTINUOUS
 10
1245.8374493531
 20
-270.9243347816
 11
1319.1248260591
 21
-270.9243169666
  0
LINE
  5
486
100
AcDbEntity
  8
0
100
AcDbLine
 62
7
  6
CONTINUOUS
 10
1364.1248260591
 20
-269.6778380934
 11
1384.1248260591
 21
-269.6778380934
  0
LINE
  5
487
100
AcDbEntity
  8
0
100
AcDbLine
 62
9
  6
CONTINUOUS
 10
1117.6248260591
 20
-266.6778380934
 11
1114.6248260591
 21
-266.6778470859
  0
LINE
  5
488
100
AcDbEntity
  8
0
100
AcDbLine
 62
7
  6
CONTINUOUS
 10
981.6248260591
 20
-266.6778380934
 11
841.6248260591
 21
-266.6778380934
  0
LINE
  5
489
100
AcDbEntity
  8
0
100
AcDbLine
 62
9
  6
CONTINUOUS
 10
1131.1248260591
 20
-262.6778380934
 11
1129.1248260591
 21
-262.6778380934
  0
LINE
  5
48A
100
AcDbEntity
  8
0
100
AcDbLine
 62
9
  6
CONTINUOUS
 10
1247.1248260591
 20
-262.6778380934
 11
1249.1248260591
 21
-262.6778380934
  0
LINE
  5
48B
100
AcDbEntity
  8
0
100
AcDbLine
 62
7
  6
CONTINUOUS
 10
1336.182809204
 20
-260.6778380934
 11
1360.1248260591
 21
-260.6778380934
  0
LINE
  5
48C
100
AcDbEntity
  8
0
100
AcDbLine
 62
9
  6
CONTINUOUS
 10
1114.6248260591
 20
-259.958929026
 11
1111.6248260591
 21
-259.958929026
  0
LINE
  5
48D
100
AcDbEntity
  8
0
100
AcDbLine
 62
9
  6
CONTINUOUS
 10
1074.88260212
 20
-296.6778380934
 11
1074.88260212
 21
-291.8866559255
  0
LINE
  5
48E
100
AcDbEntity
  8
0
100
AcDbLine
 62
9
  6
CONTINUOUS
 10
1074.88260212
 20
-376.6778380934
 11
1074.88260212
 21
-381.4690202613
  0
LINE
  5
48F
100
AcDbEntity
  8
0
100
AcDbLine
 62
9
  6
CONTINUOUS
 10
1080.0249029975
 20
-380.3927174203
 11
1080.0249029975
 21
-376.6778380934
  0
LINE
  5
490
100
AcDbEntity
  8
0
100
AcDbLine
 62
9
  6
CONTINUOUS
 10
1080.0249029975
 20
-296.6778380934
 11
1080.0249029975
 21
-292.9629587664
  0
LINE
  5
491
100
AcDbEntity
  8
0
100
AcDbLine
 62
9
  6
CONTINUOUS
 10
1339.1248260591
 20
-255.6778380934
 11
1349.1248260591
 21
-255.6778380934
  0
LINE
  5
492
100
AcDbEntity
  8
0
100
AcDbLine
 62
9
  6
CONTINUOUS
 10
1114.6248260591
 20
-254.0498527456
 11
1111.6248260591
 21
-254.0498527456
  0
LINE
  5
493
100
AcDbEntity
  8
0
100
AcDbLine
 62
9
  6
CONTINUOUS
 10
1117.6248260591
 20
-247.8048547472
 11
1114.6248260591
 21
-247.8048547472
  0
LINE
  5
494
100
AcDbEntity
  8
0
100
AcDbLine
 62
9
  6
CONTINUOUS
 10
1046.6248260591
 20
-238.6778380934
 11
1117.6248260591
 21
-238.6778380934
  0
LINE
  5
495
100
AcDbEntity
  8
0
100
AcDbLine
 62
7
  6
CONTINUOUS
 10
1114.6248260591
 20
-236.6778380934
 11
1032.6248260591
 21
-236.6778380934
  0
LINE
  5
496
100
AcDbEntity
  8
0
100
AcDbLine
 62
9
  6
CONTINUOUS
 10
1080.0249029924
 20
-292.9629587605
 11
1078.0965401685
 21
-290.698841166
  0
LINE
  5
497
100
AcDbEntity
  8
0
100
AcDbLine
 62
9
  6
CONTINUOUS
 10
1111.6248260591
 20
-419.3058234412
 11
1111.6248260591
 21
-413.3967471607
  0
LINE
  5
498
100
AcDbEntity
  8
0
100
AcDbLine
 62
9
  6
CONTINUOUS
 10
1111.6248260591
 20
-259.958929026
 11
1111.6248260591
 21
-254.0498527456
  0
LINE
  5
499
100
AcDbEntity
  8
0
100
AcDbLine
 62
9
  6
CONTINUOUS
 10
1111.7671269366
 20
-407.2602556041
 11
1111.7671269366
 21
-376.6778380934
  0
LINE
  5
49A
100
AcDbEntity
  8
0
100
AcDbLine
 62
9
  6
CONTINUOUS
 10
1111.7671269366
 20
-296.6778380934
 11
1111.7671269366
 21
-266.0954205826
  0
LINE
  5
49B
100
AcDbEntity
  8
0
100
AcDbLine
 62
9
  6
CONTINUOUS
 10
1113.6248260591
 20
-296.6778380934
 11
1113.6248260591
 21
-376.6778380934
  0
LINE
  5
49C
100
AcDbEntity
  8
0
100
AcDbLine
 62
9
  6
CONTINUOUS
 10
1080.0249009664
 20
-380.3927198052
 11
1078.0965401685
 21
-382.6568350207
  0
LINE
  5
49D
100
AcDbEntity
  8
0
100
AcDbLine
 62
7
  6
CONTINUOUS
 10
1031.6248367873
 20
-446.67784882
 11
1011.6248387379
 21
-466.6778507703
  0
LINE
  5
49E
100
AcDbEntity
  8
0
100
AcDbLine
 62
7
  6
CONTINUOUS
 10
1349.1248260591
 20
-230.6778380934
 11
1343.1248260591
 21
-230.6778380934
  0
LINE
  5
49F
100
AcDbEntity
  8
3_ALL_AXES
100
AcDbLine
 62
7
  6
CONTINUOUS
 10
1128.6248260591
 20
-214.1778380934
 11
1129.1248260591
 21
-214.1778380934
  0
LINE
  5
4A0
100
AcDbEntity
  8
0
100
AcDbLine
 62
7
  6
CONTINUOUS
 10
641.9090726916
 20
-206.6778380934
 11
683.6248260591
 21
-206.6778380934
  0
LINE
  5
4A1
100
AcDbEntity
  8
02___PRT_ALL_AXES
100
AcDbLine
 62
7
  6
CONTINUOUS
 10
641.9090726916
 20
-206.6778380934
 11
683.6248260591
 21
-206.6778380934
  0
LINE
  5
4A2
100
AcDbEntity
  8
0
100
AcDbLine
 62
7
  6
CONTINUOUS
 10
693.6248260591
 20
-206.6778380934
 11
1011.6248260591
 21
-206.6778380934
  0
LINE
  5
4A3
100
AcDbEntity
  8
02___PRT_ALL_AXES
100
AcDbLine
 62
7
  6
CONTINUOUS
 10
693.6248260591
 20
-206.6778380934
 11
1011.6248260591
 21
-206.6778380934
  0
LINE
  5
4A4
100
AcDbEntity
  8
0
100
AcDbLine
 62
7
  6
CONTINUOUS
 10
1031.6248367869
 20
-226.6778273664
 11
1011.6248387375
 21
-206.677825416
  0
LINE
  5
4A5
100
AcDbEntity
  8
0
100
AcDbLine
 62
7
  6
CONTINUOUS
 10
1114.6248260591
 20
-419.3058234357
 11
1114.6248260591
 21
-376.8051873256
  0
LINE
  5
4A6
100
AcDbEntity
  8
0
100
AcDbLine
 62
7
  6
CONTINUOUS
 10
1114.6248260591
 20
-296.5504799989
 11
1114.6248260591
 21
-254.0498527509
  0
LINE
  5
4A7
100
AcDbEntity
  8
0
100
AcDbLine
 62
9
  6
CONTINUOUS
 10
1114.6248260591
 20
-236.6778380934
 11
1114.6248260591
 21
-247.8048547472
  0
LINE
  5
4A8
100
AcDbEntity
  8
0
100
AcDbLine
 62
9
  6
CONTINUOUS
 10
1114.6248260591
 20
-425.5508214396
 11
1114.6248260591
 21
-436.6778380934
  0
LINE
  5
4A9
100
AcDbEntity
  8
0
100
AcDbLine
 62
9
  6
CONTINUOUS
 10
1116.1248260577
 20
-406.6778380934
 11
1116.1248165149
 21
-380.6778380934
  0
LINE
  5
4AA
100
AcDbEntity
  8
0
100
AcDbLine
 62
9
  6
CONTINUOUS
 10
1116.1248165139
 20
-292.6778380934
 11
1116.1248260577
 21
-266.6778380924
  0
LINE
  5
4AB
100
AcDbEntity
  8
0
100
AcDbLine
 62
7
  6
CONTINUOUS
 10
1117.6248260591
 20
-469.6778380934
 11
1117.6248260591
 21
-203.6778380934
  0
LINE
  5
4AC
100
AcDbEntity
  8
0
100
AcDbLine
 62
9
  6
CONTINUOUS
 10
1119.6248260591
 20
-201.6778380934
 11
1119.6248260591
 21
-471.6778380934
  0
LINE
  5
4AD
100
AcDbEntity
  8
0
100
AcDbLine
 62
7
  6
CONTINUOUS
 10
1128.6248260591
 20
-201.6779132242
 11
1128.6248260591
 21
-471.6777629626
  0
LINE
  5
4AE
100
AcDbEntity
  8
0
100
AcDbLine
 62
7
  6
CONTINUOUS
 10
1129.1248260591
 20
-166.6778380934
 11
1129.1248260591
 21
-457.6778380934
  0
LINE
  5
4AF
100
AcDbEntity
  8
3_ALL_AXES
100
AcDbLine
 62
7
  6
CONTINUOUS
 10
1129.1248260591
 20
-458.0691839099
 11
1129.1248260591
 21
-459.1778380934
  0
LINE
  5
4B0
100
AcDbEntity
  8
0
100
AcDbLine
 62
9
  6
CONTINUOUS
 10
1131.1248260591
 20
-166.6778380934
 11
1131.1248260591
 21
-262.6778380934
  0
LINE
  5
4B1
100
AcDbEntity
  8
0
100
AcDbLine
 62
9
  6
CONTINUOUS
 10
1141.1248260591
 20
-156.6778380934
 11
1141.1248260591
 21
-154.6778380934
  0
LINE
  5
4B2
100
AcDbEntity
  8
0
100
AcDbLine
 62
9
  6
CONTINUOUS
 10
1141.1248260591
 20
-272.6778380934
 11
1141.1248260591
 21
-274.6778380934
  0
LINE
  5
4B3
100
AcDbEntity
  8
0
100
AcDbLine
 62
7
  6
CONTINUOUS
 10
1128.6248260591
 20
-201.6778380934
 11
1119.6248260591
 21
-201.6778380934
  0
LINE
  5
4B4
100
AcDbEntity
  8
0
100
AcDbLine
 62
9
  6
CONTINUOUS
 10
1111.767124781
 20
-266.0954180292
 11
1109.8387641075
 21
-263.8110137876
  0
LINE
  5
4B5
100
AcDbEntity
  8
0
100
AcDbLine
 62
9
  6
CONTINUOUS
 10
1116.1248260588
 20
-250.9273537466
 11
1114.2498260591
 21
-248.585479497
  0
LINE
  5
4B6
100
AcDbEntity
  8
0
100
AcDbLine
 62
9
  6
CONTINUOUS
 10
1149.1248260881
 20
-274.6778380934
 11
1149.1248260591
 21
-477.6778380934
  0
LINE
  5
4B7
100
AcDbEntity
  8
0
100
AcDbLine
 62
9
  6
CONTINUOUS
 10
1116.1248260593
 20
-422.4283224405
 11
1114.2498260593
 21
-424.7701966899
  0
LINE
  5
4B8
100
AcDbEntity
  8
0
100
AcDbLine
 62
9
  6
CONTINUOUS
 10
1111.7671269355
 20
-407.2602556054
 11
1109.8387641075
 21
-409.5446623992
  0
LINE
  5
4B9
100
AcDbEntity
  8
0
100
AcDbLine
 62
9
  6
CONTINUOUS
 10
1131.1248260591
 20
-166.6778380934
 11
1129.1248260591
 21
-166.6778380934
  0
LINE
  5
4BA
100
AcDbEntity
  8
0
100
AcDbLine
 62
9
  6
CONTINUOUS
 10
1247.1248260591
 20
-166.6778380934
 11
1249.1248260591
 21
-166.6778380934
  0
LINE
  5
4BB
100
AcDbEntity
  8
0
100
AcDbLine
 62
7
  6
CONTINUOUS
 10
1248.7418893392
 20
-163.6778380934
 11
1319.1248260591
 21
-163.6778380934
  0
LINE
  5
4BC
100
AcDbEntity
  8
0
100
AcDbLine
 62
9
  6
CONTINUOUS
 10
1237.1248260591
 20
-156.6778380934
 11
1141.1248260591
 21
-156.6778380934
  0
LINE
  5
4BD
100
AcDbEntity
  8
0
100
AcDbLine
 62
7
  6
CONTINUOUS
 10
1237.1248260591
 20
-154.6778380934
 11
1141.1248260591
 21
-154.6778380934
  0
LINE
  5
4BE
100
AcDbEntity
  8
0
100
AcDbLine
 62
7
  6
CONTINUOUS
 10
1189.1248260591
 20
-481.6778380934
 11
1189.1248260591
 21
-477.6778380934
  0
LINE
  5
4BF
100
AcDbEntity
  8
0
100
AcDbLine
 62
7
  6
CONTINUOUS
 10
1199.1248260591
 20
-481.6778380934
 11
1199.1248260591
 21
-477.6778380934
  0
LINE
  5
4C0
100
AcDbEntity
  8
0
100
AcDbLine
 62
9
  6
CONTINUOUS
 10
1237.1248260591
 20
-156.6778380934
 11
1237.1248260591
 21
-154.6778380934
  0
LINE
  5
4C1
100
AcDbEntity
  8
0
100
AcDbLine
 62
9
  6
CONTINUOUS
 10
1237.1248260591
 20
-272.6778380934
 11
1237.1248260591
 21
-274.6778380934
  0
LINE
  5
4C2
100
AcDbEntity
  8
0
100
AcDbLine
 62
9
  6
CONTINUOUS
 10
1237.1248260591
 20
-478.6778380934
 11
1237.124826028
 21
-481.6778380934
  0
LINE
  5
4C3
100
AcDbEntity
  8
0
100
AcDbLine
 62
9
  6
CONTINUOUS
 10
1247.1248260591
 20
-262.6778380934
 11
1247.1248260591
 21
-166.6778380934
  0
LINE
  5
4C4
100
AcDbEntity
  8
0
100
AcDbLine
 62
7
  6
CONTINUOUS
 10
1249.1248260591
 20
-262.6778380934
 11
1249.1248260591
 21
-166.6778380934
  0
LINE
  5
4C5
100
AcDbEntity
  8
0
100
AcDbLine
 62
9
  6
CONTINUOUS
 10
1319.1248260591
 20
-163.6778380934
 11
1319.1248260591
 21
-270.9243169666
  0
LINE
  5
4C6
100
AcDbEntity
  8
0
100
AcDbLine
 62
9
  6
CONTINUOUS
 10
1319.1248260591
 20
-370.4313592201
 11
1319.1248260591
 21
-477.6778380934
  0
LINE
  5
4C7
100
AcDbEntity
  8
0
100
AcDbLine
 62
7
  6
CONTINUOUS
 10
1339.1248260591
 20
-260.6778380934
 11
1339.1248260591
 21
-183.6778380934
  0
LINE
  5
4C8
100
AcDbEntity
  8
0
100
AcDbLine
 62
7
  6
CONTINUOUS
 10
1339.1248260591
 20
-380.6778380934
 11
1339.1248260591
 21
-457.6778380934
  0
LINE
  5
4C9
100
AcDbEntity
  8
0
100
AcDbLine
 62
9
  6
CONTINUOUS
 10
1343.1248260591
 20
-230.6778380934
 11
1343.1248260591
 21
-260.6778380934
  0
LINE
  5
4CA
100
AcDbEntity
  8
0
100
AcDbLine
 62
9
  6
CONTINUOUS
 10
1343.1248260591
 20
-380.6778380934
 11
1343.1248260591
 21
-410.6778380934
  0
LINE
  5
4CB
100
AcDbEntity
  8
02___PRT_ALL_AXES
100
AcDbLine
 62
7
  6
CONTINUOUS
 10
1349.1248260591
 20
-230.6778380934
 11
1349.1248260591
 21
-260.6778380934
  0
LINE
  5
4CC
100
AcDbEntity
  8
0
100
AcDbLine
 62
7
  6
CONTINUOUS
 10
1349.1248260591
 20
-260.6778380934
 11
1349.1248260591
 21
-380.6778380934
  0
LINE
  5
4CD
100
AcDbEntity
  8
02___PRT_ALL_AXES
100
AcDbLine
 62
7
  6
CONTINUOUS
 10
1349.1248260591
 20
-380.6778380934
 11
1349.1248260591
 21
-410.6778380934
  0
LINE
  5
4CE
100
AcDbEntity
  8
0
100
AcDbLine
 62
9
  6
CONTINUOUS
 10
1360.1248260591
 20
-260.6778380934
 11
1360.1248260591
 21
-380.6778380934
  0
LINE
  5
4CF
100
AcDbEntity
  8
0
100
AcDbLine
 62
7
  6
CONTINUOUS
 10
1362.1248260591
 20
-262.6778380934
 11
1362.1248260591
 21
-378.6778380934
  0
LINE
  5
4D0
100
AcDbEntity
  8
0
100
AcDbLine
 62
9
  6
CONTINUOUS
 10
1364.1248260591
 20
-269.6778380934
 11
1364.1248260591
 21
-371.6778380934
  0
LINE
  5
4D1
100
AcDbEntity
  8
0
100
AcDbLine
 62
7
  6
CONTINUOUS
 10
1384.1248260591
 20
-269.677841546
 11
1384.1248260591
 21
-371.6778346407
  0
ARC
  5
4D2
100
AcDbEntity
  8
0
100
AcDbCircle
 62
7
  6
CONTINUOUS
 10
633.6248260591
 20
81.404542939
 40
20.0
100
AcDbArc
 50
179.999999797
 51
224.999994135
  0
ARC
  5
4D3
100
AcDbEntity
  8
0
100
AcDbCircle
 62
7
  6
CONTINUOUS
 10
641.9090726916
 20
73.120294664
 40
20.0
100
AcDbArc
 50
224.9999943643
 51
270.0
  0
ARC
  5
4D4
100
AcDbEntity
  8
0
100
AcDbCircle
 62
7
  6
CONTINUOUS
 10
734.6248260591
 20
31.120294664
 40
8.0
100
AcDbArc
 50
270.0
 51
360.0
  0
ARC
  5
4D5
100
AcDbEntity
  8
0
100
AcDbCircle
 62
7
  6
CONTINUOUS
 10
972.6248260591
 20
31.120294664
 40
8.0
100
AcDbArc
 50
180.0
 51
270.0
  0
ARC
  5
4D6
100
AcDbEntity
  8
0
100
AcDbCircle
 62
3
  6
CONTINUOUS
 10
746.6248260591
 20
43.120294664
 40
8.0
100
AcDbArc
 50
90.0
 51
180.0
  0
ARC
  5
4D7
100
AcDbEntity
  8
0
100
AcDbCircle
 62
3
  6
CONTINUOUS
 10
960.6248260591
 20
43.120294664
 40
8.0
100
AcDbArc
 50
0.0
 51
90.0
  0
ARC
  5
4D8
100
AcDbEntity
  8
0
100
AcDbCircle
 62
7
  6
CONTINUOUS
 10
746.6248260591
 20
43.120294664
 40
4.0
100
AcDbArc
 50
90.0
 51
180.0
  0
ARC
  5
4D9
100
AcDbEntity
  8
0
100
AcDbCircle
 62
7
  6
CONTINUOUS
 10
960.6248260591
 20
43.120294664
 40
4.0
100
AcDbArc
 50
0.0
 51
90.0
  0
ARC
  5
4DA
100
AcDbEntity
  8
0
100
AcDbCircle
 62
3
  6
CONTINUOUS
 10
734.6248260591
 20
31.120294664
 40
4.0
100
AcDbArc
 50
270.0
 51
360.0
  0
ARC
  5
4DB
100
AcDbEntity
  8
0
100
AcDbCircle
 62
3
  6
CONTINUOUS
 10
972.6248260591
 20
31.120294664
 40
4.0
100
AcDbArc
 50
180.0
 51
270.0
  0
ARC
  5
4DC
100
AcDbEntity
  8
0
100
AcDbCircle
 62
9
  6
CONTINUOUS
 10
1131.6354799678
 20
-7734.8844192068
 40
7925.7788134199
100
AcDbArc
 50
90.1436292879
 51
90.3730976105
  0
ARC
  5
4DD
100
AcDbEntity
  8
0
100
AcDbCircle
 62
7
  6
CONTINUOUS
 10
1049.6255485597
 20
96.1203523012
 40
3.0007225011
100
AcDbArc
 50
180.0011005244
 51
189.001436173
  0
ARC
  5
4DE
100
AcDbEntity
  8
0
100
AcDbCircle
 62
7
  6
CONTINUOUS
 10
1032.6248260591
 20
86.120294664
 40
3.0
100
AcDbArc
 50
250.5287793655
 51
270.0
  0
ARC
  5
4DF
100
AcDbEntity
  8
0
100
AcDbCircle
 62
7
  6
CONTINUOUS
 10
1049.6248254675
 20
96.1202940724
 40
2.9999994084
100
AcDbArc
 50
179.9999887013
 51
270.0000112987
  0
ARC
  5
4E0
100
AcDbEntity
  8
0
100
AcDbCircle
 62
7
  6
CONTINUOUS
 10
1044.6248260591
 20
85.120294664
 40
2.0
100
AcDbArc
 50
270.0
 51
360.0
  0
ARC
  5
4E1
100
AcDbEntity
  8
0
100
AcDbCircle
 62
7
  6
CONTINUOUS
 10
1149.1248260591
 20
46.120294664
 40
20.0
100
AcDbArc
 50
179.9999999156
 51
270.0
  0
ARC
  5
4E2
100
AcDbEntity
  8
0
100
AcDbCircle
 62
7
  6
CONTINUOUS
 10
1119.6248260591
 20
50.120294664
 40
2.0
100
AcDbArc
 50
180.0
 51
270.0
  0
ARC
  5
4E3
100
AcDbEntity
  8
0
100
AcDbCircle
 62
9
  6
CONTINUOUS
 10
1106.5638810531
 20
107.0887166132
 40
8.0609450063
100
AcDbArc
 50
0.0004605273
 51
3.748799154
  0
ARC
  5
4E4
100
AcDbEntity
  8
0
100
AcDbCircle
 62
9
  6
CONTINUOUS
 10
1106.5666332456
 20
107.0888253971
 40
8.0581915904
100
AcDbArc
 50
3.749306778
 51
4.5876920569
  0
ARC
  5
4E5
100
AcDbEntity
  8
0
100
AcDbCircle
 62
9
  6
CONTINUOUS
 10
1104.6500508505
 20
104.878605683
 40
8.0075042218
100
AcDbArc
 50
47.614387124
 51
49.5483357646
  0
ARC
  5
4E6
100
AcDbEntity
  8
0
100
AcDbCircle
 62
9
  6
CONTINUOUS
 10
1106.6400908187
 20
107.1506985997
 40
7.9597210103
100
AcDbArc
 50
47.9552407641
 51
49.9000778349
  0
ARC
  5
4E7
100
AcDbEntity
  8
0
100
AcDbCircle
 62
7
  6
CONTINUOUS
 10
1111.6248260039
 20
96.1202947157
 40
3.0000000693
100
AcDbArc
 50
270.0000004485
 51
359.9999919412
  0
ARC
  5
4E8
100
AcDbEntity
  8
0
100
AcDbCircle
 62
7
  6
CONTINUOUS
 10
1113.6248260591
 20
79.120294664
 40
4.0
100
AcDbArc
 50
0.0
 51
90.0
  0
ARC
  5
4E9
100
AcDbEntity
  8
0
100
AcDbCircle
 62
9
  6
CONTINUOUS
 10
1120.471303905
 20
106.6364407746
 40
8.8464778462
100
AcDbArc
 50
178.1480263931
 51
180.0004700902
  0
ARC
  5
4EA
100
AcDbEntity
  8
0
100
AcDbCircle
 62
7
  6
CONTINUOUS
 10
1113.6248260591
 20
94.2473113178
 40
4.0
100
AcDbArc
 50
0.0
 51
51.3179876763
  0
ARC
  5
4EB
100
AcDbEntity
  8
0
100
AcDbCircle
 62
7
  6
CONTINUOUS
 10
1118.6247751518
 20
100.492284861
 40
3.9999490926
100
AcDbArc
 50
180.0
 51
231.3179876942
  0
ARC
  5
4EC
100
AcDbEntity
  8
0
100
AcDbCircle
 62
9
  6
CONTINUOUS
 10
1085.3874099506
 20
145.9480826874
 40
10.5581979605
100
AcDbArc
 50
227.2368936971
 51
228.6664716416
  0
ARC
  5
4ED
100
AcDbEntity
  8
0
100
AcDbCircle
 62
9
  6
CONTINUOUS
 10
1049.6248260591
 20
175.120294664
 40
5.0
100
AcDbArc
 50
90.0
 51
180.0
  0
ARC
  5
4EE
100
AcDbEntity
  8
0
100
AcDbCircle
 62
7
  6
CONTINUOUS
 10
1049.6248260591
 20
175.120294664
 40
3.0
100
AcDbArc
 50
90.0
 51
180.0
  0
ARC
  5
4EF
100
AcDbEntity
  8
0
100
AcDbCircle
 62
7
  6
CONTINUOUS
 10
1111.6248260591
 20
175.120294664
 40
3.0
100
AcDbArc
 50
0.0
 51
90.0
  0
ARC
  5
4F0
100
AcDbEntity
  8
0
100
AcDbCircle
 62
7
  6
CONTINUOUS
 10
1114.6248260591
 20
175.120294664
 40
3.0
100
AcDbArc
 50
0.0
 51
90.0
  0
ARC
  5
4F1
100
AcDbEntity
  8
0
100
AcDbCircle
 62
9
  6
CONTINUOUS
 10
1114.2336094411
 20
176.8628485991
 40
1.2591502095
100
AcDbArc
 50
73.0336775364
 51
74.2489304771
  0
ARC
  5
4F2
100
AcDbEntity
  8
0
100
AcDbCircle
 62
9
  6
CONTINUOUS
 10
1310.6237843706
 20
64.7421073177
 40
28.5010481328
100
AcDbArc
 50
357.1518880587
 51
359.961470199
  0
ARC
  5
4F3
100
AcDbEntity
  8
0
100
AcDbCircle
 62
7
  6
CONTINUOUS
 10
1319.1248260591
 20
46.120294664
 40
20.0
100
AcDbArc
 50
270.0
 51
314.9089822191
  0
ARC
  5
4F4
100
AcDbEntity
  8
0
100
AcDbCircle
 62
9
  6
CONTINUOUS
 10
1324.3362053076
 20
64.3795235706
 40
18.7886266708
100
AcDbArc
 50
356.1571100879
 51
359.9545193287
  0
ARC
  5
4F5
100
AcDbEntity
  8
0
100
AcDbCircle
 62
7
  6
CONTINUOUS
 10
1246.1248260591
 20
38.120294664
 40
3.0
100
AcDbArc
 50
0.0
 51
90.0
  0
ARC
  5
4F6
100
AcDbEntity
  8
0
100
AcDbCircle
 62
7
  6
CONTINUOUS
 10
1343.1248260591
 20
124.120294664
 40
4.0
100
AcDbArc
 50
90.0
 51
180.0
  0
ARC
  5
4F7
100
AcDbEntity
  8
0
100
AcDbCircle
 62
7
  6
CONTINUOUS
 10
633.6248260591
 20
284.8360463889
 40
20.0
100
AcDbArc
 50
135.000005865
 51
180.000000203
  0
ARC
  5
4F8
100
AcDbEntity
  8
0
100
AcDbCircle
 62
7
  6
CONTINUOUS
 10
641.9090726916
 20
293.120294664
 40
20.0
100
AcDbArc
 50
90.0
 51
135.0000056357
  0
ARC
  5
4F9
100
AcDbEntity
  8
0
100
AcDbCircle
 62
9
  6
CONTINUOUS
 10
1049.6248260591
 20
191.120294664
 40
5.0
100
AcDbArc
 50
180.0
 51
270.0
  0
ARC
  5
4FA
100
AcDbEntity
  8
0
100
AcDbCircle
 62
7
  6
CONTINUOUS
 10
1049.6248260591
 20
191.120294664
 40
3.0
100
AcDbArc
 50
180.0
 51
270.0
  0
ARC
  5
4FB
100
AcDbEntity
  8
0
100
AcDbCircle
 62
7
  6
CONTINUOUS
 10
1049.6255441638
 20
270.1202388927
 40
3.0007181052
100
AcDbArc
 50
170.9985765913
 51
179.9989351026
  0
ARC
  5
4FC
100
AcDbEntity
  8
0
100
AcDbCircle
 62
7
  6
CONTINUOUS
 10
1032.6248260591
 20
280.120294664
 40
3.0
100
AcDbArc
 50
90.0
 51
109.4712206345
  0
ARC
  5
4FD
100
AcDbEntity
  8
0
100
AcDbCircle
 62
7
  6
CONTINUOUS
 10
1049.6248259291
 20
270.1202947939
 40
2.99999987
100
AcDbArc
 50
89.9999975178
 51
180.0000024822
  0
ARC
  5
4FE
100
AcDbEntity
  8
0
100
AcDbCircle
 62
7
  6
CONTINUOUS
 10
1049.6246871737
 20
270.1216261351
 40
2.9986621882
100
AcDbArc
 50
93.9123904454
 51
99.5825752564
  0
ARC
  5
4FF
100
AcDbEntity
  8
0
100
AcDbCircle
 62
7
  6
CONTINUOUS
 10
1044.6248260591
 20
281.120294664
 40
2.0
100
AcDbArc
 50
0.0
 51
90.0
  0
ARC
  5
500
100
AcDbEntity
  8
0
100
AcDbCircle
 62
9
  6
CONTINUOUS
 10
1085.3820421586
 20
220.2984767621
 40
10.5501700183
100
AcDbArc
 50
131.333052395
 51
132.7636975953
  0
ARC
  5
501
100
AcDbEntity
  8
0
100
AcDbCircle
 62
7
  6
CONTINUOUS
 10
1114.6248260591
 20
191.120294664
 40
3.0
100
AcDbArc
 50
270.0
 51
360.0
  0
ARC
  5
502
100
AcDbEntity
  8
0
100
AcDbCircle
 62
7
  6
CONTINUOUS
 10
1111.6248260591
 20
191.120294664
 40
3.0
100
AcDbArc
 50
270.0
 51
360.0
  0
ARC
  5
503
100
AcDbEntity
  8
0
100
AcDbCircle
 62
9
  6
CONTINUOUS
 10
1114.2336094406
 20
189.3777407304
 40
1.2591502112
100
AcDbArc
 50
285.751069903
 51
286.9663224514
  0
ARC
  5
504
100
AcDbEntity
  8
0
100
AcDbCircle
 62
9
  6
CONTINUOUS
 10
1120.4569426019
 20
259.6039164916
 40
8.832116548
100
AcDbArc
 50
179.9980237126
 51
181.8534798042
  0
ARC
  5
505
100
AcDbEntity
  8
0
100
AcDbCircle
 62
9
  6
CONTINUOUS
 10
1106.564044529
 20
259.1518677288
 40
8.0607815303
100
AcDbArc
 50
356.2516062747
 51
359.9995749031
  0
ARC
  5
506
100
AcDbEntity
  8
0
100
AcDbCircle
 62
9
  6
CONTINUOUS
 10
1106.5666460143
 20
259.151761753
 40
8.0581786823
100
AcDbArc
 50
355.4184332808
 51
356.2511489182
  0
ARC
  5
507
100
AcDbEntity
  8
0
100
AcDbCircle
 62
9
  6
CONTINUOUS
 10
1104.6500396248
 20
261.3619963741
 40
8.0075211914
100
AcDbArc
 50
310.4516660215
 51
312.3856108056
  0
ARC
  5
508
100
AcDbEntity
  8
0
100
AcDbCircle
 62
9
  6
CONTINUOUS
 10
1106.6400918958
 20
259.0898894923
 40
7.9597193712
100
AcDbArc
 50
310.0999219651
 51
312.0447594365
  0
ARC
  5
509
100
AcDbEntity
  8
0
100
AcDbCircle
 62
7
  6
CONTINUOUS
 10
1113.6248260591
 20
271.9932780102
 40
4.0
100
AcDbArc
 50
308.6821874282
 51
360.0
  0
ARC
  5
50A
100
AcDbEntity
  8
0
100
AcDbCircle
 62
7
  6
CONTINUOUS
 10
1113.6248260591
 20
287.120294664
 40
4.0
100
AcDbArc
 50
270.0
 51
360.0
  0
ARC
  5
50B
100
AcDbEntity
  8
0
100
AcDbCircle
 62
7
  6
CONTINUOUS
 10
1118.6247751518
 20
265.7483044669
 40
3.9999490926
100
AcDbArc
 50
128.6820123237
 51
180.0
  0
ARC
  5
50C
100
AcDbEntity
  8
0
100
AcDbCircle
 62
7
  6
CONTINUOUS
 10
1111.6248295565
 20
270.1202952624
 40
2.9999965026
100
AcDbArc
 50
359.9999885716
 51
89.9999993565
  0
ARC
  5
50D
100
AcDbEntity
  8
0
100
AcDbCircle
 62
7
  6
CONTINUOUS
 10
1149.1248260591
 20
373.120294664
 40
20.0
100
AcDbArc
 50
89.9878940521
 51
180.0
  0
ARC
  5
50E
100
AcDbEntity
  8
0
100
AcDbCircle
 62
7
  6
CONTINUOUS
 10
1131.1248260591
 20
418.120294664
 40
2.0
100
AcDbArc
 50
90.0
 51
180.0
  0
ARC
  5
50F
100
AcDbEntity
  8
0
100
AcDbCircle
 62
7
  6
CONTINUOUS
 10
1136.1248260591
 20
422.120294664
 40
2.0
100
AcDbArc
 50
270.0
 51
360.0
  0
ARC
  5
510
100
AcDbEntity
  8
0
100
AcDbCircle
 62
7
  6
CONTINUOUS
 10
1119.6248260591
 20
316.120294664
 40
2.0
100
AcDbArc
 50
90.0
 51
180.0
  0
ARC
  5
511
100
AcDbEntity
  8
0
100
AcDbCircle
 62
7
  6
CONTINUOUS
 10
1343.1248260591
 20
252.120294664
 40
4.0
100
AcDbArc
 50
180.0
 51
270.0
  0
ARC
  5
512
100
AcDbEntity
  8
0
100
AcDbCircle
 62
7
  6
CONTINUOUS
 10
1360.1248260591
 20
275.120294664
 40
2.0
100
AcDbArc
 50
270.0
 51
360.0
  0
ARC
  5
513
100
AcDbEntity
  8
0
100
AcDbCircle
 62
7
  6
CONTINUOUS
 10
1364.1248260591
 20
280.120294664
 40
2.0
100
AcDbArc
 50
90.0
 51
180.0
  0
ARC
  5
514
100
AcDbEntity
  8
0
100
AcDbCircle
 62
7
  6
CONTINUOUS
 10
1247.1248260591
 20
418.120294664
 40
2.0
100
AcDbArc
 50
0.0
 51
90.0
  0
ARC
  5
515
100
AcDbEntity
  8
0
100
AcDbCircle
 62
7
  6
CONTINUOUS
 10
1242.1248260591
 20
422.120294664
 40
2.0
100
AcDbArc
 50
180.0
 51
270.0
  0
ARC
  5
516
100
AcDbEntity
  8
0
100
AcDbCircle
 62
7
  6
CONTINUOUS
 10
1360.1248260591
 20
391.120294664
 40
2.0
100
AcDbArc
 50
0.0
 51
90.0
  0
ARC
  5
517
100
AcDbEntity
  8
0
100
AcDbCircle
 62
7
  6
CONTINUOUS
 10
1364.1248260591
 20
386.120294664
 40
2.0
100
AcDbArc
 50
180.0
 51
270.0
  0
ARC
  5
518
100
AcDbEntity
  8
0
100
AcDbCircle
 62
9
  6
CONTINUOUS
 10
1131.6354799606
 20
8101.1250069501
 40
7925.7788118352
100
AcDbArc
 50
269.6269023894
 51
269.8563707121
  0
ARC
  5
519
100
AcDbEntity
  8
0
100
AcDbCircle
 62
9
  6
CONTINUOUS
 10
3804.9345592952
 20
-2914.5472274974
 40
4157.7054534102
100
AcDbArc
 50
130.3724238013
 51
130.9435448796
  0
ARC
  5
51A
100
AcDbEntity
  8
0
100
AcDbCircle
 62
9
  6
CONTINUOUS
 10
3804.9345539791
 20
3280.7878106353
 40
4157.7054452508
100
AcDbArc
 50
229.0564551198
 51
229.6275761992
  0
ARC
  5
51B
100
AcDbEntity
  8
0
100
AcDbCircle
 62
7
  6
CONTINUOUS
 10
184.0355478411
 20
183.120294664
 40
157.0
100
AcDbArc
 50
180.0
 51
360.0
  0
ARC
  5
51C
100
AcDbEntity
  8
0
100
AcDbCircle
 62
9
  6
CONTINUOUS
 10
184.0355478411
 20
183.120294664
 40
137.0
100
AcDbArc
 50
300.2068978894
 51
360.0
  0
ARC
  5
51D
100
AcDbEntity
  8
0
100
AcDbCircle
 62
9
  6
CONTINUOUS
 10
184.0355478411
 20
183.120294664
 40
137.0
100
AcDbArc
 50
180.0
 51
239.7931046338
  0
ARC
  5
51E
100
AcDbEntity
  8
0
100
AcDbCircle
 62
9
  6
CONTINUOUS
 10
119.0355478411
 20
223.120294664
 40
29.0
100
AcDbArc
 50
90.0
 51
180.0
  0
ARC
  5
51F
100
AcDbEntity
  8
0
100
AcDbCircle
 62
9
  6
CONTINUOUS
 10
119.0355478411
 20
153.120294664
 40
29.0
100
AcDbArc
 50
180.0
 51
270.0
  0
ARC
  5
520
100
AcDbEntity
  8
02___PRT_ALL_AXES
100
AcDbCircle
 62
7
  6
CONTINUOUS
 10
119.0355478411
 20
153.120294664
 40
25.0
100
AcDbArc
 50
180.0
 51
270.0
  0
ARC
  5
521
100
AcDbEntity
  8
02___PRT_ALL_AXES
100
AcDbCircle
 62
7
  6
CONTINUOUS
 10
119.0355478411
 20
223.120294664
 40
25.0
100
AcDbArc
 50
90.0
 51
180.0
  0
ARC
  5
522
100
AcDbEntity
  8
0
100
AcDbCircle
 62
9
  6
CONTINUOUS
 10
129.51809012
 20
64.5004920293
 40
14.4122409723
100
AcDbArc
 50
179.1156196457
 51
184.6746326878
  0
ARC
  5
523
100
AcDbEntity
  8
0
100
AcDbCircle
 62
7
  6
CONTINUOUS
 10
26.0355478411
 20
38.120294664
 40
3.0
100
AcDbArc
 50
90.0
 51
180.0
  0
ARC
  5
524
100
AcDbEntity
  8
0
100
AcDbCircle
 62
7
  6
CONTINUOUS
 10
184.0355478411
 20
243.4391898274
 40
157.0
100
AcDbArc
 50
0.0
 51
69.0096147967
  0
ARC
  5
525
100
AcDbEntity
  8
0
100
AcDbCircle
 62
7
  6
CONTINUOUS
 10
184.0355478411
 20
243.4391898274
 40
157.0
100
AcDbArc
 50
110.9899370951
 51
180.0
  0
ARC
  5
526
100
AcDbEntity
  8
0
100
AcDbCircle
 62
9
  6
CONTINUOUS
 10
184.0355478411
 20
243.4391898274
 40
137.0
100
AcDbArc
 50
0.0
 51
64.0264485215
  0
ARC
  5
527
100
AcDbEntity
  8
0
100
AcDbCircle
 62
9
  6
CONTINUOUS
 10
184.0355478411
 20
243.4391898274
 40
137.0
100
AcDbArc
 50
115.9735514785
 51
180.0
  0
CIRCLE
  5
528
100
AcDbEntity
  8
0
100
AcDbCircle
 62
9
  6
CONTINUOUS
 10
184.0355478411
 20
333.120294664
 40
53.0
  0
CIRCLE
  5
529
100
AcDbEntity
  8
0
100
AcDbCircle
 62
7
  6
CONTINUOUS
 10
184.0355478411
 20
333.120294664
 40
51.0
  0
ARC
  5
52A
100
AcDbEntity
  8
0
100
AcDbCircle
 62
2
  6
CONTINUOUS
 10
184.0355478411
 20
333.120294664
 40
45.5
100
AcDbArc
 50
255.0
 51
195.0
  0
CIRCLE
  5
52B
100
AcDbEntity
  8
02___PRT_ALL_AXES
100
AcDbCircle
 62
7
  6
CONTINUOUS
 10
184.0355478411
 20
333.120294664
 40
44.5
  0
CIRCLE
  5
52C
100
AcDbEntity
  8
02___PRT_ALL_AXES
100
AcDbCircle
 62
7
  6
CONTINUOUS
 10
184.0355478411
 20
333.120294664
 40
42.75
  0
ARC
  5
52D
100
AcDbEntity
  8
0
100
AcDbCircle
 62
9
  6
CONTINUOUS
 10
139.1778891853
 20
379.1224198943
 40
17.9978752043
100
AcDbArc
 50
90.0125908
 51
108.9876692105
  0
ARC
  5
52E
100
AcDbEntity
  8
0
100
AcDbCircle
 62
7
  6
CONTINUOUS
 10
136.0355478411
 20
285.120294664
 40
12.0
100
AcDbArc
 50
180.0
 51
270.0
  0
ARC
  5
52F
100
AcDbEntity
  8
0
100
AcDbCircle
 62
7
  6
CONTINUOUS
 10
136.0355478411
 20
381.120294664
 40
12.0
100
AcDbArc
 50
90.0
 51
180.0
  0
ARC
  5
530
100
AcDbEntity
  8
0
100
AcDbCircle
 62
9
  6
CONTINUOUS
 10
136.0355478411
 20
285.120294664
 40
9.9999999999
100
AcDbArc
 50
180.0
 51
270.0
  0
ARC
  5
531
100
AcDbEntity
  8
0
100
AcDbCircle
 62
9
  6
CONTINUOUS
 10
136.0355478411
 20
381.120294664
 40
9.9999999999
100
AcDbArc
 50
90.0
 51
180.0
  0
ARC
  5
532
100
AcDbEntity
  8
0
100
AcDbCircle
 62
7
  6
CONTINUOUS
 10
75.0357014406
 20
361.9298490649
 40
3.9999485365
100
AcDbArc
 50
337.2744162704
 51
359.9978042171
  0
ARC
  5
533
100
AcDbEntity
  8
0
100
AcDbCircle
 62
7
  6
CONTINUOUS
 10
75.0357014406
 20
361.9298490649
 40
3.9999485365
100
AcDbArc
 50
312.6079998495
 51
336.6631306327
  0
ARC
  5
534
100
AcDbEntity
  8
0
100
AcDbCircle
 62
9
  6
CONTINUOUS
 10
249.0355478411
 20
153.120294664
 40
29.0
100
AcDbArc
 50
270.0
 51
360.0
  0
ARC
  5
535
100
AcDbEntity
  8
0
100
AcDbCircle
 62
9
  6
CONTINUOUS
 10
249.0355478411
 20
223.120294664
 40
29.0
100
AcDbArc
 50
0.0
 51
90.0
  0
ARC
  5
536
100
AcDbEntity
  8
02___PRT_ALL_AXES
100
AcDbCircle
 62
7
  6
CONTINUOUS
 10
249.0355478411
 20
153.120294664
 40
25.0
100
AcDbArc
 50
270.0
 51
360.0
  0
ARC
  5
537
100
AcDbEntity
  8
02___PRT_ALL_AXES
100
AcDbCircle
 62
7
  6
CONTINUOUS
 10
249.0355478411
 20
223.120294664
 40
25.0
100
AcDbArc
 50
0.0
 51
90.0
  0
ARC
  5
538
100
AcDbEntity
  8
0
100
AcDbCircle
 62
9
  6
CONTINUOUS
 10
238.550516454
 20
64.5005743895
 40
14.4147285133
100
AcDbArc
 50
355.3258473465
 51
0.88390032
  0
ARC
  5
539
100
AcDbEntity
  8
0
100
AcDbCircle
 62
7
  6
CONTINUOUS
 10
310.0355478411
 20
38.120294664
 40
3.0
100
AcDbArc
 50
0.0
 51
90.0
  0
ARC
  5
53A
100
AcDbEntity
  8
0
100
AcDbCircle
 62
7
  6
CONTINUOUS
 10
232.0355478411
 20
285.120294664
 40
12.0
100
AcDbArc
 50
270.0
 51
360.0
  0
ARC
  5
53B
100
AcDbEntity
  8
0
100
AcDbCircle
 62
7
  6
CONTINUOUS
 10
232.0355478411
 20
381.120294664
 40
12.0
100
AcDbArc
 50
0.0
 51
90.0
  0
ARC
  5
53C
100
AcDbEntity
  8
0
100
AcDbCircle
 62
9
  6
CONTINUOUS
 10
232.0355478411
 20
381.120294664
 40
9.9999999999
100
AcDbArc
 50
0.0
 51
90.0
  0
ARC
  5
53D
100
AcDbEntity
  8
0
100
AcDbCircle
 62
9
  6
CONTINUOUS
 10
232.0355478411
 20
285.120294664
 40
9.9999999999
100
AcDbArc
 50
270.0
 51
360.0
  0
ARC
  5
53E
100
AcDbEntity
  8
0
100
AcDbCircle
 62
7
  6
CONTINUOUS
 10
213.0354041346
 20
397.120294664
 40
3.9999431807
100
AcDbArc
 50
180.0
 51
270.0020584446
  0
ARC
  5
53F
100
AcDbEntity
  8
0
100
AcDbCircle
 62
7
  6
CONTINUOUS
 10
237.0355478411
 20
422.120294664
 40
2.0
100
AcDbArc
 50
270.0000000003
 51
360.0
  0
ARC
  5
540
100
AcDbEntity
  8
0
100
AcDbCircle
 62
7
  6
CONTINUOUS
 10
343.0355478411
 20
422.120294664
 40
2.0
100
AcDbArc
 50
180.0
 51
269.9999999997
  0
ARC
  5
541
100
AcDbEntity
  8
0
100
AcDbCircle
 62
7
  6
CONTINUOUS
 10
232.0355478411
 20
418.120294664
 40
2.0
100
AcDbArc
 50
90.0
 51
180.0
  0
ARC
  5
542
100
AcDbEntity
  8
0
100
AcDbCircle
 62
7
  6
CONTINUOUS
 10
348.0355478411
 20
418.120294664
 40
2.0
100
AcDbArc
 50
0.0
 51
90.0
  0
ARC
  5
543
100
AcDbEntity
  8
0
100
AcDbCircle
 62
9
  6
CONTINUOUS
 10
-3428.1146746512
 20
-2914.5472213077
 40
4157.7054452512
100
AcDbArc
 50
49.0564551198
 51
49.6275761992
  0
ARC
  5
544
100
AcDbEntity
  8
0
100
AcDbCircle
 62
9
  6
CONTINUOUS
 10
-3428.1146799654
 20
3280.7878168235
 40
4157.7054534077
100
AcDbArc
 50
310.3724238013
 51
310.9435448796
  0
ARC
  5
545
100
AcDbEntity
  8
0
100
AcDbCircle
 62
9
  6
CONTINUOUS
 10
-754.8156006324
 20
-7734.8844176219
 40
7925.7788118349
100
AcDbArc
 50
89.6269023894
 51
89.8563707121
  0
ARC
  5
546
100
AcDbEntity
  8
0
100
AcDbCircle
 62
9
  6
CONTINUOUS
 10
-933.8068613446
 20
64.7420328307
 40
28.4980917813
100
AcDbArc
 50
180.0383840407
 51
182.8482577015
  0
ARC
  5
547
100
AcDbEntity
  8
0
100
AcDbCircle
 62
7
  6
CONTINUOUS
 10
-942.3049467309
 20
46.120294664
 40
20.0
100
AcDbArc
 50
225.0910177809
 51
270.0
  0
ARC
  5
548
100
AcDbEntity
  8
0
100
AcDbCircle
 62
9
  6
CONTINUOUS
 10
-947.5137441975
 20
64.3796112104
 40
18.7912085217
100
AcDbArc
 50
180.0457416426
 51
183.8426289407
  0
ARC
  5
549
100
AcDbEntity
  8
0
100
AcDbCircle
 62
7
  6
CONTINUOUS
 10
-869.3049467309
 20
38.120294664
 40
3.0
100
AcDbArc
 50
90.0
 51
180.0
  0
ARC
  5
54A
100
AcDbEntity
  8
0
100
AcDbCircle
 62
7
  6
CONTINUOUS
 10
-966.3049467309
 20
124.120294664
 40
4.0
100
AcDbArc
 50
0.0
 51
90.0
  0
ARC
  5
54B
100
AcDbEntity
  8
0
100
AcDbCircle
 62
7
  6
CONTINUOUS
 10
-772.3049467309
 20
46.120294664
 40
20.0
100
AcDbArc
 50
270.0
 51
0.0000000844
  0
ARC
  5
54C
100
AcDbEntity
  8
0
100
AcDbCircle
 62
7
  6
CONTINUOUS
 10
-742.8049467309
 20
50.120294664
 40
2.0
100
AcDbArc
 50
270.0
 51
360.0
  0
ARC
  5
54D
100
AcDbEntity
  8
0
100
AcDbCircle
 62
7
  6
CONTINUOUS
 10
-736.8049467309
 20
79.120294664
 40
4.0
100
AcDbArc
 50
90.0
 51
180.0
  0
ARC
  5
54E
100
AcDbEntity
  8
0
100
AcDbCircle
 62
9
  6
CONTINUOUS
 10
-743.6370632742
 20
106.6366728363
 40
8.8321165486
100
AcDbArc
 50
359.9980237126
 51
1.8534798041
  0
ARC
  5
54F
100
AcDbEntity
  8
0
100
AcDbCircle
 62
7
  6
CONTINUOUS
 10
-736.8049467309
 20
94.2473113178
 40
4.0
100
AcDbArc
 50
128.6821874282
 51
180.0
  0
ARC
  5
550
100
AcDbEntity
  8
0
100
AcDbCircle
 62
7
  6
CONTINUOUS
 10
-741.8048958287
 20
100.4922848635
 40
3.9999490979
100
AcDbArc
 50
308.6820123237
 51
360.0
  0
ARC
  5
551
100
AcDbEntity
  8
0
100
AcDbCircle
 62
9
  6
CONTINUOUS
 10
-729.7441652005
 20
107.0887215991
 40
8.0607815306
100
AcDbArc
 50
176.2516062747
 51
179.9995749031
  0
ARC
  5
552
100
AcDbEntity
  8
0
100
AcDbCircle
 62
9
  6
CONTINUOUS
 10
-729.746766686
 20
107.0888275749
 40
8.0581786824
100
AcDbArc
 50
175.4184332808
 51
176.2511489182
  0
ARC
  5
553
100
AcDbEntity
  8
0
100
AcDbCircle
 62
9
  6
CONTINUOUS
 10
-727.8301602965
 20
104.8785929538
 40
8.0075211915
100
AcDbArc
 50
130.4516660215
 51
132.3856108056
  0
ARC
  5
554
100
AcDbEntity
  8
0
100
AcDbCircle
 62
9
  6
CONTINUOUS
 10
-729.8202125682
 20
107.1506998364
 40
7.9597193702
100
AcDbArc
 50
130.099921965
 51
132.0447594366
  0
ARC
  5
555
100
AcDbEntity
  8
0
100
AcDbCircle
 62
7
  6
CONTINUOUS
 10
-734.8049502283
 20
96.1202940656
 40
2.9999965026
100
AcDbArc
 50
179.9999885715
 51
269.9999993565
  0
ARC
  5
556
100
AcDbEntity
  8
0
100
AcDbCircle
 62
7
  6
CONTINUOUS
 10
-672.8056648356
 20
96.1203504352
 40
3.0007181052
100
AcDbArc
 50
350.9985765911
 51
359.9989351026
  0
ARC
  5
557
100
AcDbEntity
  8
0
100
AcDbCircle
 62
7
  6
CONTINUOUS
 10
-655.8049467309
 20
86.120294664
 40
3.0
100
AcDbArc
 50
270.0
 51
289.4712206345
  0
ARC
  5
558
100
AcDbEntity
  8
0
100
AcDbCircle
 62
7
  6
CONTINUOUS
 10
-672.8049466009
 20
96.120294534
 40
2.99999987
100
AcDbArc
 50
269.9999975178
 51
0.0000024822
  0
ARC
  5
559
100
AcDbEntity
  8
0
100
AcDbCircle
 62
7
  6
CONTINUOUS
 10
-672.8048078455
 20
96.1189631928
 40
2.9986621882
100
AcDbArc
 50
273.9123904454
 51
279.5825752563
  0
ARC
  5
55A
100
AcDbEntity
  8
0
100
AcDbCircle
 62
7
  6
CONTINUOUS
 10
-667.8049467309
 20
85.120294664
 40
2.0
100
AcDbArc
 50
180.0
 51
270.0
  0
ARC
  5
55B
100
AcDbEntity
  8
0
100
AcDbCircle
 62
9
  6
CONTINUOUS
 10
-708.5621628307
 20
145.9421125662
 40
10.5501700187
100
AcDbArc
 50
311.3330523951
 51
312.7636975953
  0
ARC
  5
55C
100
AcDbEntity
  8
0
100
AcDbCircle
 62
9
  6
CONTINUOUS
 10
-672.8049467309
 20
175.120294664
 40
5.0
100
AcDbArc
 50
0.0
 51
90.0
  0
ARC
  5
55D
100
AcDbEntity
  8
0
100
AcDbCircle
 62
7
  6
CONTINUOUS
 10
-672.8049467309
 20
175.120294664
 40
3.0
100
AcDbArc
 50
0.0
 51
90.0
  0
ARC
  5
55E
100
AcDbEntity
  8
0
100
AcDbCircle
 62
7
  6
CONTINUOUS
 10
-734.8049467309
 20
175.120294664
 40
3.0
100
AcDbArc
 50
90.0
 51
180.0
  0
ARC
  5
55F
100
AcDbEntity
  8
0
100
AcDbCircle
 62
7
  6
CONTINUOUS
 10
-737.8049467309
 20
175.120294664
 40
3.0
100
AcDbArc
 50
90.0
 51
180.0
  0
ARC
  5
560
100
AcDbEntity
  8
0
100
AcDbCircle
 62
9
  6
CONTINUOUS
 10
-737.4137301122
 20
176.8628485971
 40
1.2591502116
100
AcDbArc
 50
105.7510699031
 51
106.9663224512
  0
ARC
  5
561
100
AcDbEntity
  8
0
100
AcDbCircle
 62
7
  6
CONTINUOUS
 10
-256.8049467309
 20
81.404542939
 40
20.0
100
AcDbArc
 50
315.000005865
 51
0.000000203
  0
ARC
  5
562
100
AcDbEntity
  8
0
100
AcDbCircle
 62
7
  6
CONTINUOUS
 10
-265.0891933633
 20
73.120294664
 40
20.0
100
AcDbArc
 50
270.0
 51
315.0000056357
  0
ARC
  5
563
100
AcDbEntity
  8
0
100
AcDbCircle
 62
7
  6
CONTINUOUS
 10
-357.8049467309
 20
31.120294664
 40
8.0
100
AcDbArc
 50
180.0
 51
270.0
  0
ARC
  5
564
100
AcDbEntity
  8
0
100
AcDbCircle
 62
7
  6
CONTINUOUS
 10
-595.8049467309
 20
31.120294664
 40
8.0
100
AcDbArc
 50
270.0
 51
360.0
  0
ARC
  5
565
100
AcDbEntity
  8
0
100
AcDbCircle
 62
3
  6
CONTINUOUS
 10
-369.8049467309
 20
43.120294664
 40
8.0
100
AcDbArc
 50
0.0
 51
90.0
  0
ARC
  5
566
100
AcDbEntity
  8
0
100
AcDbCircle
 62
3
  6
CONTINUOUS
 10
-583.8049467309
 20
43.120294664
 40
8.0
100
AcDbArc
 50
90.0
 51
180.0
  0
ARC
  5
567
100
AcDbEntity
  8
0
100
AcDbCircle
 62
7
  6
CONTINUOUS
 10
-369.8049467309
 20
43.120294664
 40
4.0
100
AcDbArc
 50
0.0
 51
90.0
  0
ARC
  5
568
100
AcDbEntity
  8
0
100
AcDbCircle
 62
7
  6
CONTINUOUS
 10
-583.8049467309
 20
43.120294664
 40
4.0
100
AcDbArc
 50
90.0
 51
180.0
  0
ARC
  5
569
100
AcDbEntity
  8
0
100
AcDbCircle
 62
3
  6
CONTINUOUS
 10
-357.8049467309
 20
31.120294664
 40
4.0
100
AcDbArc
 50
180.0
 51
270.0
  0
ARC
  5
56A
100
AcDbEntity
  8
0
100
AcDbCircle
 62
3
  6
CONTINUOUS
 10
-595.8049467309
 20
31.120294664
 40
4.0
100
AcDbArc
 50
270.0
 51
360.0
  0
ARC
  5
56B
100
AcDbEntity
  8
0
100
AcDbCircle
 62
7
  6
CONTINUOUS
 10
-966.3049467309
 20
252.120294664
 40
4.0
100
AcDbArc
 50
270.0
 51
360.0
  0
ARC
  5
56C
100
AcDbEntity
  8
0
100
AcDbCircle
 62
7
  6
CONTINUOUS
 10
-983.3049467309
 20
275.120294664
 40
2.0
100
AcDbArc
 50
180.0
 51
270.0
  0
ARC
  5
56D
100
AcDbEntity
  8
0
100
AcDbCircle
 62
7
  6
CONTINUOUS
 10
-987.3049467309
 20
280.120294664
 40
2.0
100
AcDbArc
 50
0.0
 51
90.0
  0
ARC
  5
56E
100
AcDbEntity
  8
0
100
AcDbCircle
 62
7
  6
CONTINUOUS
 10
-870.3049467309
 20
418.120294664
 40
2.0
100
AcDbArc
 50
90.0
 51
180.0
  0
ARC
  5
56F
100
AcDbEntity
  8
0
100
AcDbCircle
 62
7
  6
CONTINUOUS
 10
-865.3049467309
 20
422.120294664
 40
2.0
100
AcDbArc
 50
270.0
 51
360.0
  0
ARC
  5
570
100
AcDbEntity
  8
0
100
AcDbCircle
 62
7
  6
CONTINUOUS
 10
-983.3049467309
 20
391.120294664
 40
2.0
100
AcDbArc
 50
90.0
 51
180.0
  0
ARC
  5
571
100
AcDbEntity
  8
0
100
AcDbCircle
 62
7
  6
CONTINUOUS
 10
-987.3049467309
 20
386.120294664
 40
2.0
100
AcDbArc
 50
270.0
 51
360.0
  0
ARC
  5
572
100
AcDbEntity
  8
0
100
AcDbCircle
 62
9
  6
CONTINUOUS
 10
-708.5675056104
 20
220.2925343721
 40
10.5581606185
100
AcDbArc
 50
47.2368911689
 51
48.6664741698
  0
ARC
  5
573
100
AcDbEntity
  8
0
100
AcDbCircle
 62
7
  6
CONTINUOUS
 10
-737.8049467309
 20
191.120294664
 40
3.0
100
AcDbArc
 50
180.0
 51
270.0
  0
ARC
  5
574
100
AcDbEntity
  8
0
100
AcDbCircle
 62
7
  6
CONTINUOUS
 10
-734.8049467309
 20
191.120294664
 40
3.0
100
AcDbArc
 50
180.0
 51
270.0
  0
ARC
  5
575
100
AcDbEntity
  8
0
100
AcDbCircle
 62
9
  6
CONTINUOUS
 10
-737.4137301129
 20
189.3777407288
 40
1.2591502094
100
AcDbArc
 50
253.0336775364
 51
254.2489304772
  0
ARC
  5
576
100
AcDbEntity
  8
0
100
AcDbCircle
 62
9
  6
CONTINUOUS
 10
-743.6514245767
 20
259.6041485534
 40
8.8464778462
100
AcDbArc
 50
358.1480263931
 51
0.0004700902
  0
ARC
  5
577
100
AcDbEntity
  8
0
100
AcDbCircle
 62
7
  6
CONTINUOUS
 10
-736.8049467309
 20
271.9932780102
 40
4.0
100
AcDbArc
 50
180.0
 51
231.3179876942
  0
ARC
  5
578
100
AcDbEntity
  8
0
100
AcDbCircle
 62
7
  6
CONTINUOUS
 10
-741.8048958235
 20
265.7483044669
 40
3.9999490926
100
AcDbArc
 50
0.0
 51
51.3179876942
  0
ARC
  5
579
100
AcDbEntity
  8
0
100
AcDbCircle
 62
7
  6
CONTINUOUS
 10
-736.8049467309
 20
287.120294664
 40
4.0
100
AcDbArc
 50
180.0
 51
270.0
  0
ARC
  5
57A
100
AcDbEntity
  8
0
100
AcDbCircle
 62
9
  6
CONTINUOUS
 10
-729.7440017513
 20
259.1518727137
 40
8.0609449799
100
AcDbArc
 50
180.0004605196
 51
183.7487991038
  0
ARC
  5
57B
100
AcDbEntity
  8
0
100
AcDbCircle
 62
9
  6
CONTINUOUS
 10
-729.7467538729
 20
259.1517639353
 40
8.0581916351
100
AcDbArc
 50
183.7493067345
 51
184.5876603112
  0
ARC
  5
57C
100
AcDbEntity
  8
0
100
AcDbCircle
 62
9
  6
CONTINUOUS
 10
-727.8301676594
 20
261.3619880236
 40
8.0075100601
100
AcDbArc
 50
227.614387829
 51
229.5483350595
  0
ARC
  5
57D
100
AcDbEntity
  8
0
100
AcDbCircle
 62
9
  6
CONTINUOUS
 10
-729.8202069661
 20
259.0898959197
 40
7.9597278956
100
AcDbArc
 50
227.9552416054
 51
229.9000769937
  0
ARC
  5
57E
100
AcDbEntity
  8
0
100
AcDbCircle
 62
7
  6
CONTINUOUS
 10
-734.8049466757
 20
270.1202946122
 40
3.0000000693
100
AcDbArc
 50
90.0000004485
 51
179.9999919412
  0
ARC
  5
57F
100
AcDbEntity
  8
0
100
AcDbCircle
 62
9
  6
CONTINUOUS
 10
-672.8049467309
 20
191.120294664
 40
5.0
100
AcDbArc
 50
270.0
 51
360.0
  0
ARC
  5
580
100
AcDbEntity
  8
0
100
AcDbCircle
 62
7
  6
CONTINUOUS
 10
-672.8049467309
 20
191.120294664
 40
3.0
100
AcDbArc
 50
270.0
 51
360.0
  0
ARC
  5
581
100
AcDbEntity
  8
0
100
AcDbCircle
 62
7
  6
CONTINUOUS
 10
-672.8134222477
 20
270.1191309706
 40
3.0085530896
100
AcDbArc
 50
8.9991394984
 51
9.5433290824
  0
ARC
  5
582
100
AcDbEntity
  8
0
100
AcDbCircle
 62
7
  6
CONTINUOUS
 10
-672.8056692315
 20
270.1202370268
 40
3.0007225012
100
AcDbArc
 50
0.0011005246
 51
9.0014361727
  0
ARC
  5
583
100
AcDbEntity
  8
0
100
AcDbCircle
 62
7
  6
CONTINUOUS
 10
-672.8050221296
 20
270.1197972584
 40
3.0005013524
100
AcDbArc
 50
80.4122201983
 51
86.0859102689
  0
ARC
  5
584
100
AcDbEntity
  8
0
100
AcDbCircle
 62
7
  6
CONTINUOUS
 10
-655.8049467309
 20
280.120294664
 40
3.0
100
AcDbArc
 50
70.5287793655
 51
90.0
  0
ARC
  5
585
100
AcDbEntity
  8
0
100
AcDbCircle
 62
7
  6
CONTINUOUS
 10
-672.8049461393
 20
270.1202952556
 40
2.9999994084
100
AcDbArc
 50
359.9999887013
 51
90.0000112987
  0
ARC
  5
586
100
AcDbEntity
  8
0
100
AcDbCircle
 62
7
  6
CONTINUOUS
 10
-667.8049467309
 20
281.120294664
 40
2.0
100
AcDbArc
 50
90.0
 51
180.0
  0
ARC
  5
587
100
AcDbEntity
  8
0
100
AcDbCircle
 62
7
  6
CONTINUOUS
 10
-772.3049467309
 20
373.120294664
 40
20.0
100
AcDbArc
 50
0.0
 51
82.7759940652
  0
ARC
  5
588
100
AcDbEntity
  8
0
100
AcDbCircle
 62
7
  6
CONTINUOUS
 10
-754.3049467309
 20
418.120294664
 40
2.0
100
AcDbArc
 50
0.0
 51
90.0
  0
ARC
  5
589
100
AcDbEntity
  8
0
100
AcDbCircle
 62
7
  6
CONTINUOUS
 10
-759.3049467309
 20
422.120294664
 40
2.0
100
AcDbArc
 50
180.0
 51
270.0
  0
ARC
  5
58A
100
AcDbEntity
  8
0
100
AcDbCircle
 62
7
  6
CONTINUOUS
 10
-742.8049467309
 20
316.120294664
 40
2.0
100
AcDbArc
 50
0.0
 51
90.0
  0
ARC
  5
58B
100
AcDbEntity
  8
0
100
AcDbCircle
 62
9
  6
CONTINUOUS
 10
-754.8156006393
 20
8101.1250084797
 40
7925.7788133648
100
AcDbArc
 50
270.1436292879
 51
270.3730976105
  0
ARC
  5
58C
100
AcDbEntity
  8
0
100
AcDbCircle
 62
7
  6
CONTINUOUS
 10
-256.8049467309
 20
284.8360463889
 40
20.0
100
AcDbArc
 50
359.999999797
 51
44.999994135
  0
ARC
  5
58D
100
AcDbEntity
  8
0
100
AcDbCircle
 62
7
  6
CONTINUOUS
 10
-265.0891933633
 20
293.120294664
 40
20.0
100
AcDbArc
 50
44.9999943643
 51
90.0
  0
ARC
  5
58E
100
AcDbEntity
  8
3_ALL_AXES
100
AcDbCircle
 62
7
  6
CONTINUOUS
 10
1698.8581246269
 20
135.2848656183
 40
5.5
100
AcDbArc
 50
172.2140392775
 51
230.4968713939
  0
ARC
  5
58F
100
AcDbEntity
  8
3_ALL_AXES
100
AcDbCircle
 62
7
  6
CONTINUOUS
 10
1698.8581246269
 20
230.9557237096
 40
5.5
100
AcDbArc
 50
129.3846007652
 51
188.403464439
  0
ARC
  5
590
100
AcDbEntity
  8
0
100
AcDbCircle
 62
7
  6
CONTINUOUS
 10
1753.3430661909
 20
378.120294664
 40
15.0
100
AcDbArc
 50
89.9999896628
 51
108.4754718889
  0
ARC
  5
591
100
AcDbEntity
  8
0
100
AcDbCircle
 62
7
  6
CONTINUOUS
 10
1750.3430661909
 20
381.120294664
 40
12.0
100
AcDbArc
 50
90.0
 51
131.4020877403
  0
ARC
  5
592
100
AcDbEntity
  8
0
100
AcDbCircle
 62
7
  6
CONTINUOUS
 10
1769.3432098974
 20
397.120294664
 40
3.9999431807
100
AcDbArc
 50
269.9979415554
 51
360.0
  0
ARC
  5
593
100
AcDbEntity
  8
0
100
AcDbCircle
 62
7
  6
CONTINUOUS
 10
1745.3430661909
 20
422.120294664
 40
2.0
100
AcDbArc
 50
180.0
 51
269.9999999997
  0
ARC
  5
594
100
AcDbEntity
  8
0
100
AcDbCircle
 62
7
  6
CONTINUOUS
 10
1639.3430661909
 20
422.120294664
 40
2.0
100
AcDbArc
 50
270.0000000003
 51
360.0
  0
ARC
  5
595
100
AcDbEntity
  8
0
100
AcDbCircle
 62
7
  6
CONTINUOUS
 10
1750.3430661909
 20
418.120294664
 40
2.0
100
AcDbArc
 50
0.0
 51
90.0
  0
ARC
  5
596
100
AcDbEntity
  8
0
100
AcDbCircle
 62
7
  6
CONTINUOUS
 10
1634.3430661909
 20
418.120294664
 40
2.0
100
AcDbArc
 50
90.0
 51
180.0
  0
ARC
  5
597
100
AcDbEntity
  8
0
100
AcDbCircle
 62
7
  6
CONTINUOUS
 10
1798.3430661909
 20
183.120294664
 40
157.0
100
AcDbArc
 50
311.7627739363
 51
360.0
  0
ARC
  5
598
100
AcDbEntity
  8
0
100
AcDbCircle
 62
7
  6
CONTINUOUS
 10
1798.3430661909
 20
183.120294664
 40
157.0
100
AcDbArc
 50
180.0
 51
228.2372260637
  0
ARC
  5
599
100
AcDbEntity
  8
0
100
AcDbCircle
 62
9
  6
CONTINUOUS
 10
1798.3430661909
 20
183.120294664
 40
136.9999998838
100
AcDbArc
 50
180.0
 51
238.6666095043
  0
ARC
  5
59A
100
AcDbEntity
  8
0
100
AcDbCircle
 62
7
  6
CONTINUOUS
 10
1814.3430661909
 20
183.120294664
 40
135.0
100
AcDbArc
 50
121.2455795379
 51
240.133964357
  0
ARC
  5
59B
100
AcDbEntity
  8
0
100
AcDbCircle
 62
7
  6
CONTINUOUS
 10
1814.3430661909
 20
183.120294664
 40
135.0
100
AcDbArc
 50
299.866035643
 51
58.7544204621
  0
ARC
  5
59C
100
AcDbEntity
  8
0
100
AcDbCircle
 62
9
  6
CONTINUOUS
 10
1814.3430661909
 20
183.120294664
 40
133.0
100
AcDbArc
 50
121.7616627414
 51
241.6280456692
  0
ARC
  5
59D
100
AcDbEntity
  8
0
100
AcDbCircle
 62
9
  6
CONTINUOUS
 10
1814.3430661909
 20
183.120294664
 40
133.0
100
AcDbArc
 50
298.3719542882
 51
58.2383372421
  0
CIRCLE
  5
59E
100
AcDbEntity
  8
0
100
AcDbCircle
 62
7
  6
CONTINUOUS
 10
1814.3430661909
 20
183.120294664
 40
130.0
  0
CIRCLE
  5
59F
100
AcDbEntity
  8
0
100
AcDbCircle
 62
9
  6
CONTINUOUS
 10
1814.3430661909
 20
183.120294664
 40
124.142132737
  0
CIRCLE
  5
5A0
100
AcDbEntity
  8
0
100
AcDbCircle
 62
9
  6
CONTINUOUS
 10
1814.3430661909
 20
183.120294664
 40
115.8578858013
  0
CIRCLE
  5
5A1
100
AcDbEntity
  8
0
100
AcDbCircle
 62
9
  6
CONTINUOUS
 10
1814.3430661909
 20
183.120294664
 40
101.7157515143
  0
ARC
  5
5A2
100
AcDbEntity
  8
0
100
AcDbCircle
 62
7
  6
CONTINUOUS
 10
1798.3430661909
 20
243.4391898274
 40
157.0
100
AcDbArc
 50
0.0
 51
71.5243775882
  0
ARC
  5
5A3
100
AcDbEntity
  8
0
100
AcDbCircle
 62
7
  6
CONTINUOUS
 10
1798.3430661909
 20
243.4391898274
 40
157.0
100
AcDbArc
 50
154.5727206154
 51
180.0
  0
ARC
  5
5A4
100
AcDbEntity
  8
0
100
AcDbCircle
 62
7
  6
CONTINUOUS
 10
1798.3430661909
 20
243.4391898274
 40
157.0
100
AcDbArc
 50
108.4756224134
 51
116.5633797612
  0
ARC
  5
5A5
100
AcDbEntity
  8
0
100
AcDbCircle
 62
7
  6
CONTINUOUS
 10
1798.3430661909
 20
243.4391898274
 40
156.843134833
100
AcDbArc
 50
120.033089899
 51
148.3390349033
  0
ARC
  5
5A6
100
AcDbEntity
  8
0
100
AcDbCircle
 62
9
  6
CONTINUOUS
 10
1798.3430661909
 20
243.4391898274
 40
137.0
100
AcDbArc
 50
108.8127102885
 51
180.0
  0
ARC
  5
5A7
100
AcDbEntity
  8
0
100
AcDbCircle
 62
9
  6
CONTINUOUS
 10
1798.3430661909
 20
243.4391898274
 40
137.0
100
AcDbArc
 50
0.0
 51
51.0818109014
  0
ARC
  5
5A8
100
AcDbEntity
  8
0
100
AcDbCircle
 62
9
  6
CONTINUOUS
 10
1798.3430661909
 20
243.4391898274
 40
137.0
100
AcDbArc
 50
60.9434271554
 51
71.1872886223
  0
ARC
  5
5A9
100
AcDbEntity
  8
3_ALL_AXES
100
AcDbCircle
 62
7
  6
CONTINUOUS
 10
1929.8280077548
 20
135.2848656183
 40
5.5
100
AcDbArc
 50
309.3846007652
 51
8.4034644597
  0
ARC
  5
5AA
100
AcDbEntity
  8
3_ALL_AXES
100
AcDbCircle
 62
7
  6
CONTINUOUS
 10
1929.8280077548
 20
230.9557237096
 40
5.5
100
AcDbArc
 50
352.2140394306
 51
50.4968713939
  0
ARC
  5
5AB
100
AcDbEntity
  8
0
100
AcDbCircle
 62
9
  6
CONTINUOUS
 10
1843.2007128973
 20
379.1223484889
 40
17.9979466123
100
AcDbArc
 50
71.0123687797
 51
89.9873712097
  0
ARC
  5
5AC
100
AcDbEntity
  8
0
100
AcDbCircle
 62
7
  6
CONTINUOUS
 10
1843.3430661909
 20
378.120294664
 40
15.0
100
AcDbArc
 50
71.5243616861
 51
90.000010339
  0
ARC
  5
5AD
100
AcDbEntity
  8
0
100
AcDbCircle
 62
7
  6
CONTINUOUS
 10
1907.3429125914
 20
361.9298490649
 40
3.9999485365
100
AcDbArc
 50
180.0021957829
 51
202.7269368559
  0
ARC
  5
5AE
100
AcDbEntity
  8
0
100
AcDbCircle
 62
7
  6
CONTINUOUS
 10
1907.3429125914
 20
361.9298490649
 40
3.9999485365
100
AcDbArc
 50
203.3406513891
 51
227.3920001505
  0
ARC
  5
5AF
100
AcDbEntity
  8
0
100
AcDbCircle
 62
7
  6
CONTINUOUS
 10
641.9090726916
 20
-446.6778380934
 40
20.0
100
AcDbArc
 50
224.9999943197
 51
270.0
  0
ARC
  5
5B0
100
AcDbEntity
  8
0
100
AcDbCircle
 62
7
  6
CONTINUOUS
 10
633.6248260591
 20
-438.3935898183
 40
20.0
100
AcDbArc
 50
180.0
 51
224.9999943197
  0
ARC
  5
5B1
100
AcDbEntity
  8
0
100
AcDbCircle
 62
7
  6
CONTINUOUS
 10
1149.1248260591
 20
-457.6778380934
 40
20.0
100
AcDbArc
 50
180.0
 51
270.0
  0
ARC
  5
5B2
100
AcDbEntity
  8
0
100
AcDbCircle
 62
7
  6
CONTINUOUS
 10
1119.6248260591
 20
-469.6778380934
 40
2.0
100
AcDbArc
 50
180.0
 51
270.0
  0
ARC
  5
5B3
100
AcDbEntity
  8
0
100
AcDbCircle
 62
9
  6
CONTINUOUS
 10
1118.6248260591
 20
-419.3058234412
 40
7.0
100
AcDbArc
 50
180.0
 51
231.3178125465
  0
ARC
  5
5B4
100
AcDbEntity
  8
0
100
AcDbCircle
 62
7
  6
CONTINUOUS
 10
1113.6248260591
 20
-425.5508214396
 40
4.0
100
AcDbArc
 50
0.0
 51
51.3178125719
  0
ARC
  5
5B5
100
AcDbEntity
  8
0
100
AcDbCircle
 62
7
  6
CONTINUOUS
 10
1118.6248260591
 20
-419.3058234317
 40
4.0
100
AcDbArc
 50
180.0000000571
 51
231.3178126055
  0
ARC
  5
5B6
100
AcDbEntity
  8
0
100
AcDbCircle
 62
7
  6
CONTINUOUS
 10
1114.6248260591
 20
-439.6778380934
 40
3.0
100
AcDbArc
 50
0.0
 51
90.0
  0
ARC
  5
5B7
100
AcDbEntity
  8
0
100
AcDbCircle
 62
7
  6
CONTINUOUS
 10
1032.6248260591
 20
-433.6778380934
 40
3.0
100
AcDbArc
 50
250.5287793655
 51
270.0
  0
ARC
  5
5B8
100
AcDbEntity
  8
0
100
AcDbCircle
 62
7
  6
CONTINUOUS
 10
1044.6248260591
 20
-434.6778380934
 40
2.0
100
AcDbArc
 50
270.0
 51
360.0
  0
ARC
  5
5B9
100
AcDbEntity
  8
0
100
AcDbCircle
 62
9
  6
CONTINUOUS
 10
1113.6248260591
 20
-425.5508214396
 40
1.0
100
AcDbArc
 50
0.0
 51
51.3178125465
  0
ARC
  5
5BA
100
AcDbEntity
  8
0
100
AcDbCircle
 62
7
  6
CONTINUOUS
 10
1319.1248260591
 20
-457.6778380934
 40
20.0
100
AcDbArc
 50
270.0
 51
360.0
  0
ARC
  5
5BB
100
AcDbEntity
  8
0
100
AcDbCircle
 62
7
  6
CONTINUOUS
 10
1237.1248260591
 20
-469.6778380934
 40
12.0
100
AcDbArc
 50
270.0
 51
317.9289321853
  0
ARC
  5
5BC
100
AcDbEntity
  8
0
100
AcDbCircle
 62
9
  6
CONTINUOUS
 10
1237.1248260591
 20
-469.6778380934
 40
9.0
100
AcDbArc
 50
270.0
 51
296.5842713611
  0
ARC
  5
5BD
100
AcDbEntity
  8
0
100
AcDbCircle
 62
9
  6
CONTINUOUS
 10
1244.5123214908
 20
-361.7593704322
 40
89.3869993703
100
AcDbArc
 50
182.5124864916
 51
185.5673768434
  0
ARC
  5
5BE
100
AcDbEntity
  8
0
100
AcDbCircle
 62
9
  6
CONTINUOUS
 10
1134.175833993
 20
-361.7903406942
 40
88.9475606665
100
AcDbArc
 50
354.4250751275
 51
357.4950615374
  0
ARC
  5
5BF
100
AcDbEntity
  8
0
100
AcDbCircle
 62
9
  6
CONTINUOUS
 10
1106.5912891204
 20
-413.3976256573
 40
8.0335369867
100
AcDbArc
 50
0.0062655027
 51
8.5826575895
  0
ARC
  5
5C0
100
AcDbEntity
  8
0
100
AcDbCircle
 62
9
  6
CONTINUOUS
 10
1106.6116215351
 20
-413.3943291537
 40
8.0129054238
100
AcDbArc
 50
8.5810468988
 51
49.9539524809
  0
ARC
  5
5C1
100
AcDbEntity
  8
0
100
AcDbCircle
 62
9
  6
CONTINUOUS
 10
1074.8812949885
 20
-386.5016277487
 40
7.9859094114
100
AcDbArc
 50
49.9031399537
 51
89.9906217986
  0
ARC
  5
5C2
100
AcDbEntity
  8
0
100
AcDbCircle
 62
9
  6
CONTINUOUS
 10
1049.6248260591
 20
-379.6778380934
 40
5.0
100
AcDbArc
 50
90.0
 51
180.0
  0
ARC
  5
5C3
100
AcDbEntity
  8
0
100
AcDbCircle
 62
7
  6
CONTINUOUS
 10
1113.6248260591
 20
-380.6778380934
 40
4.0
100
AcDbArc
 50
0.0
 51
90.0
  0
ARC
  5
5C4
100
AcDbEntity
  8
0
100
AcDbCircle
 62
7
  6
CONTINUOUS
 10
1343.1248260591
 20
-414.6778380934
 40
4.0
100
AcDbArc
 50
90.0
 51
180.0
  0
ARC
  5
5C5
100
AcDbEntity
  8
0
100
AcDbCircle
 62
7
  6
CONTINUOUS
 10
1049.6248260591
 20
-379.6778380934
 40
3.0
100
AcDbArc
 50
90.0
 51
180.0
  0
ARC
  5
5C6
100
AcDbEntity
  8
0
100
AcDbCircle
 62
9
  6
CONTINUOUS
 10
1117.2800186093
 20
-375.2857878427
 40
2.6692627896
100
AcDbArc
 50
229.5005707199
 51
238.4838985372
  0
ARC
  5
5C7
100
AcDbEntity
  8
0
100
AcDbCircle
 62
9
  6
CONTINUOUS
 10
1117.261678922
 20
-375.3083112715
 40
2.6402252471
100
AcDbArc
 50
228.7788664404
 51
229.4857727438
  0
ARC
  5
5C8
100
AcDbEntity
  8
0
100
AcDbCircle
 62
9
  6
CONTINUOUS
 10
1117.2589299481
 20
-375.3115388951
 40
2.6359860371
100
AcDbArc
 50
221.4000896357
 51
228.777579749
  0
ARC
  5
5C9
100
AcDbEntity
  8
0
100
AcDbCircle
 62
9
  6
CONTINUOUS
 10
1117.2507173167
 20
-375.3191752645
 40
2.6247756459
100
AcDbArc
 50
220.835664331
 51
221.3936065366
  0
ARC
  5
5CA
100
AcDbEntity
  8
0
100
AcDbCircle
 62
7
  6
CONTINUOUS
 10
1364.1248260591
 20
-373.6778380934
 40
2.0
100
AcDbArc
 50
90.0
 51
179.9999999997
  0
ARC
  5
5CB
100
AcDbEntity
  8
0
100
AcDbCircle
 62
7
  6
CONTINUOUS
 10
1360.1248260591
 20
-378.6778380934
 40
2.0
100
AcDbArc
 50
270.0
 51
360.0
  0
ARC
  5
5CC
100
AcDbEntity
  8
0
100
AcDbCircle
 62
9
  6
CONTINUOUS
 10
1115.3555326703
 20
-377.7147258119
 40
0.5674494639
100
AcDbArc
 50
47.7642369317
 51
51.2454361053
  0
ARC
  5
5CD
100
AcDbEntity
  8
0
100
AcDbCircle
 62
7
  6
CONTINUOUS
 10
641.9090726916
 20
-226.6778380934
 40
20.0
100
AcDbArc
 50
90.0
 51
135.0000056803
  0
ARC
  5
5CE
100
AcDbEntity
  8
0
100
AcDbCircle
 62
7
  6
CONTINUOUS
 10
633.6248260591
 20
-234.9620863684
 40
20.0
100
AcDbArc
 50
135.0000056803
 51
180.0
  0
ARC
  5
5CF
100
AcDbEntity
  8
0
100
AcDbCircle
 62
7
  6
CONTINUOUS
 10
1237.1248260591
 20
-262.6778380934
 40
12.0
100
AcDbArc
 50
270.0
 51
360.0
  0
ARC
  5
5D0
100
AcDbEntity
  8
0
100
AcDbCircle
 62
7
  6
CONTINUOUS
 10
1141.1248260591
 20
-262.6778380934
 40
12.0
100
AcDbArc
 50
180.0
 51
270.0
  0
ARC
  5
5D1
100
AcDbEntity
  8
0
100
AcDbCircle
 62
9
  6
CONTINUOUS
 10
1237.1248260591
 20
-262.6778380934
 40
9.9999999999
100
AcDbArc
 50
270.0
 51
360.0
  0
ARC
  5
5D2
100
AcDbEntity
  8
0
100
AcDbCircle
 62
9
  6
CONTINUOUS
 10
1141.1248260591
 20
-262.6778380934
 40
9.9999999999
100
AcDbArc
 50
180.0
 51
270.0
  0
ARC
  5
5D3
100
AcDbEntity
  8
0
100
AcDbCircle
 62
9
  6
CONTINUOUS
 10
1106.5912899975
 20
-259.9580506449
 40
8.0335361096
100
AcDbArc
 50
351.4177941741
 51
359.9937353204
  0
ARC
  5
5D4
100
AcDbEntity
  8
0
100
AcDbCircle
 62
9
  6
CONTINUOUS
 10
1106.611621458
 20
-259.9613469785
 40
8.0129055162
100
AcDbArc
 50
310.0460476901
 51
351.419405842
  0
ARC
  5
5D5
100
AcDbEntity
  8
0
100
AcDbCircle
 62
9
  6
CONTINUOUS
 10
1074.8812950183
 20
-286.8540485192
 40
7.9859094111
100
AcDbArc
 50
270.0093779881
 51
310.096860258
  0
ARC
  5
5D6
100
AcDbEntity
  8
0
100
AcDbCircle
 62
9
  6
CONTINUOUS
 10
1118.6248260591
 20
-254.0498527456
 40
7.0
100
AcDbArc
 50
128.6821874535
 51
180.0
  0
ARC
  5
5D7
100
AcDbEntity
  8
0
100
AcDbCircle
 62
2
  6
CONTINUOUS
 10
1055.1248260591
 20
-336.6778380934
 40
6.6
100
AcDbArc
 50
255.0
 51
195.0
  0
CIRCLE
  5
5D8
100
AcDbEntity
  8
3_ALL_AXES
100
AcDbCircle
 62
7
  6
CONTINUOUS
 10
1055.1248260591
 20
-336.6778380934
 40
5.875
  0
ARC
  5
5D9
100
AcDbEntity
  8
0
100
AcDbCircle
 62
9
  6
CONTINUOUS
 10
1049.6248260591
 20
-293.6778380934
 40
5.0
100
AcDbArc
 50
180.0
 51
270.0
  0
ARC
  5
5DA
100
AcDbEntity
  8
0
100
AcDbCircle
 62
7
  6
CONTINUOUS
 10
1113.6248260591
 20
-292.6778380934
 40
4.0
100
AcDbArc
 50
270.0
 51
360.0
  0
ARC
  5
5DB
100
AcDbEntity
  8
0
100
AcDbCircle
 62
7
  6
CONTINUOUS
 10
1118.6248260591
 20
-254.0498527456
 40
4.0
100
AcDbArc
 50
128.6821874788
 51
180.0000000771
  0
CIRCLE
  5
5DC
100
AcDbEntity
  8
3_ALL_AXES
100
AcDbCircle
 62
7
  6
CONTINUOUS
 10
1055.1248260591
 20
-336.6778380934
 40
3.0
  0
ARC
  5
5DD
100
AcDbEntity
  8
0
100
AcDbCircle
 62
7
  6
CONTINUOUS
 10
1049.6248260591
 20
-293.6778380934
 40
3.0
100
AcDbArc
 50
180.0
 51
270.0
  0
ARC
  5
5DE
100
AcDbEntity
  8
0
100
AcDbCircle
 62
9
  6
CONTINUOUS
 10
1117.2731476131
 20
-298.0637721653
 40
2.6604583961
100
AcDbArc
 50
121.458811303
 51
130.4699096225
  0
ARC
  5
5DF
100
AcDbEntity
  8
0
100
AcDbCircle
 62
9
  6
CONTINUOUS
 10
1117.2554845778
 20
-298.0420500932
 40
2.6324693109
100
AcDbArc
 50
130.4843089498
 51
131.1883229146
  0
ARC
  5
5E0
100
AcDbEntity
  8
0
100
AcDbCircle
 62
9
  6
CONTINUOUS
 10
1117.2534294009
 20
-298.0395790904
 40
2.6292563529
100
AcDbArc
 50
131.1900798185
 51
138.6155755876
  0
ARC
  5
5E1
100
AcDbEntity
  8
0
100
AcDbCircle
 62
9
  6
CONTINUOUS
 10
1117.2459115393
 20
-298.0325794816
 40
2.6189882886
100
AcDbArc
 50
138.6217367009
 51
139.1821758002
  0
ARC
  5
5E2
100
AcDbEntity
  8
0
100
AcDbCircle
 62
7
  6
CONTINUOUS
 10
1364.1248260591
 20
-267.6778380934
 40
2.0
100
AcDbArc
 50
180.0000000003
 51
270.0
  0
ARC
  5
5E3
100
AcDbEntity
  8
0
100
AcDbCircle
 62
7
  6
CONTINUOUS
 10
1360.1248260591
 20
-262.6778380934
 40
2.0
100
AcDbArc
 50
0.0
 51
90.0
  0
ARC
  5
5E4
100
AcDbEntity
  8
0
100
AcDbCircle
 62
9
  6
CONTINUOUS
 10
1115.3600919621
 20
-295.6459308305
 40
0.5607645243
100
AcDbArc
 50
309.0171425934
 51
312.2939938131
  0
ARC
  5
5E5
100
AcDbEntity
  8
0
100
AcDbCircle
 62
7
  6
CONTINUOUS
 10
1113.6248260591
 20
-247.8048547472
 40
4.0
100
AcDbArc
 50
308.6821874535
 51
360.0
  0
ARC
  5
5E6
100
AcDbEntity
  8
0
100
AcDbCircle
 62
7
  6
CONTINUOUS
 10
1114.6248260591
 20
-233.6778380934
 40
3.0
100
AcDbArc
 50
270.0
 51
360.0
  0
ARC
  5
5E7
100
AcDbEntity
  8
0
100
AcDbCircle
 62
7
  6
CONTINUOUS
 10
1032.6248260591
 20
-239.6778380934
 40
3.0
100
AcDbArc
 50
90.0
 51
109.4712206345
  0
ARC
  5
5E8
100
AcDbEntity
  8
0
100
AcDbCircle
 62
7
  6
CONTINUOUS
 10
1044.6248260591
 20
-238.6778380934
 40
2.0
100
AcDbArc
 50
0.0
 51
90.0
  0
ARC
  5
5E9
100
AcDbEntity
  8
0
100
AcDbCircle
 62
9
  6
CONTINUOUS
 10
1113.6248260591
 20
-247.8048547472
 40
1.0
100
AcDbArc
 50
308.6821874535
 51
360.0
  0
ARC
  5
5EA
100
AcDbEntity
  8
0
100
AcDbCircle
 62
7
  6
CONTINUOUS
 10
1141.1248260591
 20
-166.6778380934
 40
12.0
100
AcDbArc
 50
90.0
 51
180.0
  0
ARC
  5
5EB
100
AcDbEntity
  8
0
100
AcDbCircle
 62
9
  6
CONTINUOUS
 10
1141.1248260591
 20
-166.6778380934
 40
9.9999999999
100
AcDbArc
 50
90.0
 51
180.0
  0
ARC
  5
5EC
100
AcDbEntity
  8
0
100
AcDbCircle
 62
7
  6
CONTINUOUS
 10
1119.6248260591
 20
-203.6778380934
 40
2.0
100
AcDbArc
 50
90.0
 51
180.0
  0
CIRCLE
  5
5ED
100
AcDbEntity
  8
0
100
AcDbCircle
 62
9
  6
CONTINUOUS
 10
1189.1248260591
 20
-214.6778380934
 40
53.0
  0
CIRCLE
  5
5EE
100
AcDbEntity
  8
0
100
AcDbCircle
 62
7
  6
CONTINUOUS
 10
1189.1248260591
 20
-214.6778380934
 40
51.0
  0
ARC
  5
5EF
100
AcDbEntity
  8
0
100
AcDbCircle
 62
2
  6
CONTINUOUS
 10
1189.1248260591
 20
-214.6778380934
 40
45.5
100
AcDbArc
 50
255.0
 51
195.0
  0
CIRCLE
  5
5F0
100
AcDbEntity
  8
02___PRT_ALL_AXES
100
AcDbCircle
 62
7
  6
CONTINUOUS
 10
1189.1248260591
 20
-214.6778380934
 40
44.5
  0
CIRCLE
  5
5F1
100
AcDbEntity
  8
02___PRT_ALL_AXES
100
AcDbCircle
 62
7
  6
CONTINUOUS
 10
1189.1248260591
 20
-214.6778380934
 40
42.75
  0
ARC
  5
5F2
100
AcDbEntity
  8
0
100
AcDbCircle
 62
7
  6
CONTINUOUS
 10
1343.1248260591
 20
-226.6778380934
 40
4.0
100
AcDbArc
 50
180.0
 51
270.0
  0
ARC
  5
5F3
100
AcDbEntity
  8
0
100
AcDbCircle
 62
7
  6
CONTINUOUS
 10
1319.1248260591
 20
-183.6778380934
 40
20.0
100
AcDbArc
 50
0.0
 51
90.0
  0
ARC
  5
5F4
100
AcDbEntity
  8
0
100
AcDbCircle
 62
7
  6
CONTINUOUS
 10
1237.1248260591
 20
-166.6778380934
 40
12.0
100
AcDbArc
 50
0.0
 51
90.0
  0
ARC
  5
5F5
100
AcDbEntity
  8
0
100
AcDbCircle
 62
9
  6
CONTINUOUS
 10
1237.1248260591
 20
-166.6778380934
 40
9.9999999999
100
AcDbArc
 50
0.0
 51
90.0
  0
ARC
  5
5F6
100
AcDbEntity
  8
0
100
AcDbCircle
 62
9
  6
CONTINUOUS
 10
8376.4924702575
 20
-8881.073607813
 40
11269.1651634157
100
AcDbArc
 50
130.1398246213
 51
130.3512626273
  0
ARC
  5
5F7
100
AcDbEntity
  8
0
100
AcDbCircle
 62
9
  6
CONTINUOUS
 10
7528.4404136026
 20
-7873.4237234767
 40
9955.1319793543
100
AcDbArc
 50
130.1471621004
 51
130.3865844811
  0
ARC
  5
5F8
100
AcDbEntity
  8
0
100
AcDbCircle
 62
9
  6
CONTINUOUS
 10
8376.4924716241
 20
8207.7179332408
 40
11269.165165531
100
AcDbArc
 50
229.6487373727
 51
229.8601753787
  0
ARC
  5
5F9
100
AcDbEntity
  8
0
100
AcDbCircle
 62
9
  6
CONTINUOUS
 10
7528.4404149515
 20
7200.0680488824
 40
9955.1319814413
100
AcDbArc
 50
229.6134155189
 51
229.8528378996
  0
SPLINE
  5
5FA
100
AcDbEntity
  8
0
100
AcDbSpline
 62
9
  6
CONTINUOUS
 70
0
 71
3
 72
13
 73
9
 74
0
 42
0.0000001
 43
0.0000001
 44
0.0000000001
 40
0.0
 40
0.0
 40
0.0
 40
0.0
 40
0.2962096918
 40
0.564508425
 40
0.685058441
 40
0.7963874635
 40
0.9002904343
 40
1.0
 40
1.0
 40
1.0
 40
1.0
 10
1080.0249009664
 20
190.726355628
 30
0.0
 10
1079.9951255459
 20
190.3796757207
 30
0.0
 10
1079.8636597568
 20
189.7227385117
 30
0.0
 10
1079.5029205346
 20
188.9884220407
 30
0.0
 10
1079.1136372551
 20
188.54398659
 30
0.0
 10
1078.7966769436
 20
188.3037981614
 30
0.0
 10
1078.4540511043
 20
188.1544383926
 30
0.0
 10
1078.2136685573
 20
188.1202948116
 30
0.0
 10
1078.0965401685
 20
188.120294664
 30
0.0
  0
SPLINE
  5
5FB
100
AcDbEntity
  8
0
100
AcDbSpline
 62
9
  6
CONTINUOUS
 70
0
 71
3
 72
11
 73
7
 74
0
 42
0.0000001
 43
0.0000001
 44
0.0000000001
 40
0.0
 40
0.0
 40
0.0
 40
0.0
 40
0.2499922568
 40
0.4999916916
 40
0.7499953028
 40
1.0
 40
1.0
 40
1.0
 40
1.0
 10
1110.0480450792
 20
255.4474437499
 30
0.0
 10
1110.3077788278
 20
255.6942433074
 30
0.0
 10
1110.7757363552
 20
256.2453581094
 30
0.0
 10
1111.2872474752
 20
257.1994895839
 30
0.0
 10
1111.5886705647
 20
258.2392211865
 30
0.0
 10
1111.641048555
 20
258.9601334684
 30
0.0
 10
1111.6294469624
 20
259.3182533107
 30
0.0
  0
SPLINE
  5
5FC
100
AcDbEntity
  8
0
100
AcDbSpline
 62
9
  6
CONTINUOUS
 70
0
 71
3
 72
10
 73
6
 74
0
 42
0.0000001
 43
0.0000001
 44
0.0000000001
 40
0.0
 40
0.0
 40
0.0
 40
0.0
 40
0.2499999497
 40
0.5000000093
 40
1.0
 40
1.0
 40
1.0
 40
1.0
 10
1078.4143412324
 20
228.2204229382
 30
0.0
 10
1081.0171792371
 20
230.4934008732
 30
0.0
 10
1086.2356816357
 20
235.0246770597
 30
0.0
 10
1096.7066844259
 20
244.0478543934
 30
0.0
 10
1104.5862358011
 20
250.7846396814
 30
0.0
 10
1109.845370211
 20
255.2686446092
 30
0.0
  0
SPLINE
  5
5FD
100
AcDbEntity
  8
0
100
AcDbSpline
 62
9
  6
CONTINUOUS
 70
0
 71
3
 72
11
 73
7
 74
0
 42
0.0000001
 43
0.0000001
 44
0.0000000001
 40
0.0
 40
0.0
 40
0.0
 40
0.0
 40
0.249986353
 40
0.4999790986
 40
0.7499828792
 40
1.0
 40
1.0
 40
1.0
 40
1.0
 10
1074.88260212
 20
226.7236202252
 30
0.0
 10
1075.1882078069
 20
226.7236201154
 30
0.0
 10
1075.8010025507
 20
226.7821361455
 30
0.0
 10
1076.6858629543
 20
227.0415748323
 30
0.0
 10
1077.5069119817
 20
227.4610433683
 30
0.0
 10
1077.9943404569
 20
227.8364622269
 30
0.0
 10
1078.2187269742
 20
228.0439917858
 30
0.0
  0
SPLINE
  5
5FE
100
AcDbEntity
  8
0
100
AcDbSpline
 62
9
  6
CONTINUOUS
 70
0
 71
3
 72
15
 73
11
 74
0
 42
0.0000001
 43
0.0000001
 44
0.0000000001
 40
0.0
 40
0.0
 40
0.0
 40
0.0
 40
0.125006382
 40
0.2500346131
 40
0.3750465783
 40
0.5000554918
 40
0.6250754523
 40
0.7500595886
 40
0.875032936
 40
1.0
 40
1.0
 40
1.0
 40
1.0
 10
1049.5759654266
 20
228.305360036
 30
0.0
 10
1049.5427936334
 20
228.2189744626
 30
0.0
 10
1049.4965868631
 20
228.0376271245
 30
0.0
 10
1049.4938849663
 20
227.757431274
 30
0.0
 10
1049.5570989694
 20
227.4845521203
 30
0.0
 10
1049.6801277978
 20
227.2328395318
 30
0.0
 10
1049.860197456
 20
227.0179723772
 30
0.0
 10
1050.0863433483
 20
226.8522340027
 30
0.0
 10
1050.3464504914
 20
226.7475493339
 30
0.0
 10
1050.5323195755
 20
226.723620653
 30
0.0
 10
1050.6248260591
 20
226.7236202252
 30
0.0
  0
SPLINE
  5
5FF
100
AcDbEntity
  8
0
100
AcDbSpline
 62
9
  6
CONTINUOUS
 70
0
 71
3
 72
9
 73
5
 74
0
 42
0.0000001
 43
0.0000001
 44
0.0000000001
 40
0.0
 40
0.0
 40
0.0
 40
0.0
 40
0.4996362299
 40
1.0
 40
1.0
 40
1.0
 40
1.0
 10
1049.6248260591
 20
228.5322974826
 30
0.0
 10
1049.6248265724
 20
228.4934653402
 30
0.0
 10
1049.614789439
 20
228.4155500361
 30
0.0
 10
1049.5898906953
 20
228.341670047
 30
0.0
 10
1049.5759654266
 20
228.305360036
 30
0.0
  0
LINE
  5
600
100
AcDbEntity
  8
0
100
AcDbLine
 62
9
  6
CONTINUOUS
 10
1080.0249029975
 20
225.7359957603
 11
1080.3275009329
 21
225.9990649236
  0
SPLINE
  5
601
100
AcDbEntity
  8
0
100
AcDbSpline
 62
9
  6
CONTINUOUS
 70
0
 71
3
 72
11
 73
7
 74
0
 42
0.0000001
 43
0.0000001
 44
0.0000000001
 40
0.0
 40
0.0
 40
0.0
 40
0.0
 40
0.2518297471
 40
0.5014044018
 40
0.7501893398
 40
1.0
 40
1.0
 40
1.0
 40
1.0
 10
1113.6248260591
 20
91.4266774239
 30
0.0
 10
1113.8909408439
 20
91.5611863296
 30
0.0
 10
1114.3792338016
 20
91.9165445524
 30
0.0
 10
1114.943775978
 20
92.6112632054
 30
0.0
 10
1115.3571866469
 20
93.3999478737
 30
0.0
 10
1115.5462117249
 20
93.9615713344
 30
0.0
 10
1115.6226473489
 20
94.2473113178
 30
0.0
  0
SPLINE
  5
602
100
AcDbEntity
  8
0
100
AcDbSpline
 62
9
  6
CONTINUOUS
 70
0
 71
3
 72
11
 73
7
 74
0
 42
0.0000001
 43
0.0000001
 44
0.0000000001
 40
0.0
 40
0.0
 40
0.0
 40
0.0
 40
0.2498447431
 40
0.4986303534
 40
0.7481823148
 40
1.0
 40
1.0
 40
1.0
 40
1.0
 10
1115.622647496
 20
271.9932780102
 30
0.0
 10
1115.5468072315
 20
272.2793307538
 30
0.0
 10
1115.3587752594
 20
272.841584678
 30
0.0
 10
1114.9459597265
 20
273.6310353945
 30
0.0
 10
1114.3807709466
 20
274.3257616985
 30
0.0
 10
1113.8914001277
 20
274.6801033503
 30
0.0
 10
1113.6248260591
 20
274.8139121437
 30
0.0
  0
SPLINE
  5
603
100
AcDbEntity
  8
0
100
AcDbSpline
 62
9
  6
CONTINUOUS
 70
0
 71
3
 72
26
 73
22
 74
0
 42
0.0000001
 43
0.0000001
 44
0.0000000001
 40
0.0
 40
0.0
 40
0.0
 40
0.0
 40
0.000262404
 40
0.0010504725
 40
0.0023654235
 40
0.0042082119
 40
0.0094803035
 40
0.0168706783
 40
0.0263800533
 40
0.0380059255
 40
0.0517425554
 40
0.0675809665
 40
0.1055109984
 40
0.1516598511
 40
0.20584038
 40
0.2678153495
 40
0.3372984684
 40
0.4139554088
 40
0.5872180932
 40
0.7840043199
 40
1.0
 40
1.0
 40
1.0
 40
1.0
 10
1116.1248165149
 20
268.8707713695
 30
0.0
 10
1116.1246406031
 20
268.8708065594
 30
0.0
 10
1116.1248395641
 20
268.8718530488
 30
0.0
 10
1116.1241928006
 20
268.87310775
 30
0.0
 10
1116.1238578122
 20
268.8759421243
 30
0.0
 10
1116.1226426048
 20
268.8814846993
 30
0.0
 10
1116.1208722341
 20
268.891311689
 30
0.0
 10
1116.1180640893
 20
268.9061739863
 30
0.0
 10
1116.1146069252
 20
268.9253804011
 30
0.0
 10
1116.1104578267
 20
268.9488526148
 30
0.0
 10
1116.1056819092
 20
268.9766142166
 30
0.0
 10
1116.0980396802
 20
269.0221274746
 30
0.0
 10
1116.0871530381
 20
269.089565764
 30
0.0
 10
1116.0727844402
 20
269.1829913308
 30
0.0
 10
1116.0567069919
 20
269.2927835696
 30
0.0
 10
1116.0391972808
 20
269.4184859106
 30
0.0
 10
1116.0205397357
 20
269.5595398919
 30
0.0
 10
1115.993398123
 20
269.7762131472
 30
0.0
 10
1115.9587152732
 20
270.07964701
 30
0.0
 10
1115.9190322436
 20
270.4783505316
 30
0.0
 10
1115.895627764
 20
270.7596009334
 30
0.0
 10
1115.8846931007
 20
270.9068646598
 30
0.0
  0
SPLINE
  5
604
100
AcDbEntity
  8
0
100
AcDbSpline
 62
9
  6
CONTINUOUS
 70
0
 71
3
 72
9
 73
5
 74
0
 42
0.0000001
 43
0.0000001
 44
0.0000000001
 40
0.0
 40
0.0
 40
0.0
 40
0.0
 40
0.2457070417
 40
1.0
 40
1.0
 40
1.0
 40
1.0
 10
1115.8846931007
 20
270.9068646598
 30
0.0
 10
1115.8778981992
 20
270.9983779807
 30
0.0
 10
1115.8366889461
 20
271.3695371271
 30
0.0
 10
1115.7360228888
 20
271.7353905608
 30
0.0
 10
1115.6226474866
 20
271.9932780325
 30
0.0
  0
SPLINE
  5
605
100
AcDbEntity
  8
0
100
AcDbSpline
 62
9
  6
CONTINUOUS
 70
0
 71
3
 72
26
 73
22
 74
0
 42
0.0000001
 43
0.0000001
 44
0.0000000001
 40
0.0
 40
0.0
 40
0.0
 40
0.0
 40
0.2158186368
 40
0.4124940168
 40
0.5857231352
 40
0.6623897961
 40
0.7318971924
 40
0.7939078478
 40
0.8481319189
 40
0.8943283627
 40
0.9323060897
 40
0.9481671377
 40
0.9619249371
 40
0.9735700186
 40
0.9830961566
 40
0.9905003691
 40
0.9957829041
 40
0.9976294971
 40
0.998947234
 40
0.9997370134
 40
1.0
 40
1.0
 40
1.0
 40
1.0
 10
1115.8846929923
 20
95.3337247359
 30
0.0
 10
1115.8960779995
 20
95.4808254294
 30
0.0
 10
1115.9201494751
 20
95.7618050733
 30
0.0
 10
1115.9602834778
 20
96.1602200894
 30
0.0
 10
1115.9949864323
 20
96.4635417857
 30
0.0
 10
1116.0219859542
 20
96.6802217458
 30
0.0
 10
1116.040491822
 20
96.8213363281
 30
0.0
 10
1116.0578145793
 20
96.9471293809
 30
0.0
 10
1116.0736852292
 20
97.0570335051
 30
0.0
 10
1116.0878417464
 20
97.1505825004
 30
0.0
 10
1116.0985491161
 20
97.218127509
 30
0.0
 10
1116.1060563797
 20
97.2637242571
 30
0.0
 10
1116.1107448261
 20
97.2915429519
 30
0.0
 10
1116.1148153027
 20
97.3150674676
 30
0.0
 10
1116.1182042995
 20
97.3343192451
 30
0.0
 10
1116.1209565302
 20
97.3492206218
 30
0.0
 10
1116.1226880773
 20
97.3590717245
 30
0.0
 10
1116.1238800522
 20
97.3646332933
 30
0.0
 10
1116.1242033775
 20
97.3674707312
 30
0.0
 10
1116.1248439588
 20
97.3687386495
 30
0.0
 10
1116.1246410762
 20
97.3697786571
 30
0.0
 10
1116.1248165139
 20
97.3698179592
 30
0.0
  0
SPLINE
  5
606
100
AcDbEntity
  8
0
100
AcDbSpline
 62
9
  6
CONTINUOUS
 70
0
 71
3
 72
9
 73
5
 74
0
 42
0.0000001
 43
0.0000001
 44
0.0000000001
 40
0.0
 40
0.0
 40
0.0
 40
0.0
 40
0.2545525327
 40
1.0
 40
1.0
 40
1.0
 40
1.0
 10
1115.6226473423
 20
94.2473113021
 30
0.0
 10
1115.6612108402
 20
94.3342442436
 30
0.0
 10
1115.7949638846
 20
94.6836124964
 30
0.0
 10
1115.8632027016
 20
95.0560511191
 30
0.0
 10
1115.8846929923
 20
95.3337247359
 30
0.0
  0
LINE
  5
607
100
AcDbEntity
  8
0
100
AcDbLine
 62
9
  6
CONTINUOUS
 10
1080.3275009329
 20
140.2415244044
 11
1080.0249029975
 21
140.5045935794
  0
SPLINE
  5
608
100
AcDbEntity
  8
0
100
AcDbSpline
 62
9
  6
CONTINUOUS
 70
0
 71
3
 72
13
 73
9
 74
0
 42
0.0000001
 43
0.0000001
 44
0.0000000001
 40
0.0
 40
0.0
 40
0.0
 40
0.0
 40
0.1325627091
 40
0.2266627795
 40
0.3419355428
 40
0.4782948565
 40
0.634644537
 40
1.0
 40
1.0
 40
1.0
 40
1.0
 10
1114.6248260591
 20
96.120294664
 30
0.0
 10
1114.6248260591
 20
96.0524673957
 30
0.0
 10
1114.6923483785
 20
95.9426748694
 30
0.0
 10
1114.8207540371
 20
95.8272015068
 30
0.0
 10
1114.9673791588
 20
95.7260572878
 30
0.0
 10
1115.1499724252
 20
95.6249890532
 30
0.0
 10
1115.4555542496
 20
95.4828680398
 30
0.0
 10
1115.7069088944
 20
95.3915069673
 30
0.0
 10
1115.8846929923
 20
95.3337247359
 30
0.0
  0
SPLINE
  5
609
100
AcDbEntity
  8
0
100
AcDbSpline
 62
9
  6
CONTINUOUS
 70
0
 71
3
 72
9
 73
5
 74
0
 42
0.0000001
 43
0.0000001
 44
0.0000000001
 40
0.0
 40
0.0
 40
0.0
 40
0.0
 40
0.5003743843
 40
1.0
 40
1.0
 40
1.0
 40
1.0
 10
1049.5759654266
 20
137.9352292919
 30
0.0
 10
1049.5898999641
 20
137.8989218131
 30
0.0
 10
1049.6147935727
 20
137.8250385001
 30
0.0
 10
1049.6248260442
 20
137.7471232935
 30
0.0
 10
1049.6248260591
 20
137.7082918453
 30
0.0
  0
SPLINE
  5
60A
100
AcDbEntity
  8
0
100
AcDbSpline
 62
9
  6
CONTINUOUS
 70
0
 71
3
 72
15
 73
11
 74
0
 42
0.0000001
 43
0.0000001
 44
0.0000000001
 40
0.0
 40
0.0
 40
0.0
 40
0.0
 40
0.1249672695
 40
0.2499407784
 40
0.374924957
 40
0.4999450458
 40
0.6249539309
 40
0.749965811
 40
0.874993857
 40
1.0
 40
1.0
 40
1.0
 40
1.0
 10
1050.6248260591
 20
139.5169691027
 30
0.0
 10
1050.5323194094
 20
139.5169687082
 30
0.0
 10
1050.3464500444
 20
139.493039854
 30
0.0
 10
1050.0863425377
 20
139.3883550547
 30
0.0
 10
1049.860196754
 20
139.2226161744
 30
0.0
 10
1049.6801259962
 20
139.0077498037
 30
0.0
 10
1049.5570994301
 20
138.7560350609
 30
0.0
 10
1049.4938863153
 20
138.4831591923
 30
0.0
 10
1049.4965723771
 20
138.2029556821
 30
0.0
 10
1049.5428281914
 20
138.0216279531
 30
0.0
 10
1049.5759654266
 20
137.9352292919
 30
0.0
  0
SPLINE
  5
60B
100
AcDbEntity
  8
0
100
AcDbSpline
 62
9
  6
CONTINUOUS
 70
0
 71
3
 72
11
 73
7
 74
0
 42
0.0000001
 43
0.0000001
 44
0.0000000001
 40
0.0
 40
0.0
 40
0.0
 40
0.0
 40
0.2500171156
 40
0.5000209093
 40
0.7500136561
 40
1.0
 40
1.0
 40
1.0
 40
1.0
 10
1078.2187239788
 20
138.1965998867
 30
0.0
 10
1077.9943394745
 20
138.4041311531
 30
0.0
 10
1077.506909699
 20
138.7795480893
 30
0.0
 10
1076.6858609373
 20
139.1990142839
 30
0.0
 10
1075.801001642
 20
139.4584534382
 30
0.0
 10
1075.1882074838
 20
139.5169692083
 30
0.0
 10
1074.88260212
 20
139.5169691027
 30
0.0
  0
SPLINE
  5
60C
100
AcDbEntity
  8
0
100
AcDbSpline
 62
9
  6
CONTINUOUS
 70
0
 71
3
 72
10
 73
6
 74
0
 42
0.0000001
 43
0.0000001
 44
0.0000000001
 40
0.0
 40
0.0
 40
0.0
 40
0.0
 40
0.4999999908
 40
0.7500000501
 40
1.0
 40
1.0
 40
1.0
 40
1.0
 10
1109.8453702368
 20
110.9719446968
 30
0.0
 10
1104.5862360361
 20
115.455949881
 30
0.0
 10
1096.7066843973
 20
122.1927348694
 30
0.0
 10
1086.2356816486
 20
131.2159122691
 30
0.0
 10
1081.0171792267
 20
135.7471884351
 30
0.0
 10
1078.4143412324
 20
138.0201663897
 30
0.0
  0
SPLINE
  5
60D
100
AcDbEntity
  8
0
100
AcDbSpline
 62
9
  6
CONTINUOUS
 70
0
 71
3
 72
13
 73
9
 74
0
 42
0.0000001
 43
0.0000001
 44
0.0000000001
 40
0.0
 40
0.0
 40
0.0
 40
0.0
 40
0.2962097236
 40
0.5645084469
 40
0.6850584478
 40
0.7963874562
 40
0.9002904222
 40
1.0
 40
1.0
 40
1.0
 40
1.0
 10
1080.0249029924
 20
175.5142341138
 30
0.0
 10
1079.9951275286
 20
175.8609142041
 30
0.0
 10
1079.8636615627
 20
176.5178517092
 30
0.0
 10
1079.5029218542
 20
177.2521683712
 30
0.0
 10
1079.1136381164
 20
177.696603704
 30
0.0
 10
1078.7966774759
 20
177.9367919231
 30
0.0
 10
1078.4540513249
 20
178.0861513703
 30
0.0
 10
1078.2136686216
 20
178.1202946645
 30
0.0
 10
1078.0965401685
 20
178.1202946651
 30
0.0
  0
SPLINE
  5
60E
100
AcDbEntity
  8
0
100
AcDbSpline
 62
9
  6
CONTINUOUS
 70
0
 71
3
 72
13
 73
9
 74
0
 42
0.0000001
 43
0.0000001
 44
0.0000000001
 40
0.0
 40
0.0
 40
0.0
 40
0.0
 40
0.2966487467
 40
0.5661206587
 40
0.6869145348
 40
0.7980339789
 40
0.901263824
 40
1.0
 40
1.0
 40
1.0
 40
1.0
 10
1111.767124781
 20
175.3710978807
 30
0.0
 10
1111.7475687849
 20
175.7324699862
 30
0.0
 10
1111.6303783372
 20
176.4205273858
 30
0.0
 10
1111.2754745537
 20
177.195288693
 30
0.0
 10
1110.8817138807
 20
177.6678985001
 30
0.0
 10
1110.5584692453
 20
177.9239381959
 30
0.0
 10
1110.2069282554
 20
178.0836710877
 30
0.0
 10
1109.959218712
 20
178.1202945004
 30
0.0
 10
1109.8387641075
 20
178.120294664
 30
0.0
  0
SPLINE
  5
60F
100
AcDbEntity
  8
0
100
AcDbSpline
 62
9
  6
CONTINUOUS
 70
0
 71
3
 72
13
 73
9
 74
0
 42
0.0000001
 43
0.0000001
 44
0.0000000001
 40
0.0
 40
0.0
 40
0.0
 40
0.0
 40
0.2907347026
 40
0.5612889991
 40
0.6844884193
 40
0.7982183271
 40
0.9028324914
 40
1.0
 40
1.0
 40
1.0
 40
1.0
 10
1116.1248260588
 20
175.120294664
 30
0.0
 10
1116.1248260588
 20
175.4610593535
 30
0.0
 10
1116.0556300948
 20
176.1208876023
 30
0.0
 10
1115.7931801604
 20
176.8889507583
 30
0.0
 10
1115.4834393809
 20
177.3993019894
 30
0.0
 10
1115.2206909205
 20
177.7042535673
 30
0.0
 10
1114.9274456131
 20
177.9338194402
 30
0.0
 10
1114.7099735891
 20
178.0339647177
 30
0.0
 10
1114.6010415018
 20
178.0671961116
 30
0.0
  0
SPLINE
  5
610
100
AcDbEntity
  8
0
100
AcDbSpline
 62
9
  6
CONTINUOUS
 70
0
 71
3
 72
9
 73
5
 74
0
 42
0.0000001
 43
0.0000001
 44
0.0000000001
 40
0.0
 40
0.0
 40
0.0
 40
0.0
 40
0.2529322865
 40
1.0
 40
1.0
 40
1.0
 40
1.0
 10
1114.575416362
 20
178.0747179315
 30
0.0
 10
1114.5486913981
 20
178.0822550697
 30
0.0
 10
1114.4420779154
 20
178.1085479725
 30
0.0
 10
1114.3318408044
 20
178.120294664
 30
0.0
 10
1114.2498260591
 20
178.120294664
 30
0.0
  0
SPLINE
  5
611
100
AcDbEntity
  8
0
100
AcDbSpline
 62
9
  6
CONTINUOUS
 70
0
 71
3
 72
11
 73
7
 74
0
 42
0.0000001
 43
0.0000001
 44
0.0000000001
 40
0.0
 40
0.0
 40
0.0
 40
0.0
 40
0.2500047086
 40
0.5000083309
 40
0.7500077669
 40
1.0
 40
1.0
 40
1.0
 40
1.0
 10
1111.6294469624
 20
106.9223360172
 30
0.0
 10
1111.6410472308
 20
107.2804559438
 30
0.0
 10
1111.5886724187
 20
108.0013682959
 30
0.0
 10
1111.2872482659
 20
109.0411001923
 30
0.0
 10
1110.7757358286
 20
109.9952308
 30
0.0
 10
1110.3077787968
 20
110.5463460008
 30
0.0
 10
1110.0480450792
 20
110.793145578
 30
0.0
  0
SPLINE
  5
612
100
AcDbEntity
  8
0
100
AcDbSpline
 62
9
  6
CONTINUOUS
 70
0
 71
3
 72
13
 73
9
 74
0
 42
0.0000001
 43
0.0000001
 44
0.0000000001
 40
0.0
 40
0.0
 40
0.0
 40
0.0
 40
0.2907347026
 40
0.5612889992
 40
0.6844884193
 40
0.7982183271
 40
0.9028324914
 40
1.0
 40
1.0
 40
1.0
 40
1.0
 10
1116.1248260593
 20
191.120294664
 30
0.0
 10
1116.1248260593
 20
190.7795299744
 30
0.0
 10
1116.0556300946
 20
190.1197017255
 30
0.0
 10
1115.7931801603
 20
189.3516385694
 30
0.0
 10
1115.4834393807
 20
188.8412873383
 30
0.0
 10
1115.2206909203
 20
188.5363357605
 30
0.0
 10
1114.9274456129
 20
188.3067698875
 30
0.0
 10
1114.7099735889
 20
188.2066246101
 30
0.0
 10
1114.6010415015
 20
188.1733932162
 30
0.0
  0
SPLINE
  5
613
100
AcDbEntity
  8
0
100
AcDbSpline
 62
9
  6
CONTINUOUS
 70
0
 71
3
 72
9
 73
5
 74
0
 42
0.0000001
 43
0.0000001
 44
0.0000000001
 40
0.0
 40
0.0
 40
0.0
 40
0.0
 40
0.2529322867
 40
1.0
 40
1.0
 40
1.0
 40
1.0
 10
1114.57541637
 20
188.1658713987
 30
0.0
 10
1114.5486914055
 20
188.1583342601
 30
0.0
 10
1114.4420779203
 20
188.1320413561
 30
0.0
 10
1114.3318408066
 20
188.120294664
 30
0.0
 10
1114.2498260593
 20
188.120294664
 30
0.0
  0
SPLINE
  5
614
100
AcDbEntity
  8
0
100
AcDbSpline
 62
9
  6
CONTINUOUS
 70
0
 71
3
 72
13
 73
9
 74
0
 42
0.0000001
 43
0.0000001
 44
0.0000000001
 40
0.0
 40
0.0
 40
0.0
 40
0.0
 40
0.2966487855
 40
0.5661206922
 40
0.6869145523
 40
0.7980339794
 40
0.9012638156
 40
1.0
 40
1.0
 40
1.0
 40
1.0
 10
1111.7671269355
 20
190.869491167
 30
0.0
 10
1111.7475709042
 20
190.5081188451
 30
0.0
 10
1111.630380281
 20
189.820061086
 30
0.0
 10
1111.275475985
 20
189.0452995145
 30
0.0
 10
1110.8817148138
 20
188.5726897956
 30
0.0
 10
1110.5584698207
 20
188.3166503094
 30
0.0
 10
1110.206928491
 20
188.15691776
 30
0.0
 10
1109.959218779
 20
188.1202946639
 30
0.0
 10
1109.8387641075
 20
188.1202946638
 30
0.0
  0
SPLINE
  5
615
100
AcDbEntity
  8
0
100
AcDbSpline
 62
9
  6
CONTINUOUS
 70
0
 71
3
 72
17
 73
13
 74
0
 42
0.0000001
 43
0.0000001
 44
0.0000000001
 40
0.0
 40
0.0
 40
0.0
 40
0.0
 40
0.069366526
 40
0.1375361153
 40
0.2040343917
 40
0.2689775419
 40
0.3951913977
 40
0.5184692822
 40
0.6400027041
 40
0.7604906685
 40
0.88038269
 40
1.0
 40
1.0
 40
1.0
 40
1.0
 10
1049.6248260591
 20
275.120294664
 30
0.0
 10
1049.4774194488
 20
275.1203021943
 30
0.0
 10
1049.1839698506
 20
275.0836440051
 30
0.0
 10
1048.7747455539
 20
274.9310345913
 30
0.0
 10
1048.411798164
 20
274.7071594981
 30
0.0
 10
1047.9958861719
 20
274.3484147436
 30
0.0
 10
1047.5780277705
 20
273.8195512608
 30
0.0
 10
1047.2057495051
 20
273.1214157711
 30
0.0
 10
1046.9367560998
 20
272.3910711696
 30
0.0
 10
1046.7541846003
 20
271.6425136173
 30
0.0
 10
1046.6480554352
 20
270.8837654502
 30
0.0
 10
1046.6248379932
 20
270.374486177
 30
0.0
 10
1046.6248260591
 20
270.120294664
 30
0.0
  0
SPLINE
  5
616
100
AcDbEntity
  8
0
100
AcDbSpline
 62
9
  6
CONTINUOUS
 70
0
 71
3
 72
15
 73
11
 74
0
 42
0.0000001
 43
0.0000001
 44
0.0000000001
 40
0.0
 40
0.0
 40
0.0
 40
0.0
 40
0.0314452609
 40
0.0566793922
 40
0.0891336618
 40
0.1761052156
 40
0.2919615575
 40
0.43499023
 40
0.6027193643
 40
1.0
 40
1.0
 40
1.0
 40
1.0
 10
1114.4541772304
 20
95.1229121148
 30
0.0
 10
1114.4490247934
 20
95.1082958036
 30
0.0
 10
1114.4612068212
 20
95.0782517407
 30
0.0
 10
1114.4858452349
 20
95.0434045165
 30
0.0
 10
1114.5335590706
 20
94.9894869742
 30
0.0
 10
1114.6198504174
 20
94.9122443746
 30
0.0
 10
1114.7542393511
 20
94.807054649
 30
0.0
 10
1114.925638534
 20
94.6852618285
 30
0.0
 10
1115.2163741
 20
94.4921704865
 30
0.0
 10
1115.4540865253
 20
94.3469365503
 30
0.0
 10
1115.6226473489
 20
94.2473113178
 30
0.0
  0
SPLINE
  5
617
100
AcDbEntity
  8
0
100
AcDbSpline
 62
9
  6
CONTINUOUS
 70
0
 71
3
 72
15
 73
11
 74
0
 42
0.0000001
 43
0.0000001
 44
0.0000000001
 40
0.0
 40
0.0
 40
0.0
 40
0.0
 40
0.1264284906
 40
0.2526386529
 40
0.3784454449
 40
0.503725861
 40
0.6284362689
 40
0.7526238941
 40
0.876414318
 40
1.0
 40
1.0
 40
1.0
 40
1.0
 10
1050.6248260591
 20
142.3919136452
 30
0.0
 10
1050.3631811547
 20
142.3919137676
 30
0.0
 10
1049.8389458695
 20
142.3413810725
 30
0.0
 10
1049.0837670549
 20
142.1168541618
 30
0.0
 10
1048.3876393034
 20
141.7523266343
 30
0.0
 10
1047.7776916519
 20
141.2618712245
 30
0.0
 10
1047.2771882882
 20
140.6644317116
 30
0.0
 10
1046.9053463764
 20
139.9828388527
 30
0.0
 10
1046.6763738369
 20
139.2436473766
 30
0.0
 10
1046.6248269879
 20
138.7302278777
 30
0.0
 10
1046.6248260591
 20
138.4744661914
 30
0.0
  0
SPLINE
  5
618
100
AcDbEntity
  8
0
100
AcDbSpline
 62
9
  6
CONTINUOUS
 70
0
 71
3
 72
17
 73
13
 74
0
 42
0.0000001
 43
0.0000001
 44
0.0000000001
 40
0.0
 40
0.0
 40
0.0
 40
0.0
 40
0.0310016494
 40
0.0572432913
 40
0.0916106178
 40
0.1341244559
 40
0.184564568
 40
0.2425531017
 40
0.3076036255
 40
0.4565145226
 40
0.6258725101
 40
1.0
 40
1.0
 40
1.0
 40
1.0
 10
1046.6248260591
 20
175.120294664
 30
0.0
 10
1046.6248353259
 20
175.1626070709
 30
0.0
 10
1046.6969452463
 20
175.2250190444
 30
0.0
 10
1046.8051105277
 20
175.2766815729
 30
0.0
 10
1046.9395173768
 20
175.324928943
 30
0.0
 10
1047.1067479049
 20
175.3700617858
 30
0.0
 10
1047.3083500726
 20
175.413857048
 30
0.0
 10
1047.5415021528
 20
175.4549492272
 30
0.0
 10
1047.9088947474
 20
175.5082686121
 30
0.0
 10
1048.4293110506
 20
175.5635373221
 30
0.0
 10
1049.3721331006
 20
175.6295452888
 30
0.0
 10
1050.1142004871
 20
175.647772417
 30
0.0
 10
1050.6248260591
 20
175.6477671914
 30
0.0
  0
SPLINE
  5
619
100
AcDbEntity
  8
0
100
AcDbSpline
 62
9
  6
CONTINUOUS
 70
0
 71
3
 72
15
 73
11
 74
0
 42
0.0000001
 43
0.0000001
 44
0.0000000001
 40
0.0
 40
0.0
 40
0.0
 40
0.0
 40
0.1235858319
 40
0.2473764065
 40
0.3715641129
 40
0.4962744733
 40
0.62155484
 40
0.7473615942
 40
0.8735716456
 40
1.0
 40
1.0
 40
1.0
 40
1.0
 10
1046.6248260591
 20
227.7661231365
 30
0.0
 10
1046.6248251569
 20
227.5103611414
 30
0.0
 10
1046.6763747661
 20
226.9969410072
 30
0.0
 10
1046.9053468274
 20
226.2577488834
 30
0.0
 10
1047.2771894711
 20
225.5761558179
 30
0.0
 10
1047.7776932298
 20
224.9787167494
 30
0.0
 10
1048.3876408546
 20
224.4882617626
 30
0.0
 10
1049.0837683789
 20
224.1237347027
 30
0.0
 10
1049.8389466712
 20
223.8992081614
 30
0.0
 10
1050.3631814379
 20
223.8486755657
 30
0.0
 10
1050.6248260591
 20
223.8486756827
 30
0.0
  0
SPLINE
  5
61A
100
AcDbEntity
  8
0
100
AcDbSpline
 62
9
  6
CONTINUOUS
 70
0
 71
3
 72
9
 73
5
 74
0
 42
0.0000001
 43
0.0000001
 44
0.0000000001
 40
0.0
 40
0.0
 40
0.0
 40
0.0
 40
0.4999371973
 40
1.0
 40
1.0
 40
1.0
 40
1.0
 10
1113.6248260591
 20
274.8139121437
 30
0.0
 10
1113.3035216694
 20
274.9196318527
 30
0.0
 10
1112.6408246712
 20
275.0737004055
 30
0.0
 10
1111.9631611974
 20
275.1203190342
 30
0.0
 10
1111.6248260591
 20
275.1203191643
 30
0.0
  0
LINE
  5
61B
100
AcDbEntity
  8
0
100
AcDbLine
 62
9
  6
CONTINUOUS
 10
1111.6248260591
 20
275.1203191643
 11
1049.6248260591
 21
275.120294664
  0
SPLINE
  5
61C
100
AcDbEntity
  8
0
100
AcDbSpline
 62
9
  6
CONTINUOUS
 70
0
 71
3
 72
17
 73
13
 74
0
 42
0.0000001
 43
0.0000001
 44
0.0000000001
 40
0.0
 40
0.0
 40
0.0
 40
0.0
 40
0.3741274899
 40
0.5434854774
 40
0.6923963745
 40
0.7574468983
 40
0.815435432
 40
0.8658755442
 40
0.9083893822
 40
0.9427567087
 40
0.9689983507
 40
1.0
 40
1.0
 40
1.0
 40
1.0
 10
1050.6248260591
 20
190.5928221365
 30
0.0
 10
1050.1142004871
 20
190.5928169109
 30
0.0
 10
1049.3721331006
 20
190.6110440392
 30
0.0
 10
1048.4293110506
 20
190.6770520057
 30
0.0
 10
1047.9088947474
 20
190.732320716
 30
0.0
 10
1047.5415021528
 20
190.7856401006
 30
0.0
 10
1047.3083500725
 20
190.8267322799
 30
0.0
 10
1047.106747905
 20
190.8705275426
 30
0.0
 10
1046.9395173768
 20
190.9156603848
 30
0.0
 10
1046.8051105274
 20
190.9639077544
 30
0.0
 10
1046.6969452467
 20
191.0155702844
 30
0.0
 10
1046.6248353263
 20
191.0779822572
 30
0.0
 10
1046.6248260591
 20
191.120294664
 30
0.0
  0
SPLINE
  5
61D
100
AcDbEntity
  8
0
100
AcDbSpline
 62
9
  6
CONTINUOUS
 70
0
 71
3
 72
19
 73
15
 74
0
 42
0.0000001
 43
0.0000001
 44
0.0000000001
 40
0.0
 40
0.0
 40
0.0
 40
0.0
 40
0.0090305996
 40
0.0159561434
 40
0.0249171024
 40
0.0493289352
 40
0.0825321479
 40
0.1243939994
 40
0.1745789897
 40
0.2980882706
 40
0.4485028555
 40
0.6201073757
 40
0.8063261773
 40
1.0
 40
1.0
 40
1.0
 40
1.0
 10
1112.8008436266
 20
93.3604064994
 30
0.0
 10
1112.8067124813
 20
93.3629072805
 30
0.0
 10
1112.8193940148
 20
93.3588996335
 30
0.0
 10
1112.8327726752
 20
93.3480574907
 30
0.0
 10
1112.852763942
 20
93.3274438586
 30
0.0
 10
1112.8800899705
 20
93.2891075373
 30
0.0
 10
1112.9164700179
 20
93.2289216097
 30
0.0
 10
1112.9581222451
 20
93.1508312552
 30
0.0
 10
1113.0251489218
 20
93.0140787733
 30
0.0
 10
1113.1177027538
 20
92.8045793895
 30
0.0
 10
1113.2362119164
 20
92.5129853986
 30
0.0
 10
1113.3637502046
 20
92.1773384304
 30
0.0
 10
1113.4953556398
 20
91.8106295617
 30
0.0
 10
1113.5817972902
 20
91.5565511826
 30
0.0
 10
1113.6248260591
 20
91.4266774239
 30
0.0
  0
SPLINE
  5
61E
100
AcDbEntity
  8
0
100
AcDbSpline
 62
9
  6
CONTINUOUS
 70
0
 71
3
 72
19
 73
15
 74
0
 42
0.0000001
 43
0.0000001
 44
0.0000000001
 40
0.0
 40
0.0
 40
0.0
 40
0.0
 40
0.0091889145
 40
0.0161570263
 40
0.0251457512
 40
0.0495863898
 40
0.0827986511
 40
0.1246579078
 40
0.1748326683
 40
0.2983065553
 40
0.4486739301
 40
0.6202244766
 40
0.8063855634
 40
1.0
 40
1.0
 40
1.0
 40
1.0
 10
1112.8008435757
 20
272.8801828502
 30
0.0
 10
1112.8068174238
 20
272.8776373304
 30
0.0
 10
1112.8196738208
 20
272.8814661132
 30
0.0
 10
1112.8333230247
 20
272.8922829778
 30
0.0
 10
1112.8535309687
 20
272.9127829578
 30
0.0
 10
1112.881110378
 20
272.9510350833
 30
0.0
 10
1112.9177177332
 20
273.0111371102
 30
0.0
 10
1112.9595543576
 20
273.0891651236
 30
0.0
 10
1113.0267676392
 20
273.2258479311
 30
0.0
 10
1113.1193985648
 20
273.4353345457
 30
0.0
 10
1113.2377920023
 20
273.7269922304
 30
0.0
 10
1113.3650059218
 20
274.062779257
 30
0.0
 10
1113.4960878309
 20
274.4296940618
 30
0.0
 10
1113.5820620654
 20
274.683944331
 30
0.0
 10
1113.6248260591
 20
274.8139121437
 30
0.0
  0
LINE
  5
61F
100
AcDbEntity
  8
0
100
AcDbLine
 62
9
  6
CONTINUOUS
 10
1049.6248260591
 20
91.120294664
 11
1111.6248260591
 21
91.1202701676
  0
SPLINE
  5
620
100
AcDbEntity
  8
0
100
AcDbSpline
 62
9
  6
CONTINUOUS
 70
0
 71
3
 72
9
 73
5
 74
0
 42
0.0000001
 43
0.0000001
 44
0.0000000001
 40
0.0
 40
0.0
 40
0.0
 40
0.0
 40
0.500072959
 40
1.0
 40
1.0
 40
1.0
 40
1.0
 10
1111.6248260591
 20
91.1202701676
 30
0.0
 10
1111.9631821207
 20
91.1202702942
 30
0.0
 10
1112.6408824821
 20
91.1661775267
 30
0.0
 10
1113.3037325372
 20
91.3202961638
 30
0.0
 10
1113.6248260591
 20
91.4266774239
 30
0.0
  0
SPLINE
  5
621
100
AcDbEntity
  8
0
100
AcDbSpline
 62
9
  6
CONTINUOUS
 70
0
 71
3
 72
11
 73
7
 74
0
 42
0.0000001
 43
0.0000001
 44
0.0000000001
 40
0.0
 40
0.0
 40
0.0
 40
0.0
 40
0.2497151642
 40
0.4996562495
 40
0.7497779283
 40
1.0
 40
1.0
 40
1.0
 40
1.0
 10
1080.0249029975
 20
140.5045935794
 30
0.0
 10
1079.6700388306
 20
140.8048865028
 30
0.0
 10
1078.905903118
 20
141.3449791847
 30
0.0
 10
1077.6368187948
 20
141.9425147793
 30
0.0
 10
1076.2819238051
 20
142.3094678668
 30
0.0
 10
1075.3484161027
 20
142.391913416
 30
0.0
 10
1074.88260212
 20
142.3919136452
 30
0.0
  0
SPLINE
  5
622
100
AcDbEntity
  8
0
100
AcDbSpline
 62
9
  6
CONTINUOUS
 70
0
 71
3
 72
15
 73
11
 74
0
 42
0.0000001
 43
0.0000001
 44
0.0000000001
 40
0.0
 40
0.0
 40
0.0
 40
0.0
 40
0.0320784689
 40
0.0574739942
 40
0.0900243171
 40
0.1770538395
 40
0.2928471668
 40
0.4357274718
 40
0.6032469669
 40
1.0
 40
1.0
 40
1.0
 40
1.0
 10
1114.4541772576
 20
271.1176771362
 30
0.0
 10
1114.4489171305
 20
271.1325989411
 30
0.0
 10
1114.4606144911
 20
271.163177984
 30
0.0
 10
1114.4852660473
 20
271.1986908556
 30
0.0
 10
1114.5327288652
 20
271.2530620805
 30
0.0
 10
1114.6189176112
 20
271.3306868445
 30
0.0
 10
1114.7532604762
 20
271.4360008095
 30
0.0
 10
1114.9247348456
 20
271.5576185743
 30
0.0
 10
1115.2157151104
 20
271.750022703
 30
0.0
 10
1115.4537947065
 20
271.8943729616
 30
0.0
 10
1115.622647496
 20
271.9932780102
 30
0.0
  0
SPLINE
  5
623
100
AcDbEntity
  8
0
100
AcDbSpline
 62
9
  6
CONTINUOUS
 70
0
 71
3
 72
9
 73
5
 74
0
 42
0.0000001
 43
0.0000001
 44
0.0000000001
 40
0.0
 40
0.0
 40
0.0
 40
0.0
 40
0.5321958061
 40
1.0
 40
1.0
 40
1.0
 40
1.0
 10
1074.88260212
 20
175.6477671914
 30
0.0
 10
1075.7952362057
 20
175.6477700949
 30
0.0
 10
1077.5101282247
 20
175.6266112983
 30
0.0
 10
1079.2240539588
 20
175.560983288
 30
0.0
 10
1080.0249029975
 20
175.5142341149
 30
0.0
  0
SPLINE
  5
624
100
AcDbEntity
  8
0
100
AcDbSpline
 62
9
  6
CONTINUOUS
 70
0
 71
3
 72
11
 73
7
 74
0
 42
0.0000001
 43
0.0000001
 44
0.0000000001
 40
0.0
 40
0.0
 40
0.0
 40
0.0
 40
0.2502221255
 40
0.5003438214
 40
0.7502849025
 40
1.0
 40
1.0
 40
1.0
 40
1.0
 10
1074.88260212
 20
223.8486756827
 30
0.0
 10
1075.3484162003
 20
223.8486758693
 30
0.0
 10
1076.2819239116
 20
223.9311218018
 30
0.0
 10
1077.6368194888
 20
224.2980741635
 30
0.0
 10
1078.9059020812
 20
224.8956118587
 30
0.0
 10
1079.6700413163
 20
225.435700096
 30
0.0
 10
1080.0249029975
 20
225.7359957603
 30
0.0
  0
SPLINE
  5
625
100
AcDbEntity
  8
0
100
AcDbSpline
 62
9
  6
CONTINUOUS
 70
0
 71
3
 72
9
 73
5
 74
0
 42
0.0000001
 43
0.0000001
 44
0.0000000001
 40
0.0
 40
0.0
 40
0.0
 40
0.0
 40
0.4678041939
 40
1.0
 40
1.0
 40
1.0
 40
1.0
 10
1080.0249029975
 20
190.726355213
 30
0.0
 10
1079.2240539584
 20
190.679606048
 30
0.0
 10
1077.510128225
 20
190.6139780248
 30
0.0
 10
1075.7952362057
 20
190.5928192332
 30
0.0
 10
1074.88260212
 20
190.5928221365
 30
0.0
  0
SPLINE
  5
626
100
AcDbEntity
  8
0
100
AcDbSpline
 62
9
  6
CONTINUOUS
 70
0
 71
3
 72
13
 73
9
 74
0
 42
0.0000001
 43
0.0000001
 44
0.0000000001
 40
0.0
 40
0.0
 40
0.0
 40
0.0
 40
0.1335070145
 40
0.2277281045
 40
0.3429602201
 40
0.4791619811
 40
0.6352712054
 40
1.0
 40
1.0
 40
1.0
 40
1.0
 10
1114.6248260591
 20
270.120294664
 30
0.0
 10
1114.6248260591
 20
270.1886553502
 30
0.0
 10
1114.6919174132
 20
270.299363244
 30
0.0
 10
1114.8206442969
 20
270.4156028944
 30
0.0
 10
1114.9672594774
 20
270.5168876562
 30
0.0
 10
1115.1498777184
 20
270.6177999991
 30
0.0
 10
1115.4554576431
 20
270.7592691061
 30
0.0
 10
1115.7068764414
 20
270.8497797349
 30
0.0
 10
1115.8846931007
 20
270.9068646598
 30
0.0
  0
SPLINE
  5
627
100
AcDbEntity
  8
0
100
AcDbSpline
 62
9
  6
CONTINUOUS
 70
0
 71
3
 72
17
 73
13
 74
0
 42
0.0000001
 43
0.0000001
 44
0.0000000001
 40
0.0
 40
0.0
 40
0.0
 40
0.0
 40
0.1196168409
 40
0.2395081303
 40
0.3599957248
 40
0.4815289086
 40
0.6048071179
 40
0.7310216175
 40
0.795965457
 40
0.8624655729
 40
0.9306353425
 40
1.0
 40
1.0
 40
1.0
 40
1.0
 10
1046.6248260591
 20
96.120294664
 30
0.0
 10
1046.6248373564
 20
95.8661041367
 30
0.0
 10
1046.6480551903
 20
95.3568273518
 30
0.0
 10
1046.7541839207
 20
94.5980825871
 30
0.0
 10
1046.9367520968
 20
93.8495270968
 30
0.0
 10
1047.2057452407
 20
93.1191829835
 30
0.0
 10
1047.5780226202
 20
92.4210452585
 30
0.0
 10
1047.9958823798
 20
91.8921783053
 30
0.0
 10
1048.4117987569
 20
91.5334281687
 30
0.0
 10
1048.7747519965
 20
91.3095511957
 30
0.0
 10
1049.1839774565
 20
91.1569438579
 30
0.0
 10
1049.4774234132
 20
91.1202871343
 30
0.0
 10
1049.6248260591
 20
91.120294664
 30
0.0
  0
SPLINE
  5
628
100
AcDbEntity
  8
0
100
AcDbSpline
 62
9
  6
CONTINUOUS
 70
0
 71
3
 72
18
 73
14
 74
0
 42
0.0000001
 43
0.0000001
 44
0.0000000001
 40
0.0
 40
0.0
 40
0.0
 40
0.0
 40
0.0072017908
 40
0.0131442752
 40
0.0209370462
 40
0.042336297
 40
0.0716396177
 40
0.1539371094
 40
0.267217597
 40
0.4102684702
 40
0.5814528646
 40
0.7788108047
 40
1.0
 40
1.0
 40
1.0
 40
1.0
 10
1114.6248260591
 20
191.120294664
 30
0.0
 10
1114.6248232303
 20
191.1133757644
 30
0.0
 10
1114.6139443684
 20
191.1028416858
 30
0.0
 10
1114.5967779792
 20
191.0937603898
 30
0.0
 10
1114.5651010371
 20
191.0810202607
 30
0.0
 10
1114.5108795939
 20
191.0666261116
 30
0.0
 10
1114.3854374389
 20
191.0415431016
 30
0.0
 10
1114.1711724452
 20
191.0131845036
 30
0.0
 10
1113.8473924361
 20
190.9812183387
 30
0.0
 10
1113.4378037269
 20
190.9503356662
 30
0.0
 10
1112.9471868232
 20
190.9207450071
 30
0.0
 10
1112.3812833102
 20
190.8931312723
 30
0.0
 10
1111.9794890465
 20
190.8771660369
 30
0.0
 10
1111.7671269366
 20
190.8694911668
 30
0.0
  0
SPLINE
  5
629
100
AcDbEntity
  8
0
100
AcDbSpline
 62
9
  6
CONTINUOUS
 70
0
 71
3
 72
11
 73
7
 74
0
 42
0.0000001
 43
0.0000001
 44
0.0000000001
 40
0.0
 40
0.0
 40
0.0
 40
0.0
 40
0.2501037163
 40
0.5001191153
 40
0.7500729848
 40
1.0
 40
1.0
 40
1.0
 40
1.0
 10
1111.9708030899
 20
253.1788277744
 30
0.0
 10
1112.3471353962
 20
253.5180584803
 30
0.0
 10
1113.036852397
 20
254.2699683554
 30
0.0
 10
1113.8387817823
 20
255.5709572239
 30
0.0
 10
1114.3818619857
 20
256.9990808583
 30
0.0
 10
1114.5586332233
 20
258.0034053227
 30
0.0
 10
1114.5990758228
 20
258.5080886622
 30
0.0
  0
SPLINE
  5
62A
100
AcDbEntity
  8
0
100
AcDbSpline
 62
9
  6
CONTINUOUS
 70
0
 71
3
 72
18
 73
14
 74
0
 42
0.0000001
 43
0.0000001
 44
0.0000000001
 40
0.0
 40
0.0
 40
0.0
 40
0.0
 40
0.2211891953
 40
0.4185471354
 40
0.5897315298
 40
0.732782403
 40
0.8460628906
 40
0.9283603823
 40
0.957663703
 40
0.9790629538
 40
0.9868557248
 40
0.9927982091
 40
1.0
 40
1.0
 40
1.0
 40
1.0
 10
1111.7671269366
 20
175.3710981611
 30
0.0
 10
1111.9794890464
 20
175.3634232905
 30
0.0
 10
1112.3812833102
 20
175.3474580562
 30
0.0
 10
1112.9471868232
 20
175.3198443206
 30
0.0
 10
1113.4378037269
 20
175.2902536617
 30
0.0
 10
1113.8473924361
 20
175.2593709893
 30
0.0
 10
1114.1711724452
 20
175.2274048242
 30
0.0
 10
1114.3854374389
 20
175.1990462264
 30
0.0
 10
1114.5108795938
 20
175.1739632163
 30
0.0
 10
1114.5651010371
 20
175.1595690672
 30
0.0
 10
1114.5967779792
 20
175.1468289381
 30
0.0
 10
1114.6139443684
 20
175.1377476422
 30
0.0
 10
1114.6248232302
 20
175.1272135636
 30
0.0
 10
1114.6248260591
 20
175.120294664
 30
0.0
  0
SPLINE
  5
62B
100
AcDbEntity
  8
0
100
AcDbSpline
 62
9
  6
CONTINUOUS
 70
0
 71
3
 72
11
 73
7
 74
0
 42
0.0000001
 43
0.0000001
 44
0.0000000001
 40
0.0
 40
0.0
 40
0.0
 40
0.0
 40
0.2499269923
 40
0.4998808695
 40
0.7498962811
 40
1.0
 40
1.0
 40
1.0
 40
1.0
 10
1114.5990070616
 20
107.7333582422
 30
0.0
 10
1114.5585162286
 20
108.237966085
 30
0.0
 10
1114.3816764672
 20
109.2421304816
 30
0.0
 10
1113.8385782508
 20
110.6700142496
 30
0.0
 10
1113.0367108632
 20
111.970785438
 30
0.0
 10
1112.3470823916
 20
112.7225786834
 30
0.0
 10
1111.9708030899
 20
113.0617615536
 30
0.0
  0
LINE
  5
62C
100
AcDbEntity
  8
0
100
AcDbLine
 62
9
  6
CONTINUOUS
 10
1116.1248260625
 20
253.1202946648
 11
1116.1248260624
 21
268.870779003
  0
LINE
  5
62D
100
AcDbEntity
  8
0
100
AcDbLine
 62
9
  6
CONTINUOUS
 10
1116.1248260625
 20
97.3698103252
 11
1116.1248260624
 21
113.120294664
  0
SPLINE
  5
62E
100
AcDbEntity
  8
0
100
AcDbSpline
 62
9
  6
CONTINUOUS
 70
0
 71
3
 72
9
 73
5
 74
0
 42
0.0000001
 43
0.0000001
 44
0.0000000001
 40
0.0
 40
0.0
 40
0.0
 40
0.0
 40
0.322393708
 40
1.0
 40
1.0
 40
1.0
 40
1.0
 10
1155.21125057
 20
393.120294664
 30
0.0
 10
1155.2371494915
 20
393.1202268487
 30
0.0
 10
1155.295832654
 20
393.0437430681
 30
0.0
 10
1155.3267212305
 20
392.9775415622
 30
0.0
 10
1155.3485315632
 20
392.927667506
 30
0.0
  0
SPLINE
  5
62F
100
AcDbEntity
  8
0
100
AcDbSpline
 62
9
  6
CONTINUOUS
 70
0
 71
3
 72
9
 73
5
 74
0
 42
0.0000001
 43
0.0000001
 44
0.0000000001
 40
0.0
 40
0.0
 40
0.0
 40
0.0
 40
0.1922795945
 40
1.0
 40
1.0
 40
1.0
 40
1.0
 10
1155.3485315632
 20
392.927667506
 30
0.0
 10
1155.3642918045
 20
392.891628296
 30
0.0
 10
1155.4402068507
 20
392.7015705567
 30
0.0
 10
1155.50061426
 20
392.505768981
 30
0.0
 10
1155.5469784246
 20
392.3471719355
 30
0.0
  0
SPLINE
  5
630
100
AcDbEntity
  8
0
100
AcDbSpline
 62
9
  6
CONTINUOUS
 70
0
 71
3
 72
11
 73
7
 74
0
 42
0.0000001
 43
0.0000001
 44
0.0000000001
 40
0.0
 40
0.0
 40
0.0
 40
0.0
 40
0.2499308413
 40
0.4999022004
 40
0.7499308492
 40
1.0
 40
1.0
 40
1.0
 40
1.0
 10
1223.0384015482
 20
393.1202938534
 30
0.0
 10
1222.5184604253
 20
393.1202942253
 30
0.0
 10
1221.4671018043
 20
393.3284934017
 30
0.0
 10
1220.1383536337
 20
394.2187785497
 30
0.0
 10
1219.2487855063
 20
395.548314062
 30
0.0
 10
1219.0407985717
 20
396.6000658101
 30
0.0
 10
1219.0407985719
 20
397.120294664
 30
0.0
  0
SPLINE
  5
631
100
AcDbEntity
  8
0
100
AcDbSpline
 62
9
  6
CONTINUOUS
 70
0
 71
3
 72
11
 73
7
 74
0
 42
0.0000001
 43
0.0000001
 44
0.0000000001
 40
0.0
 40
0.0
 40
0.0
 40
0.0
 40
0.2548306226
 40
0.5079542737
 40
0.7564630629
 40
1.0
 40
1.0
 40
1.0
 40
1.0
 10
1222.7026736941
 20
392.3471348296
 30
0.0
 10
1222.1905472082
 20
392.3589997907
 30
0.0
 10
1221.1646259226
 20
392.5729738536
 30
0.0
 10
1219.8575276172
 20
393.4141623315
 30
0.0
 10
1218.959534423
 20
394.6577627048
 30
0.0
 10
1218.7270217334
 20
395.6516050765
 30
0.0
 10
1218.7144909026
 20
396.1410058747
 30
0.0
  0
SPLINE
  5
632
100
AcDbEntity
  8
0
100
AcDbSpline
 62
9
  6
CONTINUOUS
 70
0
 71
3
 72
16
 73
12
 74
0
 42
0.0000001
 43
0.0000001
 44
0.0000000001
 40
0.0
 40
0.0
 40
0.0
 40
0.0
 40
0.154092133
 40
0.2928524816
 40
0.5179965981
 40
0.6844971417
 40
0.8067015804
 40
0.8945270786
 40
0.9540150287
 40
0.9885956659
 40
1.0
 40
1.0
 40
1.0
 40
1.0
 10
1339.089627025
 20
63.3259340775
 30
0.0
 10
1339.0093700776
 20
61.6860728744
 30
0.0
 10
1338.6137917296
 20
58.5814938166
 30
0.0
 10
1337.4751172354
 20
53.1798574533
 30
0.0
 10
1336.0361443251
 20
47.7135630702
 30
0.0
 10
1334.7291328379
 20
42.3962094302
 30
0.0
 10
1333.9537184846
 20
38.4579389763
 30
0.0
 10
1333.547421004
 20
35.6142235059
 30
0.0
 10
1333.351025867
 20
33.6854641031
 30
0.0
 10
1333.2795305187
 20
32.5640363454
 30
0.0
 10
1333.2457754009
 20
32.0750809594
 30
0.0
 10
1333.2423720983
 20
31.9536175002
 30
0.0
  0
SPLINE
  5
633
100
AcDbEntity
  8
0
100
AcDbSpline
 62
9
  6
CONTINUOUS
 70
0
 71
3
 72
11
 73
7
 74
0
 42
0.0000001
 43
0.0000001
 44
0.0000000001
 40
0.0
 40
0.0
 40
0.0
 40
0.0
 40
0.2548306228
 40
0.5079542824
 40
0.7564631121
 40
1.0
 40
1.0
 40
1.0
 40
1.0
 10
1155.5469784246
 20
392.3471710146
 30
0.0
 10
1156.0590988425
 20
392.3590430448
 30
0.0
 10
1157.085004997
 20
392.5730240926
 30
0.0
 10
1158.3920862689
 20
393.4142034923
 30
0.0
 10
1159.2900756968
 20
394.6577833334
 30
0.0
 10
1159.522596606
 20
395.6516109767
 30
0.0
 10
1159.5351336151
 20
396.1410058745
 30
0.0
  0
SPLINE
  5
634
100
AcDbEntity
  8
0
100
AcDbSpline
 62
9
  6
CONTINUOUS
 70
0
 71
3
 72
11
 73
7
 74
0
 42
0.0000001
 43
0.0000001
 44
0.0000000001
 40
0.0
 40
0.0
 40
0.0
 40
0.0
 40
0.2499308262
 40
0.4999021769
 40
0.7499308366
 40
1.0
 40
1.0
 40
1.0
 40
1.0
 10
1155.2112505658
 20
393.1201147302
 30
0.0
 10
1155.7312067842
 20
393.1201066784
 30
0.0
 10
1156.7826006223
 20
393.3283081804
 30
0.0
 10
1158.1113744001
 20
394.2186461563
 30
0.0
 10
1159.0009216275
 20
395.548255615
 30
0.0
 10
1159.2088615471
 20
396.6000506481
 30
0.0
 10
1159.208831922
 20
397.1202946626
 30
0.0
  0
SPLINE
  5
635
100
AcDbEntity
  8
0
100
AcDbSpline
 62
9
  6
CONTINUOUS
 70
0
 71
3
 72
12
 73
8
 74
0
 42
0.0000001
 43
0.0000001
 44
0.0000000001
 40
0.0
 40
0.0
 40
0.0
 40
0.0
 40
0.4188195734
 40
0.7246913469
 40
0.9156985308
 40
0.9695065608
 40
1.0
 40
1.0
 40
1.0
 40
1.0
 10
1218.7145181095
 20
396.1410058745
 30
0.0
 10
1218.7464370281
 20
396.2833414063
 30
0.0
 10
1218.8046497309
 20
396.5294697132
 30
0.0
 10
1218.8904746329
 20
396.8352736827
 30
0.0
 10
1218.9571200882
 20
397.0181750615
 30
0.0
 10
1219.0044175895
 20
397.0995123546
 30
0.0
 10
1219.0301757986
 20
397.12022327
 30
0.0
 10
1219.0407961108
 20
397.120294664
 30
0.0
  0
SPLINE
  5
636
100
AcDbEntity
  8
0
100
AcDbSpline
 62
9
  6
CONTINUOUS
 70
0
 71
3
 72
20
 73
16
 74
0
 42
0.0000001
 43
0.0000001
 44
0.0000000001
 40
0.0
 40
0.0
 40
0.0
 40
0.0
 40
0.0493159067
 40
0.0974608482
 40
0.1438937422
 40
0.1885696717
 40
0.2731076641
 40
0.352229031
 40
0.4266776638
 40
0.4969306326
 40
0.6259035168
 40
0.7404323583
 40
0.8409072026
 40
0.9274061406
 40
1.0
 40
1.0
 40
1.0
 40
1.0
 10
1189.1248260591
 20
361.9296957762
 30
0.0
 10
1189.9053005461
 20
361.930224103
 30
0.0
 10
1191.451617371
 20
362.0879545548
 30
0.0
 10
1193.6456230698
 20
362.7333404055
 30
0.0
 10
1195.6540297011
 20
363.6548173548
 30
0.0
 10
1198.0421826312
 20
365.0849220564
 30
0.0
 10
1200.6564412462
 20
367.1116398143
 30
0.0
 10
1203.3820319341
 20
369.7194014593
 30
0.0
 10
1205.7541128659
 20
372.353687957
 30
0.0
 10
1208.4622123876
 20
375.7359696547
 30
0.0
 10
1211.2933693908
 20
379.823139822
 30
0.0
 10
1214.0532840876
 20
384.5201708219
 30
0.0
 10
1216.1811674379
 20
388.7958479471
 30
0.0
 10
1217.7320160882
 20
392.6036820259
 30
0.0
 10
1218.4631236231
 20
395.0199760526
 30
0.0
 10
1218.7145181095
 20
396.1410058745
 30
0.0
  0
SPLINE
  5
637
100
AcDbEntity
  8
0
100
AcDbSpline
 62
7
  6
CONTINUOUS
 70
0
 71
3
 72
10
 73
6
 74
0
 42
0.0000001
 43
0.0000001
 44
0.0000000001
 40
0.0
 40
0.0
 40
0.0
 40
0.0
 40
0.4624482067
 40
0.7233500047
 40
1.0
 40
1.0
 40
1.0
 40
1.0
 10
1319.1248260591
 20
392.3471719354
 30
0.0
 10
1322.4809371908
 20
391.3786782613
 30
0.0
 10
1327.3939608386
 20
388.5831730593
 30
0.0
 10
1332.7994657675
 20
383.289542728
 30
0.0
 10
1335.1629898152
 20
379.9441928372
 30
0.0
 10
1336.182809204
 20
378.120294664
 30
0.0
  0
SPLINE
  5
638
100
AcDbEntity
  8
0
100
AcDbSpline
 62
9
  6
CONTINUOUS
 70
0
 71
3
 72
20
 73
16
 74
0
 42
0.0000001
 43
0.0000001
 44
0.0000000001
 40
0.0
 40
0.0
 40
0.0
 40
0.0
 40
0.072596016
 40
0.1590964061
 40
0.2595723321
 40
0.3741030067
 40
0.5030818991
 40
0.5733378344
 40
0.6477896275
 40
0.7269137328
 40
0.8114517946
 40
0.8561273595
 40
0.9025515765
 40
0.9506905695
 40
1.0
 40
1.0
 40
1.0
 40
1.0
 10
1159.5351340088
 20
396.1410058745
 30
0.0
 10
1159.7865367944
 20
395.0199418643
 30
0.0
 10
1160.5176724359
 20
392.6035944907
 30
0.0
 10
1162.068549723
 20
388.7956852792
 30
0.0
 10
1164.1965601866
 20
384.5199944779
 30
0.0
 10
1166.9563767361
 20
379.822729317
 30
0.0
 10
1169.7879010719
 20
375.7356024357
 30
0.0
 10
1172.495954744
 20
372.3530378715
 30
0.0
 10
1174.8681680561
 20
369.7186681232
 30
0.0
 10
1177.5938897778
 20
367.1109133027
 30
0.0
 10
1180.2081746039
 20
365.084136993
 30
0.0
 10
1182.5964280797
 20
363.6544527242
 30
0.0
 10
1184.604680843
 20
362.7332642999
 30
0.0
 10
1186.7983001521
 20
362.0877102302
 30
0.0
 10
1188.3444533427
 20
361.930207105
 30
0.0
 10
1189.1248260591
 20
361.9296957762
 30
0.0
  0
SPLINE
  5
639
100
AcDbEntity
  8
0
100
AcDbSpline
 62
9
  6
CONTINUOUS
 70
0
 71
3
 72
12
 73
8
 74
0
 42
0.0000001
 43
0.0000001
 44
0.0000000001
 40
0.0
 40
0.0
 40
0.0
 40
0.0
 40
0.0304936271
 40
0.084301964
 40
0.275309163
 40
0.581180344
 40
1.0
 40
1.0
 40
1.0
 40
1.0
 10
1159.2088560074
 20
397.120294664
 30
0.0
 10
1159.2194763812
 20
397.1202230821
 30
0.0
 10
1159.2452344044
 20
397.0995117684
 30
0.0
 10
1159.2925319752
 20
397.0181743979
 30
0.0
 10
1159.3591774969
 20
396.8352731575
 30
0.0
 10
1159.4450025514
 20
396.5294695084
 30
0.0
 10
1159.5032151559
 20
396.2833414139
 30
0.0
 10
1159.5351340088
 20
396.1410058745
 30
0.0
  0
SPLINE
  5
63A
100
AcDbEntity
  8
0
100
AcDbSpline
 62
7
  6
CONTINUOUS
 70
0
 71
3
 72
9
 73
5
 74
0
 42
0.0000001
 43
0.0000001
 44
0.0000000001
 40
0.0
 40
0.0
 40
0.0
 40
0.0
 40
0.4999282908
 40
1.0
 40
1.0
 40
1.0
 40
1.0
 10
1336.182809204
 20
378.120294664
 30
0.0
 10
1337.15753377
 20
376.3770464233
 30
0.0
 10
1338.6393596591
 20
372.610504393
 30
0.0
 10
1339.1248260591
 20
368.599505795
 30
0.0
 10
1339.1248260591
 20
366.6016841185
 30
0.0
  0
SPLINE
  5
63B
100
AcDbEntity
  8
0
100
AcDbSpline
 62
9
  6
CONTINUOUS
 70
0
 71
3
 72
11
 73
7
 74
0
 42
0.0000001
 43
0.0000001
 44
0.0000000001
 40
0.0
 40
0.0
 40
0.0
 40
0.0
 40
0.4120959887
 40
0.7152052372
 40
0.9083204101
 40
1.0
 40
1.0
 40
1.0
 40
1.0
 10
1222.7026736936
 20
392.3471719354
 30
0.0
 10
1222.7356179359
 20
392.4598637961
 30
0.0
 10
1222.7947188558
 20
392.6529953246
 30
0.0
 10
1222.8867504014
 20
392.9013530216
 30
0.0
 10
1222.9534519145
 20
393.0430398817
 30
0.0
 10
1223.0122815772
 20
393.1202264529
 30
0.0
 10
1223.0384015482
 20
393.120294664
 30
0.0
  0
SPLINE
  5
63C
100
AcDbEntity
  8
0
100
AcDbSpline
 62
9
  6
CONTINUOUS
 70
0
 71
3
 72
15
 73
11
 74
0
 42
0.0000001
 43
0.0000001
 44
0.0000000001
 40
0.0
 40
0.0
 40
0.0
 40
0.0
 40
0.127466992
 40
0.2546027908
 40
0.3810396011
 40
0.5065933588
 40
0.6311509392
 40
0.7547558283
 40
0.8776166907
 40
1.0
 40
1.0
 40
1.0
 40
1.0
 10
1149.1293348961
 20
392.347178639
 30
0.0
 10
1147.8222340295
 20
392.347213644
 30
0.0
 10
1145.2046809978
 20
392.1001600027
 30
0.0
 10
1141.4318251598
 20
391.0003119249
 30
0.0
 10
1137.9523139347
 20
389.2125254809
 30
0.0
 10
1134.9010371553
 20
386.8066793319
 30
0.0
 10
1132.3954791859
 20
383.8740973242
 30
0.0
 10
1130.5317832562
 20
380.5275994299
 30
0.0
 10
1129.3837269965
 20
376.8975228637
 30
0.0
 10
1129.1255121865
 20
374.3752650999
 30
0.0
 10
1129.1248260591
 20
373.1202946699
 30
0.0
  0
SPLINE
  5
63D
100
AcDbEntity
  8
0
100
AcDbSpline
 62
9
  6
CONTINUOUS
 70
0
 71
3
 72
15
 73
11
 74
0
 42
0.0000001
 43
0.0000001
 44
0.0000000001
 40
0.0
 40
0.0
 40
0.0
 40
0.0
 40
0.0098743274
 40
0.0265049362
 40
0.0850512979
 40
0.1776543353
 40
0.3011060166
 40
0.4510767639
 40
0.6220581497
 40
1.0
 40
1.0
 40
1.0
 40
1.0
 10
1339.124826064
 20
64.7229411656
 30
0.0
 10
1339.1248260514
 20
64.7096081035
 30
0.0
 10
1339.1495024147
 20
64.6774400314
 30
0.0
 10
1339.2519731939
 20
64.627808896
 30
0.0
 10
1339.4743059179
 20
64.57140454
 30
0.0
 10
1339.8397894276
 20
64.514929208
 30
0.0
 10
1340.3319398545
 20
64.4632999883
 30
0.0
 10
1340.9304006617
 20
64.4207207384
 30
0.0
 10
1341.8732014729
 20
64.3766408638
 30
0.0
 10
1342.6145004535
 20
64.3646093736
 30
0.0
 10
1343.1248260591
 20
64.3646093728
 30
0.0
  0
SPLINE
  5
63E
100
AcDbEntity
  8
0
100
AcDbSpline
 62
9
  6
CONTINUOUS
 70
0
 71
3
 72
29
 73
25
 74
0
 42
0.0000001
 43
0.0000001
 44
0.0000000001
 40
0.0
 40
0.0
 40
0.0
 40
0.0
 40
0.1546688766
 40
0.2958490362
 40
0.5245890941
 40
0.61468902
 40
0.6914462907
 40
0.7567655219
 40
0.8122009971
 40
0.8589771725
 40
0.8980402651
 40
0.9301105399
 40
0.9557278802
 40
0.9662450308
 40
0.9752891342
 40
0.9828903093
 40
0.9890760557
 40
0.9938666934
 40
0.995743425
 40
0.9972768289
 40
0.9984686152
 40
0.9993195831
 40
0.9998299689
 40
1.0
 40
1.0
 40
1.0
 40
1.0
 10
1343.0825872182
 20
63.120294664
 30
0.0
 10
1342.9768916884
 20
61.5314686134
 30
0.0
 10
1342.4219254516
 20
58.5181812656
 30
0.0
 10
1340.9131625072
 20
53.3336646698
 30
0.0
 10
1339.4222494084
 20
48.8369742302
 30
0.0
 10
1338.2593495904
 20
44.9335142478
 30
0.0
 10
1337.6353788408
 20
42.6257720508
 30
0.0
 10
1337.1626320686
 20
40.6477582694
 30
0.0
 10
1336.8127591311
 20
38.9585967133
 30
0.0
 10
1336.5597593227
 20
37.5261279301
 30
0.0
 10
1336.3811234397
 20
36.3253135581
 30
0.0
 10
1336.2582382736
 20
35.3367787366
 30
0.0
 10
1336.1857584624
 20
34.6383115072
 30
0.0
 10
1336.1438669994
 20
34.1750743793
 30
0.0
 10
1336.1206289273
 20
33.8964072927
 30
0.0
 10
1336.1025601692
 20
33.6620271558
 30
0.0
 10
1336.0888862862
 20
33.4713278248
 30
0.0
 10
1336.0797752062
 20
33.3391569899
 30
0.0
 10
1336.0744842391
 20
33.2551370472
 30
0.0
 10
1336.0710497085
 20
33.2073760828
 30
0.0
 10
1336.0698143196
 20
33.1718685022
 30
0.0
 10
1336.0657217521
 20
33.1428398647
 30
0.0
 10
1336.0690306631
 20
33.1320043251
 30
0.0
 10
1336.0641628735
 20
33.1199431036
 30
0.0
 10
1336.0658812712
 20
33.1202767798
 30
0.0
  0
SPLINE
  5
63F
100
AcDbEntity
  8
0
100
AcDbSpline
 62
9
  6
CONTINUOUS
 70
0
 71
3
 72
17
 73
13
 74
0
 42
0.0000001
 43
0.0000001
 44
0.0000000001
 40
0.0
 40
0.0
 40
0.0
 40
0.0
 40
0.0711056316
 40
0.156620582
 40
0.2565283603
 40
0.3707971924
 40
0.4997666217
 40
0.644855248
 40
0.7246444067
 40
0.8103099266
 40
0.9025453242
 40
1.0
 40
1.0
 40
1.0
 40
1.0
 10
1155.5469784246
 20
392.3471719355
 30
0.0
 10
1155.820530313
 20
391.1915415916
 30
0.0
 10
1156.6297047125
 20
388.6953038202
 30
0.0
 10
1158.3567901206
 20
384.7695822503
 30
0.0
 10
1160.745537755
 20
380.3648614094
 30
0.0
 10
1163.8700525172
 20
375.5526340516
 30
0.0
 10
1167.8794225649
 20
370.4430309195
 30
0.0
 10
1172.0749280677
 20
366.2447095796
 30
0.0
 10
1176.2191346291
 20
363.1102224705
 30
0.0
 10
1179.9676373211
 20
360.9637387942
 30
0.0
 10
1184.3166525202
 20
359.3832601886
 30
0.0
 10
1187.4971944174
 20
358.9873082719
 30
0.0
 10
1189.1248260591
 20
358.9858322743
 30
0.0
  0
SPLINE
  5
640
100
AcDbEntity
  8
0
100
AcDbSpline
 62
9
  6
CONTINUOUS
 70
0
 71
3
 72
17
 73
13
 74
0
 42
0.0000001
 43
0.0000001
 44
0.0000000001
 40
0.0
 40
0.0
 40
0.0
 40
0.0
 40
0.0974650633
 40
0.1897054888
 40
0.2753744457
 40
0.355163323
 40
0.5002480883
 40
0.6292108628
 40
0.7434769967
 40
0.8433833021
 40
0.9288966659
 40
1.0
 40
1.0
 40
1.0
 40
1.0
 10
1189.1248260591
 20
358.9858322743
 30
0.0
 10
1190.7526323853
 20
358.9873017205
 30
0.0
 10
1193.9334666266
 20
359.3832057101
 30
0.0
 10
1198.2826573266
 20
360.9641404254
 30
0.0
 10
1202.0313101179
 20
363.1106209906
 30
0.0
 10
1206.1754303949
 20
366.2452212349
 30
0.0
 10
1210.3707666718
 20
370.4434622515
 30
0.0
 10
1214.3797755944
 20
375.5530720202
 30
0.0
 10
1217.5042581136
 20
380.3651011827
 30
0.0
 10
1219.8929844469
 20
384.7697334964
 30
0.0
 10
1221.6199753652
 20
388.6954017485
 30
0.0
 10
1222.4291316124
 20
391.19157781
 30
0.0
 10
1222.7026736936
 20
392.3471719354
 30
0.0
  0
SPLINE
  5
641
100
AcDbEntity
  8
0
100
AcDbSpline
 62
9
  6
CONTINUOUS
 70
0
 71
3
 72
32
 73
28
 74
0
 42
0.0000001
 43
0.0000001
 44
0.0000000001
 40
0.0
 40
0.0
 40
0.0
 40
0.0
 40
0.0003088456
 40
0.0012081963
 40
0.00267487
 40
0.0046856877
 40
0.0072169946
 40
0.0102365873
 40
0.0175823366
 40
0.0264058127
 40
0.0364288115
 40
0.0474552246
 40
0.0592999378
 40
0.0848844242
 40
0.1124170502
 40
0.1413716196
 40
0.1714292932
 40
0.2023481518
 40
0.2339750718
 40
0.2988733384
 40
0.3654613914
 40
0.4333260711
 40
0.5021876365
 40
0.5718481687
 40
0.7129912506
 40
0.8559155265
 40
1.0
 40
1.0
 40
1.0
 40
1.0
 10
79.0355478411
 20
361.9296957762
 30
0.0
 10
79.0374323282
 20
361.9360993034
 30
0.0
 10
79.0597893487
 20
361.953169998
 30
0.0
 10
79.0918121754
 20
362.0001229963
 30
0.0
 10
79.1559578542
 20
362.0706966588
 30
0.0
 10
79.2389867291
 20
362.1701594597
 30
0.0
 10
79.3458177509
 20
362.2939976681
 30
0.0
 10
79.5275986347
 20
362.5052286318
 30
0.0
 10
79.8002833025
 20
362.8177571179
 30
0.0
 10
80.176114324
 20
363.2410827251
 30
0.0
 10
80.6099105537
 20
363.7193031623
 30
0.0
 10
81.0929543423
 20
364.2409541659
 30
0.0
 10
81.8129349
 20
365.0015077389
 30
0.0
 10
82.7959501949
 20
366.0041549165
 30
0.0
 10
84.0649154655
 20
367.243752825
 30
0.0
 10
85.4307816224
 20
368.5218986116
 30
0.0
 10
86.8766393976
 20
369.8210764601
 30
0.0
 10
88.3915194134
 20
371.1292765049
 30
0.0
 10
90.5097968135
 20
372.8901240849
 30
0.0
 10
93.2826576279
 20
375.068463534
 30
0.0
 10
96.7613425409
 20
377.6119548231
 30
0.0
 10
100.3937598535
 20
380.0861576736
 30
0.0
 10
104.1608407274
 20
382.4764442933
 30
0.0
 10
109.3661828288
 20
385.5503916792
 30
0.0
 10
116.1313415075
 20
389.1232116941
 30
0.0
 10
124.571635202
 20
392.930076389
 30
0.0
 10
130.3772243787
 20
395.1282126407
 30
0.0
 10
133.3220166541
 20
396.1410058745
 30
0.0
  0
SPLINE
  5
642
100
AcDbEntity
  8
0
100
AcDbSpline
 62
9
  6
CONTINUOUS
 70
0
 71
3
 72
29
 73
25
 74
0
 42
0.0000001
 43
0.0000001
 44
0.0000000001
 40
0.0
 40
0.0
 40
0.0
 40
0.0
 40
0.0311544381
 40
0.0620560342
 40
0.092930365
 40
0.1239102847
 40
0.1550215441
 40
0.186240277
 40
0.2488483347
 40
0.3115946596
 40
0.3743863977
 40
0.4371913374
 40
0.5000002526
 40
0.5628100024
 40
0.6256157909
 40
0.6884079646
 40
0.7511544732
 40
0.8137625627
 40
0.8449812746
 40
0.8760924764
 40
0.9070722937
 40
0.937945833
 40
0.9688458794
 40
1.0
 40
1.0
 40
1.0
 40
1.0
 10
115.1537905039
 20
63.3259340775
 30
0.0
 10
115.2914758857
 20
61.6504340972
 30
0.0
 10
116.1510305152
 20
58.3453674937
 30
0.0
 10
118.7099865327
 20
53.9846132977
 30
0.0
 10
122.0609230996
 20
50.2336476739
 30
0.0
 10
125.9285904522
 20
47.0177949024
 30
0.0
 10
130.1447129933
 20
44.2498029277
 30
0.0
 10
136.0952405988
 20
41.0661772449
 30
0.0
 10
143.9597651942
 20
37.9099020179
 30
0.0
 10
153.7478160666
 20
35.1606878741
 30
0.0
 10
163.7486804102
 20
33.2858323078
 30
0.0
 10
173.8657742474
 20
32.1931013862
 30
0.0
 10
184.0356357545
 20
31.833860494
 30
0.0
 10
194.2055421868
 20
32.1931213636
 30
0.0
 10
204.3227492462
 20
33.2858729667
 30
0.0
 10
214.3236851849
 20
35.1607792063
 30
0.0
 10
224.1117595524
 20
37.9100421412
 30
0.0
 10
231.9762736727
 20
41.0663716934
 30
0.0
 10
237.9267810425
 20
44.2500313337
 30
0.0
 10
242.1428648559
 20
47.0180640175
 30
0.0
 10
246.0104627052
 20
50.2339233897
 30
0.0
 10
249.36125176
 20
53.9848356904
 30
0.0
 10
251.9201341135
 20
58.3454786036
 30
0.0
 10
252.7795634946
 20
61.6504559153
 30
0.0
 10
252.9173051783
 20
63.3259340775
 30
0.0
  0
SPLINE
  5
643
100
AcDbEntity
  8
0
100
AcDbSpline
 62
9
  6
CONTINUOUS
 70
0
 71
3
 72
18
 73
14
 74
0
 42
0.0000001
 43
0.0000001
 44
0.0000000001
 40
0.0
 40
0.0
 40
0.0
 40
0.0
 40
0.0058957347
 40
0.0206724037
 40
0.0446642247
 40
0.0777754331
 40
0.1197945207
 40
0.1702555965
 40
0.2943701594
 40
0.4455606184
 40
0.6181596159
 40
0.8057465447
 40
1.0
 40
1.0
 40
1.0
 40
1.0
 10
139.0355478411
 20
393.1202938534
 30
0.0
 10
139.0434264097
 20
393.1202940162
 30
0.0
 10
139.0540873652
 20
393.1560900899
 30
0.0
 10
139.0651906256
 20
393.2062185682
 30
0.0
 10
139.0778275213
 20
393.3061333218
 30
0.0
 10
139.0899997589
 20
393.4360339527
 30
0.0
 10
139.1019805744
 20
393.6042079103
 30
0.0
 10
139.1183099721
 20
393.8928418089
 30
0.0
 10
139.1358009849
 20
394.3280612557
 30
0.0
 10
139.1522807145
 20
394.9262941959
 30
0.0
 10
139.1646310045
 20
395.6095823536
 30
0.0
 10
139.1721958646
 20
396.3504470258
 30
0.0
 10
139.1739340479
 20
396.8607105309
 30
0.0
 10
139.1739340506
 20
397.120294664
 30
0.0
  0
SPLINE
  5
644
100
AcDbEntity
  8
0
100
AcDbSpline
 62
9
  6
CONTINUOUS
 70
0
 71
3
 72
9
 73
5
 74
0
 42
0.0000001
 43
0.0000001
 44
0.0000000001
 40
0.0
 40
0.0
 40
0.0
 40
0.0
 40
0.4247666038
 40
1.0
 40
1.0
 40
1.0
 40
1.0
 10
134.24591071
 20
392.9249531248
 30
0.0
 10
134.1516976121
 20
393.3894235411
 30
0.0
 10
133.8563041678
 20
394.4669258051
 30
0.0
 10
133.5243255554
 20
395.5319136232
 30
0.0
 10
133.322018752
 20
396.1410058747
 30
0.0
  0
SPLINE
  5
645
100
AcDbEntity
  8
0
100
AcDbSpline
 62
9
  6
CONTINUOUS
 70
0
 71
3
 72
28
 73
24
 74
0
 42
0.0000001
 43
0.0000001
 44
0.0000000001
 40
0.0
 40
0.0
 40
0.0
 40
0.0
 40
0.0312438292
 40
0.0624861309
 40
0.0937322202
 40
0.1249843308
 40
0.1562429756
 40
0.1875047216
 40
0.2499993392
 40
0.31251288
 40
0.3750348962
 40
0.4375612193
 40
0.5000900181
 40
0.5626191855
 40
0.6251463615
 40
0.6876689888
 40
0.7501826604
 40
0.8126772824
 40
0.8751241501
 40
0.9063751575
 40
0.9376094243
 40
0.9688170826
 40
1.0
 40
1.0
 40
1.0
 40
1.0
 10
252.9635256365
 20
64.7229603062
 30
0.0
 10
252.810710505
 20
66.4194562683
 30
0.0
 10
252.010190683
 20
69.7834756961
 30
0.0
 10
249.5860833519
 20
74.3300956103
 30
0.0
 10
246.3034263403
 20
78.2827447968
 30
0.0
 10
242.4535254008
 20
81.6686861417
 30
0.0
 10
238.2280505036
 20
84.5637443335
 30
0.0
 10
232.2559043568
 20
87.8641296136
 30
0.0
 10
224.3452945333
 20
91.1027741625
 30
0.0
 10
214.4945139274
 20
93.8949693155
 30
0.0
 10
204.4326653453
 20
95.7849015591
 30
0.0
 10
194.255795781
 20
96.8810692956
 30
0.0
 10
184.0267573317
 20
97.2402571894
 30
0.0
 10
173.7977848143
 20
96.8798296615
 30
0.0
 10
163.6207456242
 20
95.782312488
 30
0.0
 10
153.5598367722
 20
93.8910795787
 30
0.0
 10
143.7066701923
 20
91.0964900608
 30
0.0
 10
134.2287745208
 20
87.2119182671
 30
0.0
 10
126.8840075493
 20
82.7833519665
 30
0.0
 10
121.7555792935
 20
78.2707352616
 30
0.0
 10
118.4770422107
 20
74.317757551
 30
0.0
 10
116.0583797478
 20
69.7750836756
 30
0.0
 10
115.2598875197
 20
66.4161475158
 30
0.0
 10
115.1075659996
 20
64.7229413651
 30
0.0
  0
SPLINE
  5
646
100
AcDbEntity
  8
0
100
AcDbSpline
 62
9
  6
CONTINUOUS
 70
0
 71
3
 72
11
 73
7
 74
0
 42
0.0000001
 43
0.0000001
 44
0.0000000001
 40
0.0
 40
0.0
 40
0.0
 40
0.0
 40
0.2500047083
 40
0.5000083304
 40
0.7500077661
 40
1.0
 40
1.0
 40
1.0
 40
1.0
 10
-734.8095676342
 20
259.3182533107
 30
0.0
 10
-734.8211679025
 20
258.9601333845
 30
0.0
 10
-734.768793091
 20
258.239221033
 30
0.0
 10
-734.4673689377
 20
257.199489138
 30
0.0
 10
-733.9558565025
 20
256.2453585287
 30
0.0
 10
-733.4878994695
 20
255.6942433279
 30
0.0
 10
-733.228165751
 20
255.4474437499
 30
0.0
  0
LINE
  5
647
100
AcDbEntity
  8
0
100
AcDbLine
 62
9
  6
CONTINUOUS
 10
-739.3049467343
 20
268.8707790027
 11
-739.3049467342
 21
253.120294664
  0
LINE
  5
648
100
AcDbEntity
  8
0
100
AcDbLine
 62
9
  6
CONTINUOUS
 10
-739.3049467343
 20
113.1202946632
 11
-739.3049467341
 21
97.3698103249
  0
SPLINE
  5
649
100
AcDbEntity
  8
0
100
AcDbSpline
 62
9
  6
CONTINUOUS
 70
0
 71
3
 72
17
 73
13
 74
0
 42
0.0000001
 43
0.0000001
 44
0.0000000001
 40
0.0
 40
0.0
 40
0.0
 40
0.0
 40
0.0310016494
 40
0.0572432913
 40
0.0916106178
 40
0.1341244559
 40
0.184564568
 40
0.2425531017
 40
0.3076036255
 40
0.4565145226
 40
0.6258725101
 40
1.0
 40
1.0
 40
1.0
 40
1.0
 10
-669.8049467309
 20
191.120294664
 30
0.0
 10
-669.8049559977
 20
191.077982257
 30
0.0
 10
-669.8770659181
 20
191.0155702835
 30
0.0
 10
-669.9852311995
 20
190.963907755
 30
0.0
 10
-670.1196380486
 20
190.915660385
 30
0.0
 10
-670.2868685767
 20
190.8705275422
 30
0.0
 10
-670.4884707443
 20
190.8267322799
 30
0.0
 10
-670.7216228246
 20
190.7856401008
 30
0.0
 10
-671.0890154192
 20
190.7323207158
 30
0.0
 10
-671.6094317223
 20
190.6770520058
 30
0.0
 10
-672.5522537723
 20
190.6110440391
 30
0.0
 10
-673.2943211588
 20
190.592816911
 30
0.0
 10
-673.8049467309
 20
190.5928221365
 30
0.0
  0
SPLINE
  5
64A
100
AcDbEntity
  8
0
100
AcDbSpline
 62
9
  6
CONTINUOUS
 70
0
 71
3
 72
11
 73
7
 74
0
 42
0.0000001
 43
0.0000001
 44
0.0000000001
 40
0.0
 40
0.0
 40
0.0
 40
0.0
 40
0.2498447431
 40
0.4986303534
 40
0.7481823148
 40
1.0
 40
1.0
 40
1.0
 40
1.0
 10
-738.8027681677
 20
94.2473113178
 30
0.0
 10
-738.7269279032
 20
93.9612585742
 30
0.0
 10
-738.5388959312
 20
93.3990046499
 30
0.0
 10
-738.1260803983
 20
92.6095539334
 30
0.0
 10
-737.5608916183
 20
91.9148276294
 30
0.0
 10
-737.0715207994
 20
91.5604859777
 30
0.0
 10
-736.8049467309
 20
91.4266771843
 30
0.0
  0
SPLINE
  5
64B
100
AcDbEntity
  8
0
100
AcDbSpline
 62
9
  6
CONTINUOUS
 70
0
 71
3
 72
11
 73
7
 74
0
 42
0.0000001
 43
0.0000001
 44
0.0000000001
 40
0.0
 40
0.0
 40
0.0
 40
0.0
 40
0.2518297471
 40
0.5014044018
 40
0.7501893398
 40
1.0
 40
1.0
 40
1.0
 40
1.0
 10
-736.8049467309
 20
274.813911904
 30
0.0
 10
-737.0710615157
 20
274.6794029983
 30
0.0
 10
-737.5593544733
 20
274.3240447756
 30
0.0
 10
-738.1238966497
 20
273.6293261225
 30
0.0
 10
-738.5373073187
 20
272.8406414542
 30
0.0
 10
-738.7263323966
 20
272.2790179936
 30
0.0
 10
-738.8027680207
 20
271.9932780102
 30
0.0
  0
SPLINE
  5
64C
100
AcDbEntity
  8
0
100
AcDbSpline
 62
9
  6
CONTINUOUS
 70
0
 71
3
 72
26
 73
22
 74
0
 42
0.0000001
 43
0.0000001
 44
0.0000000001
 40
0.0
 40
0.0
 40
0.0
 40
0.0
 40
0.2158186368
 40
0.4124940168
 40
0.5857231353
 40
0.6623897961
 40
0.7318971924
 40
0.7939078478
 40
0.8481319189
 40
0.8943283627
 40
0.9323060897
 40
0.9481671377
 40
0.9619249371
 40
0.9735700186
 40
0.9830961566
 40
0.9905003691
 40
0.9957829041
 40
0.9976294971
 40
0.998947234
 40
0.9997370134
 40
1.0
 40
1.0
 40
1.0
 40
1.0
 10
-739.0648136641
 20
270.9068645921
 30
0.0
 10
-739.0761986713
 20
270.7597638985
 30
0.0
 10
-739.1002701468
 20
270.4787842546
 30
0.0
 10
-739.1404041495
 20
270.0803692385
 30
0.0
 10
-739.175107104
 20
269.7770475422
 30
0.0
 10
-739.2021066259
 20
269.5603675821
 30
0.0
 10
-739.2206124937
 20
269.4192529997
 30
0.0
 10
-739.237935251
 20
269.293459947
 30
0.0
 10
-739.2538059009
 20
269.1835558228
 30
0.0
 10
-739.2679624182
 20
269.0900068275
 30
0.0
 10
-739.2786697878
 20
269.0224618189
 30
0.0
 10
-739.2861770514
 20
268.9768650708
 30
0.0
 10
-739.2908654979
 20
268.949046376
 30
0.0
 10
-739.2949359745
 20
268.9255218603
 30
0.0
 10
-739.2983249712
 20
268.9062700828
 30
0.0
 10
-739.301077202
 20
268.8913687062
 30
0.0
 10
-739.3028087491
 20
268.8815176034
 30
0.0
 10
-739.304000724
 20
268.8759560346
 30
0.0
 10
-739.3043240492
 20
268.8731185967
 30
0.0
 10
-739.3049646306
 20
268.8718506785
 30
0.0
 10
-739.3047617479
 20
268.8708106708
 30
0.0
 10
-739.3049371857
 20
268.8707713687
 30
0.0
  0
SPLINE
  5
64D
100
AcDbEntity
  8
0
100
AcDbSpline
 62
9
  6
CONTINUOUS
 70
0
 71
3
 72
9
 73
5
 74
0
 42
0.0000001
 43
0.0000001
 44
0.0000000001
 40
0.0
 40
0.0
 40
0.0
 40
0.0
 40
0.2545525327
 40
1.0
 40
1.0
 40
1.0
 40
1.0
 10
-738.802768014
 20
271.993278026
 30
0.0
 10
-738.8413315119
 20
271.9063450845
 30
0.0
 10
-738.9750845563
 20
271.5569768316
 30
0.0
 10
-739.0433233733
 20
271.1845382089
 30
0.0
 10
-739.0648136641
 20
270.9068645921
 30
0.0
  0
SPLINE
  5
64E
100
AcDbEntity
  8
0
100
AcDbSpline
 62
9
  6
CONTINUOUS
 70
0
 71
3
 72
26
 73
22
 74
0
 42
0.0000001
 43
0.0000001
 44
0.0000000001
 40
0.0
 40
0.0
 40
0.0
 40
0.0
 40
0.000262404
 40
0.0010504725
 40
0.0023654235
 40
0.0042082119
 40
0.0094803035
 40
0.0168706783
 40
0.0263800533
 40
0.0380059254
 40
0.0517425554
 40
0.0675809664
 40
0.1055109983
 40
0.151659851
 40
0.20584038
 40
0.2678153494
 40
0.3372984683
 40
0.4139554087
 40
0.5872180932
 40
0.7840043199
 40
1.0
 40
1.0
 40
1.0
 40
1.0
 10
-739.3049371867
 20
97.3698179584
 30
0.0
 10
-739.3047612744
 20
97.3697827711
 30
0.0
 10
-739.3049602366
 20
97.3687362754
 30
0.0
 10
-739.3043134719
 20
97.3674815804
 30
0.0
 10
-739.3039784841
 20
97.3646472025
 30
0.0
 10
-739.3027632763
 20
97.3591046297
 30
0.0
 10
-739.3009929059
 20
97.3492776384
 30
0.0
 10
-739.298184761
 20
97.3344153419
 30
0.0
 10
-739.294727597
 20
97.3152089268
 30
0.0
 10
-739.2905784984
 20
97.2917367132
 30
0.0
 10
-739.2858025808
 20
97.2639751114
 30
0.0
 10
-739.2781603518
 20
97.2184618535
 30
0.0
 10
-739.2672737097
 20
97.151023564
 30
0.0
 10
-739.2529051117
 20
97.0575979973
 30
0.0
 10
-739.2368276633
 20
96.9478057586
 30
0.0
 10
-739.2193179521
 20
96.8221034176
 30
0.0
 10
-739.200660407
 20
96.6810494363
 30
0.0
 10
-739.1735187943
 20
96.464376181
 30
0.0
 10
-739.1388359445
 20
96.1609423181
 30
0.0
 10
-739.0991529154
 20
95.7622387964
 30
0.0
 10
-739.0757484357
 20
95.4809883945
 30
0.0
 10
-739.0648137725
 20
95.3337246682
 30
0.0
  0
SPLINE
  5
64F
100
AcDbEntity
  8
0
100
AcDbSpline
 62
9
  6
CONTINUOUS
 70
0
 71
3
 72
9
 73
5
 74
0
 42
0.0000001
 43
0.0000001
 44
0.0000000001
 40
0.0
 40
0.0
 40
0.0
 40
0.0
 40
0.2457070416
 40
1.0
 40
1.0
 40
1.0
 40
1.0
 10
-739.0648137725
 20
95.3337246682
 30
0.0
 10
-739.0580188709
 20
95.2422113473
 30
0.0
 10
-739.0168096176
 20
94.8710522008
 30
0.0
 10
-738.9161435605
 20
94.5051987671
 30
0.0
 10
-738.8027681584
 20
94.2473112954
 30
0.0
  0
SPLINE
  5
650
100
AcDbEntity
  8
0
100
AcDbSpline
 62
9
  6
CONTINUOUS
 70
0
 71
3
 72
17
 73
13
 74
0
 42
0.0000001
 43
0.0000001
 44
0.0000000001
 40
0.0
 40
0.0
 40
0.0
 40
0.0
 40
0.1196168409
 40
0.2395081303
 40
0.3599957248
 40
0.4815289086
 40
0.6048071179
 40
0.7310216175
 40
0.795965457
 40
0.8624655729
 40
0.9306353425
 40
1.0
 40
1.0
 40
1.0
 40
1.0
 10
-669.8049467309
 20
270.120294664
 30
0.0
 10
-669.8049580281
 20
270.3744851912
 30
0.0
 10
-669.8281758621
 20
270.8837619762
 30
0.0
 10
-669.9343045925
 20
271.6425067409
 30
0.0
 10
-670.1168727686
 20
272.3910622311
 30
0.0
 10
-670.3858659125
 20
273.1214063444
 30
0.0
 10
-670.7581432919
 20
273.8195440694
 30
0.0
 10
-671.1760030516
 20
274.3484110227
 30
0.0
 10
-671.5919194287
 20
274.7071611593
 30
0.0
 10
-671.9548726682
 20
274.9310381323
 30
0.0
 10
-672.3640981283
 20
275.08364547
 30
0.0
 10
-672.6575440849
 20
275.1203021936
 30
0.0
 10
-672.8049467309
 20
275.120294664
 30
0.0
  0
SPLINE
  5
651
100
AcDbEntity
  8
0
100
AcDbSpline
 62
9
  6
CONTINUOUS
 70
0
 71
3
 72
13
 73
9
 74
0
 42
0.0000001
 43
0.0000001
 44
0.0000000001
 40
0.0
 40
0.0
 40
0.0
 40
0.0
 40
0.1325627091
 40
0.2266627794
 40
0.3419355428
 40
0.4782948564
 40
0.634644537
 40
1.0
 40
1.0
 40
1.0
 40
1.0
 10
-737.8049467309
 20
270.120294664
 30
0.0
 10
-737.8049467309
 20
270.1881219322
 30
0.0
 10
-737.8724690503
 20
270.2979144585
 30
0.0
 10
-738.0008747089
 20
270.4133878211
 30
0.0
 10
-738.1474998306
 20
270.51453204
 30
0.0
 10
-738.3300930969
 20
270.6156002746
 30
0.0
 10
-738.6356749213
 20
270.7577212881
 30
0.0
 10
-738.8870295662
 20
270.8490823606
 30
0.0
 10
-739.0648136641
 20
270.9068645921
 30
0.0
  0
LINE
  5
652
100
AcDbEntity
  8
0
100
AcDbLine
 62
9
  6
CONTINUOUS
 10
-703.5076216047
 20
225.9990649236
 11
-703.2050236693
 21
225.7359957485
  0
LINE
  5
653
100
AcDbEntity
  8
0
100
AcDbLine
 62
9
  6
CONTINUOUS
 10
-703.2050236693
 20
140.5045935676
 11
-703.5076216047
 21
140.2415244044
  0
SPLINE
  5
654
100
AcDbEntity
  8
0
100
AcDbSpline
 62
9
  6
CONTINUOUS
 70
0
 71
3
 72
17
 73
13
 74
0
 42
0.0000001
 43
0.0000001
 44
0.0000000001
 40
0.0
 40
0.0
 40
0.0
 40
0.0
 40
0.069366526
 40
0.1375361153
 40
0.2040343917
 40
0.2689775419
 40
0.3951913977
 40
0.5184692822
 40
0.6400027041
 40
0.7604906685
 40
0.88038269
 40
1.0
 40
1.0
 40
1.0
 40
1.0
 10
-672.8049467309
 20
91.120294664
 30
0.0
 10
-672.6575401205
 20
91.1202871337
 30
0.0
 10
-672.3640905224
 20
91.1569453228
 30
0.0
 10
-671.9548662257
 20
91.3095547367
 30
0.0
 10
-671.5919188358
 20
91.5334298298
 30
0.0
 10
-671.1760068436
 20
91.8921745843
 30
0.0
 10
-670.7581484423
 20
92.4210380672
 30
0.0
 10
-670.3858701768
 20
93.1191735568
 30
0.0
 10
-670.1168767716
 20
93.8495181583
 30
0.0
 10
-669.9343052721
 20
94.5980757106
 30
0.0
 10
-669.828176107
 20
95.3568238777
 30
0.0
 10
-669.804958665
 20
95.866103151
 30
0.0
 10
-669.8049467309
 20
96.120294664
 30
0.0
  0
SPLINE
  5
655
100
AcDbEntity
  8
0
100
AcDbSpline
 62
9
  6
CONTINUOUS
 70
0
 71
3
 72
15
 73
11
 74
0
 42
0.0000001
 43
0.0000001
 44
0.0000000001
 40
0.0
 40
0.0
 40
0.0
 40
0.0
 40
0.1235858319
 40
0.2473764065
 40
0.3715641129
 40
0.4962744733
 40
0.62155484
 40
0.7473615942
 40
0.8735716456
 40
1.0
 40
1.0
 40
1.0
 40
1.0
 10
-669.8049467309
 20
138.4744661914
 30
0.0
 10
-669.8049458287
 20
138.7302281865
 30
0.0
 10
-669.8564954379
 20
139.2436483207
 30
0.0
 10
-670.0854674991
 20
139.9828404445
 30
0.0
 10
-670.4573101429
 20
140.66443351
 30
0.0
 10
-670.9578139016
 20
141.2618725785
 30
0.0
 10
-671.5677615264
 20
141.7523275653
 30
0.0
 10
-672.2638890506
 20
142.1168546253
 30
0.0
 10
-673.019067343
 20
142.3413811666
 30
0.0
 10
-673.5433021097
 20
142.3919137622
 30
0.0
 10
-673.8049467309
 20
142.3919136452
 30
0.0
  0
SPLINE
  5
656
100
AcDbEntity
  8
0
100
AcDbSpline
 62
9
  6
CONTINUOUS
 70
0
 71
3
 72
17
 73
13
 74
0
 42
0.0000001
 43
0.0000001
 44
0.0000000001
 40
0.0
 40
0.0
 40
0.0
 40
0.0
 40
0.3741274899
 40
0.5434854774
 40
0.6923963745
 40
0.7574468983
 40
0.815435432
 40
0.8658755442
 40
0.9083893822
 40
0.9427567087
 40
0.9689983507
 40
1.0
 40
1.0
 40
1.0
 40
1.0
 10
-673.8049467309
 20
175.6477671914
 30
0.0
 10
-673.2943211588
 20
175.647772417
 30
0.0
 10
-672.5522537724
 20
175.6295452887
 30
0.0
 10
-671.6094317223
 20
175.5635373222
 30
0.0
 10
-671.0890154192
 20
175.508268612
 30
0.0
 10
-670.7216228246
 20
175.4549492273
 30
0.0
 10
-670.4884707443
 20
175.413857048
 30
0.0
 10
-670.2868685768
 20
175.3700617854
 30
0.0
 10
-670.1196380486
 20
175.3249289432
 30
0.0
 10
-669.9852311991
 20
175.2766815735
 30
0.0
 10
-669.8770659185
 20
175.2250190436
 30
0.0
 10
-669.8049559981
 20
175.1626070707
 30
0.0
 10
-669.8049467309
 20
175.120294664
 30
0.0
  0
SPLINE
  5
657
100
AcDbEntity
  8
0
100
AcDbSpline
 62
9
  6
CONTINUOUS
 70
0
 71
3
 72
15
 73
11
 74
0
 42
0.0000001
 43
0.0000001
 44
0.0000000001
 40
0.0
 40
0.0
 40
0.0
 40
0.0
 40
0.1264284987
 40
0.2526386568
 40
0.378445447
 40
0.5037258607
 40
0.6284362738
 40
0.7526238955
 40
0.8764143201
 40
1.0
 40
1.0
 40
1.0
 40
1.0
 10
-673.8049467309
 20
223.8486756827
 30
0.0
 10
-673.5433018098
 20
223.8486755602
 30
0.0
 10
-673.0190665161
 20
223.8992082581
 30
0.0
 10
-672.2638877002
 20
224.1237351784
 30
0.0
 10
-671.5677599656
 20
224.4882627002
 30
0.0
 10
-670.9578123133
 20
224.9787181123
 30
0.0
 10
-670.4573089535
 20
225.576157627
 30
0.0
 10
-670.0854670413
 20
226.2577504911
 30
0.0
 10
-669.8564945081
 20
226.9969419587
 30
0.0
 10
-669.8049476603
 20
227.5103614546
 30
0.0
 10
-669.8049467309
 20
227.7661231365
 30
0.0
  0
SPLINE
  5
658
100
AcDbEntity
  8
0
100
AcDbSpline
 62
9
  6
CONTINUOUS
 70
0
 71
3
 72
19
 73
15
 74
0
 42
0.0000001
 43
0.0000001
 44
0.0000000001
 40
0.0
 40
0.0
 40
0.0
 40
0.0
 40
0.0091889145
 40
0.0161570263
 40
0.0251457512
 40
0.0495863899
 40
0.0827986511
 40
0.1246579078
 40
0.1748326683
 40
0.2983065553
 40
0.4486739301
 40
0.6202244766
 40
0.8063855634
 40
1.0
 40
1.0
 40
1.0
 40
1.0
 10
-735.9809642475
 20
93.3604064777
 30
0.0
 10
-735.9869380955
 20
93.3629519975
 30
0.0
 10
-735.9997944925
 20
93.3591232148
 30
0.0
 10
-736.0134436964
 20
93.3483063501
 30
0.0
 10
-736.0336516404
 20
93.3278063702
 30
0.0
 10
-736.0612310498
 20
93.2895542447
 30
0.0
 10
-736.097838405
 20
93.2294522177
 30
0.0
 10
-736.1396750294
 20
93.1514242044
 30
0.0
 10
-736.2068883109
 20
93.0147413968
 30
0.0
 10
-736.2995192366
 20
92.8052547822
 30
0.0
 10
-736.4179126741
 20
92.5135970976
 30
0.0
 10
-736.5451265935
 20
92.177810071
 30
0.0
 10
-736.6762085027
 20
91.8108952662
 30
0.0
 10
-736.7621827372
 20
91.5566449969
 30
0.0
 10
-736.8049467309
 20
91.4266771843
 30
0.0
  0
SPLINE
  5
659
100
AcDbEntity
  8
0
100
AcDbSpline
 62
9
  6
CONTINUOUS
 70
0
 71
3
 72
15
 73
11
 74
0
 42
0.0000001
 43
0.0000001
 44
0.0000000001
 40
0.0
 40
0.0
 40
0.0
 40
0.0
 40
0.0320784689
 40
0.0574739942
 40
0.0900243171
 40
0.1770538395
 40
0.2928471668
 40
0.4357274718
 40
0.6032469669
 40
1.0
 40
1.0
 40
1.0
 40
1.0
 10
-737.6342979293
 20
95.1229121918
 30
0.0
 10
-737.6290378023
 20
95.1079903868
 30
0.0
 10
-737.6407351629
 20
95.0774113439
 30
0.0
 10
-737.665386719
 20
95.0418984723
 30
0.0
 10
-737.7128495369
 20
94.9875272474
 30
0.0
 10
-737.799038283
 20
94.9099024835
 30
0.0
 10
-737.933381148
 20
94.8045885185
 30
0.0
 10
-738.1048555174
 20
94.6829707537
 30
0.0
 10
-738.3958357821
 20
94.4905666249
 30
0.0
 10
-738.6339153782
 20
94.3462163664
 30
0.0
 10
-738.8027681677
 20
94.2473113178
 30
0.0
  0
SPLINE
  5
65A
100
AcDbEntity
  8
0
100
AcDbSpline
 62
9
  6
CONTINUOUS
 70
0
 71
3
 72
13
 73
9
 74
0
 42
0.0000001
 43
0.0000001
 44
0.0000000001
 40
0.0
 40
0.0
 40
0.0
 40
0.0
 40
0.1335070143
 40
0.2277281042
 40
0.3429602198
 40
0.4791619809
 40
0.6352712052
 40
1.0
 40
1.0
 40
1.0
 40
1.0
 10
-737.8049467309
 20
96.120294664
 30
0.0
 10
-737.8049467309
 20
96.0519339778
 30
0.0
 10
-737.8720380851
 20
95.9412260843
 30
0.0
 10
-738.0007649687
 20
95.8249864342
 30
0.0
 10
-738.1473801492
 20
95.7237016725
 30
0.0
 10
-738.3299983902
 20
95.6227893294
 30
0.0
 10
-738.6355783148
 20
95.4813202223
 30
0.0
 10
-738.8869971132
 20
95.3908095932
 30
0.0
 10
-739.0648137725
 20
95.3337246682
 30
0.0
  0
LINE
  5
65B
100
AcDbEntity
  8
0
100
AcDbLine
 62
9
  6
CONTINUOUS
 10
-672.8049467309
 20
275.120294664
 11
-734.8049467309
 21
275.1203191603
  0
SPLINE
  5
65C
100
AcDbEntity
  8
0
100
AcDbSpline
 62
9
  6
CONTINUOUS
 70
0
 71
3
 72
13
 73
9
 74
0
 42
0.0000001
 43
0.0000001
 44
0.0000000001
 40
0.0
 40
0.0
 40
0.0
 40
0.0
 40
0.2966487855
 40
0.5661206922
 40
0.6869145523
 40
0.7980339794
 40
0.9012638156
 40
1.0
 40
1.0
 40
1.0
 40
1.0
 10
-734.9472476073
 20
175.371098161
 30
0.0
 10
-734.9276915759
 20
175.7324704829
 30
0.0
 10
-734.8105009528
 20
176.4205282419
 30
0.0
 10
-734.4555966567
 20
177.1952898135
 30
0.0
 10
-734.0618354856
 20
177.6678995323
 30
0.0
 10
-733.7385904925
 20
177.9239390186
 30
0.0
 10
-733.3870491628
 20
178.083671568
 30
0.0
 10
-733.1393394508
 20
178.120294664
 30
0.0
 10
-733.0188847793
 20
178.1202946642
 30
0.0
  0
SPLINE
  5
65D
100
AcDbEntity
  8
0
100
AcDbSpline
 62
9
  6
CONTINUOUS
 70
0
 71
3
 72
9
 73
5
 74
0
 42
0.0000001
 43
0.0000001
 44
0.0000000001
 40
0.0
 40
0.0
 40
0.0
 40
0.0
 40
0.500072959
 40
1.0
 40
1.0
 40
1.0
 40
1.0
 10
-734.8049467309
 20
275.1203191603
 30
0.0
 10
-735.1433027925
 20
275.1203190337
 30
0.0
 10
-735.8210031539
 20
275.0744118013
 30
0.0
 10
-736.4838532089
 20
274.9202931642
 30
0.0
 10
-736.8049467309
 20
274.813911904
 30
0.0
  0
SPLINE
  5
65E
100
AcDbEntity
  8
0
100
AcDbSpline
 62
9
  6
CONTINUOUS
 70
0
 71
3
 72
15
 73
11
 74
0
 42
0.0000001
 43
0.0000001
 44
0.0000000001
 40
0.0
 40
0.0
 40
0.0
 40
0.0
 40
0.0314452609
 40
0.0566793922
 40
0.0891336618
 40
0.1761052156
 40
0.2919615575
 40
0.43499023
 40
0.6027193643
 40
1.0
 40
1.0
 40
1.0
 40
1.0
 10
-737.6342979022
 20
271.1176772132
 30
0.0
 10
-737.6291454652
 20
271.1322935244
 30
0.0
 10
-737.641327493
 20
271.1623375872
 30
0.0
 10
-737.6659659066
 20
271.1971848114
 30
0.0
 10
-737.7136797424
 20
271.2511023537
 30
0.0
 10
-737.7999710891
 20
271.3283449533
 30
0.0
 10
-737.9343600229
 20
271.4335346789
 30
0.0
 10
-738.1057592058
 20
271.5553274994
 30
0.0
 10
-738.3964947718
 20
271.7484188414
 30
0.0
 10
-738.634207197
 20
271.8936527776
 30
0.0
 10
-738.8027680207
 20
271.9932780102
 30
0.0
  0
SPLINE
  5
65F
100
AcDbEntity
  8
0
100
AcDbSpline
 62
9
  6
CONTINUOUS
 70
0
 71
3
 72
13
 73
9
 74
0
 42
0.0000001
 43
0.0000001
 44
0.0000000001
 40
0.0
 40
0.0
 40
0.0
 40
0.0
 40
0.2907347026
 40
0.5612889992
 40
0.6844884193
 40
0.7982183271
 40
0.9028324914
 40
1.0
 40
1.0
 40
1.0
 40
1.0
 10
-739.3049467311
 20
175.120294664
 30
0.0
 10
-739.3049467311
 20
175.4610593536
 30
0.0
 10
-739.2357507663
 20
176.1208876025
 30
0.0
 10
-738.9733008321
 20
176.8889507585
 30
0.0
 10
-738.6635600525
 20
177.3993019896
 30
0.0
 10
-738.400811592
 20
177.7042535675
 30
0.0
 10
-738.1075662846
 20
177.9338194404
 30
0.0
 10
-737.8900942606
 20
178.0339647179
 30
0.0
 10
-737.7811621733
 20
178.0671961117
 30
0.0
  0
SPLINE
  5
660
100
AcDbEntity
  8
0
100
AcDbSpline
 62
9
  6
CONTINUOUS
 70
0
 71
3
 72
9
 73
5
 74
0
 42
0.0000001
 43
0.0000001
 44
0.0000000001
 40
0.0
 40
0.0
 40
0.0
 40
0.0
 40
0.2529322867
 40
1.0
 40
1.0
 40
1.0
 40
1.0
 10
-737.7555370418
 20
178.0747179293
 30
0.0
 10
-737.7288120773
 20
178.0822550678
 30
0.0
 10
-737.622198592
 20
178.1085479719
 30
0.0
 10
-737.5119614784
 20
178.120294664
 30
0.0
 10
-737.4299467311
 20
178.120294664
 30
0.0
  0
SPLINE
  5
661
100
AcDbEntity
  8
0
100
AcDbSpline
 62
9
  6
CONTINUOUS
 70
0
 71
3
 72
19
 73
15
 74
0
 42
0.0000001
 43
0.0000001
 44
0.0000000001
 40
0.0
 40
0.0
 40
0.0
 40
0.0
 40
0.0090305996
 40
0.0159561434
 40
0.0249171024
 40
0.0493289352
 40
0.0825321479
 40
0.1243939994
 40
0.1745789897
 40
0.2980882706
 40
0.4485028555
 40
0.6201073757
 40
0.8063261773
 40
1.0
 40
1.0
 40
1.0
 40
1.0
 10
-735.9809642983
 20
272.8801828286
 30
0.0
 10
-735.9868331531
 20
272.8776820474
 30
0.0
 10
-735.9995146865
 20
272.8816896944
 30
0.0
 10
-736.0128933469
 20
272.8925318373
 30
0.0
 10
-736.0328846138
 20
272.9131454693
 30
0.0
 10
-736.0602106423
 20
272.9514817906
 30
0.0
 10
-736.0965906897
 20
273.0116677182
 30
0.0
 10
-736.1382429169
 20
273.0897580728
 30
0.0
 10
-736.2052695936
 20
273.2265105546
 30
0.0
 10
-736.2978234255
 20
273.4360099384
 30
0.0
 10
-736.4163325882
 20
273.7276039293
 30
0.0
 10
-736.5438708763
 20
274.0632508975
 30
0.0
 10
-736.6754763115
 20
274.4299597663
 30
0.0
 10
-736.761917962
 20
274.6840381453
 30
0.0
 10
-736.8049467309
 20
274.813911904
 30
0.0
  0
SPLINE
  5
662
100
AcDbEntity
  8
0
100
AcDbSpline
 62
9
  6
CONTINUOUS
 70
0
 71
3
 72
13
 73
9
 74
0
 42
0.0000001
 43
0.0000001
 44
0.0000000001
 40
0.0
 40
0.0
 40
0.0
 40
0.0
 40
0.2907347026
 40
0.5612889991
 40
0.6844884193
 40
0.7982183271
 40
0.9028324914
 40
1.0
 40
1.0
 40
1.0
 40
1.0
 10
-739.3049467306
 20
191.120294664
 30
0.0
 10
-739.3049467306
 20
190.7795299745
 30
0.0
 10
-739.2357507666
 20
190.1197017256
 30
0.0
 10
-738.9733008322
 20
189.3516385696
 30
0.0
 10
-738.6635600526
 20
188.8412873385
 30
0.0
 10
-738.4008115922
 20
188.5363357606
 30
0.0
 10
-738.1075662848
 20
188.3067698877
 30
0.0
 10
-737.8900942609
 20
188.2066246102
 30
0.0
 10
-737.7811621735
 20
188.1733932163
 30
0.0
  0
SPLINE
  5
663
100
AcDbEntity
  8
0
100
AcDbSpline
 62
9
  6
CONTINUOUS
 70
0
 71
3
 72
9
 73
5
 74
0
 42
0.0000001
 43
0.0000001
 44
0.0000000001
 40
0.0
 40
0.0
 40
0.0
 40
0.0
 40
0.2529322865
 40
1.0
 40
1.0
 40
1.0
 40
1.0
 10
-737.7555370338
 20
188.1658713964
 30
0.0
 10
-737.7288120699
 20
188.1583342582
 30
0.0
 10
-737.6221985871
 20
188.1320413555
 30
0.0
 10
-737.5119614762
 20
188.120294664
 30
0.0
 10
-737.4299467309
 20
188.120294664
 30
0.0
  0
SPLINE
  5
664
100
AcDbEntity
  8
0
100
AcDbSpline
 62
9
  6
CONTINUOUS
 70
0
 71
3
 72
9
 73
5
 74
0
 42
0.0000001
 43
0.0000001
 44
0.0000000001
 40
0.0
 40
0.0
 40
0.0
 40
0.0
 40
0.5003743843
 40
1.0
 40
1.0
 40
1.0
 40
1.0
 10
-672.7560860983
 20
228.305360036
 30
0.0
 10
-672.7700206359
 20
228.3416675148
 30
0.0
 10
-672.7949142445
 20
228.4155508279
 30
0.0
 10
-672.804946716
 20
228.4934660345
 30
0.0
 10
-672.8049467309
 20
228.5322974826
 30
0.0
  0
SPLINE
  5
665
100
AcDbEntity
  8
0
100
AcDbSpline
 62
9
  6
CONTINUOUS
 70
0
 71
3
 72
13
 73
9
 74
0
 42
0.0000001
 43
0.0000001
 44
0.0000000001
 40
0.0
 40
0.0
 40
0.0
 40
0.0
 40
0.2966487467
 40
0.5661206587
 40
0.6869145348
 40
0.7980339789
 40
0.901263824
 40
1.0
 40
1.0
 40
1.0
 40
1.0
 10
-734.9472454528
 20
190.8694914472
 30
0.0
 10
-734.9276894567
 20
190.5081193417
 30
0.0
 10
-734.810499009
 20
189.8200619421
 30
0.0
 10
-734.4555952255
 20
189.0453006349
 30
0.0
 10
-734.0618345525
 20
188.5726908278
 30
0.0
 10
-733.7385899171
 20
188.3166511321
 30
0.0
 10
-733.3870489272
 20
188.1569182403
 30
0.0
 10
-733.1393393838
 20
188.1202948276
 30
0.0
 10
-733.0188847793
 20
188.120294664
 30
0.0
  0
SPLINE
  5
666
100
AcDbEntity
  8
0
100
AcDbSpline
 62
9
  6
CONTINUOUS
 70
0
 71
3
 72
13
 73
9
 74
0
 42
0.0000001
 43
0.0000001
 44
0.0000000001
 40
0.0
 40
0.0
 40
0.0
 40
0.0
 40
0.2962097236
 40
0.5645084469
 40
0.6850584478
 40
0.7963874562
 40
0.9002904222
 40
1.0
 40
1.0
 40
1.0
 40
1.0
 10
-703.2050236642
 20
190.7263552141
 30
0.0
 10
-703.1752482004
 20
190.3796751238
 30
0.0
 10
-703.0437822345
 20
189.7227376187
 30
0.0
 10
-702.6830425259
 20
188.9884209568
 30
0.0
 10
-702.2937587881
 20
188.5439856239
 30
0.0
 10
-701.9767981476
 20
188.3037974049
 30
0.0
 10
-701.6341719966
 20
188.1544379576
 30
0.0
 10
-701.3937892933
 20
188.1202946634
 30
0.0
 10
-701.2766608402
 20
188.1202946629
 30
0.0
  0
SPLINE
  5
667
100
AcDbEntity
  8
0
100
AcDbSpline
 62
9
  6
CONTINUOUS
 70
0
 71
3
 72
15
 73
11
 74
0
 42
0.0000001
 43
0.0000001
 44
0.0000000001
 40
0.0
 40
0.0
 40
0.0
 40
0.0
 40
0.1249672828
 40
0.2499407843
 40
0.37492496
 40
0.4999450453
 40
0.6249539373
 40
0.7499658132
 40
0.8749938596
 40
1.0
 40
1.0
 40
1.0
 40
1.0
 10
-673.8049467309
 20
226.7236202252
 30
0.0
 10
-673.7124400713
 20
226.7236206182
 30
0.0
 10
-673.5265707019
 20
226.7475494792
 30
0.0
 10
-673.2664631949
 20
226.852234281
 30
0.0
 10
-673.0403174207
 20
227.0179731569
 30
0.0
 10
-672.8602466637
 20
227.2328395297
 30
0.0
 10
-672.7372201084
 20
227.4845542754
 30
0.0
 10
-672.6740069729
 20
227.7574301425
 30
0.0
 10
-672.6766930581
 20
228.0376336487
 30
0.0
 10
-672.7229488644
 20
228.2189613764
 30
0.0
 10
-672.7560860983
 20
228.305360036
 30
0.0
  0
SPLINE
  5
668
100
AcDbEntity
  8
0
100
AcDbSpline
 62
9
  6
CONTINUOUS
 70
0
 71
3
 72
11
 73
7
 74
0
 42
0.0000001
 43
0.0000001
 44
0.0000000001
 40
0.0
 40
0.0
 40
0.0
 40
0.0
 40
0.2502221255
 40
0.5003438214
 40
0.7502849025
 40
1.0
 40
1.0
 40
1.0
 40
1.0
 10
-698.0627227918
 20
142.3919136452
 30
0.0
 10
-698.5285368721
 20
142.3919134586
 30
0.0
 10
-699.4620445834
 20
142.3094675261
 30
0.0
 10
-700.8169401606
 20
141.9425151645
 30
0.0
 10
-702.086022753
 20
141.3449774693
 30
0.0
 10
-702.850161988
 20
140.804889232
 30
0.0
 10
-703.2050236693
 20
140.5045935676
 30
0.0
  0
SPLINE
  5
669
100
AcDbEntity
  8
0
100
AcDbSpline
 62
9
  6
CONTINUOUS
 70
0
 71
3
 72
9
 73
5
 74
0
 42
0.0000001
 43
0.0000001
 44
0.0000000001
 40
0.0
 40
0.0
 40
0.0
 40
0.0
 40
0.4678041939
 40
1.0
 40
1.0
 40
1.0
 40
1.0
 10
-703.2050236693
 20
175.5142341149
 30
0.0
 10
-702.4041746301
 20
175.5609832799
 30
0.0
 10
-700.6902488967
 20
175.6266113032
 30
0.0
 10
-698.9753568774
 20
175.6477700947
 30
0.0
 10
-698.0627227918
 20
175.6477671914
 30
0.0
  0
SPLINE
  5
66A
100
AcDbEntity
  8
0
100
AcDbSpline
 62
9
  6
CONTINUOUS
 70
0
 71
3
 72
11
 73
7
 74
0
 42
0.0000001
 43
0.0000001
 44
0.0000000001
 40
0.0
 40
0.0
 40
0.0
 40
0.0
 40
0.2497151649
 40
0.4996562505
 40
0.7497779282
 40
1.0
 40
1.0
 40
1.0
 40
1.0
 10
-703.2050236693
 20
225.7359957485
 30
0.0
 10
-702.8501595014
 20
225.4357028244
 30
0.0
 10
-702.0860237871
 20
224.8956101415
 30
0.0
 10
-700.8169394637
 20
224.2980745477
 30
0.0
 10
-699.462044475
 20
223.9311214609
 30
0.0
 10
-698.5285367747
 20
223.8486759121
 30
0.0
 10
-698.0627227918
 20
223.8486756827
 30
0.0
  0
SPLINE
  5
66B
100
AcDbEntity
  8
0
100
AcDbSpline
 62
9
  6
CONTINUOUS
 70
0
 71
3
 72
9
 73
5
 74
0
 42
0.0000001
 43
0.0000001
 44
0.0000000001
 40
0.0
 40
0.0
 40
0.0
 40
0.0
 40
0.5321958061
 40
1.0
 40
1.0
 40
1.0
 40
1.0
 10
-698.0627227918
 20
190.5928221365
 30
0.0
 10
-698.9753568774
 20
190.592819233
 30
0.0
 10
-700.6902488965
 20
190.6139780297
 30
0.0
 10
-702.4041746306
 20
190.6796060399
 30
0.0
 10
-703.2050236693
 20
190.726355213
 30
0.0
  0
SPLINE
  5
66C
100
AcDbEntity
  8
0
100
AcDbSpline
 62
9
  6
CONTINUOUS
 70
0
 71
3
 72
11
 73
7
 74
0
 42
0.0000001
 43
0.0000001
 44
0.0000000001
 40
0.0
 40
0.0
 40
0.0
 40
0.0
 40
0.2499922568
 40
0.4999916916
 40
0.7499953028
 40
1.0
 40
1.0
 40
1.0
 40
1.0
 10
-733.228165751
 20
110.793145578
 30
0.0
 10
-733.4878994995
 20
110.5463460205
 30
0.0
 10
-733.9558570269
 20
109.9952312186
 30
0.0
 10
-734.467368147
 20
109.041099744
 30
0.0
 10
-734.7687912364
 20
108.0013681415
 30
0.0
 10
-734.8211692268
 20
107.2804558596
 30
0.0
 10
-734.8095676342
 20
106.9223360172
 30
0.0
  0
SPLINE
  5
66D
100
AcDbEntity
  8
0
100
AcDbSpline
 62
9
  6
CONTINUOUS
 70
0
 71
3
 72
9
 73
5
 74
0
 42
0.0000001
 43
0.0000001
 44
0.0000000001
 40
0.0
 40
0.0
 40
0.0
 40
0.0
 40
0.4999371973
 40
1.0
 40
1.0
 40
1.0
 40
1.0
 10
-736.8049467309
 20
91.4266771843
 30
0.0
 10
-736.4836423412
 20
91.3209574752
 30
0.0
 10
-735.820945343
 20
91.1668889225
 30
0.0
 10
-735.1432818692
 20
91.1202702937
 30
0.0
 10
-734.8049467309
 20
91.1202701637
 30
0.0
  0
LINE
  5
66E
100
AcDbEntity
  8
0
100
AcDbLine
 62
9
  6
CONTINUOUS
 10
-734.8049467309
 20
91.1202701637
 11
-672.8049467309
 21
91.120294664
  0
SPLINE
  5
66F
100
AcDbEntity
  8
0
100
AcDbSpline
 62
9
  6
CONTINUOUS
 70
0
 71
3
 72
10
 73
6
 74
0
 42
0.0000001
 43
0.0000001
 44
0.0000000001
 40
0.0
 40
0.0
 40
0.0
 40
0.0
 40
0.2499999497
 40
0.5000000093
 40
1.0
 40
1.0
 40
1.0
 40
1.0
 10
-701.5944619042
 20
138.0201663897
 30
0.0
 10
-704.1972999088
 20
135.7471884547
 30
0.0
 10
-709.4158023075
 20
131.2159122682
 30
0.0
 10
-719.8868050977
 20
122.1927349345
 30
0.0
 10
-727.7663564728
 20
115.4559496466
 30
0.0
 10
-733.0254908827
 20
110.9719447187
 30
0.0
  0
SPLINE
  5
670
100
AcDbEntity
  8
0
100
AcDbSpline
 62
9
  6
CONTINUOUS
 70
0
 71
3
 72
11
 73
7
 74
0
 42
0.0000001
 43
0.0000001
 44
0.0000000001
 40
0.0
 40
0.0
 40
0.0
 40
0.0
 40
0.249986353
 40
0.4999790986
 40
0.7499828792
 40
1.0
 40
1.0
 40
1.0
 40
1.0
 10
-698.0627227918
 20
139.5169691027
 30
0.0
 10
-698.3683284787
 20
139.5169692125
 30
0.0
 10
-698.9811232224
 20
139.4584531824
 30
0.0
 10
-699.8659836261
 20
139.1990144956
 30
0.0
 10
-700.6870326535
 20
138.7795459597
 30
0.0
 10
-701.1744611286
 20
138.404127101
 30
0.0
 10
-701.398847646
 20
138.1965975421
 30
0.0
  0
SPLINE
  5
671
100
AcDbEntity
  8
0
100
AcDbSpline
 62
9
  6
CONTINUOUS
 70
0
 71
3
 72
18
 73
14
 74
0
 42
0.0000001
 43
0.0000001
 44
0.0000000001
 40
0.0
 40
0.0
 40
0.0
 40
0.0
 40
0.2211891953
 40
0.4185471354
 40
0.5897315298
 40
0.732782403
 40
0.8460628906
 40
0.9283603823
 40
0.957663703
 40
0.9790629538
 40
0.9868557248
 40
0.9927982091
 40
1.0
 40
1.0
 40
1.0
 40
1.0
 10
-734.9472476084
 20
190.8694911668
 30
0.0
 10
-735.1596097182
 20
190.8771660374
 30
0.0
 10
-735.5614039819
 20
190.8931312717
 30
0.0
 10
-736.1273074949
 20
190.9207450073
 30
0.0
 10
-736.6179243986
 20
190.9503356663
 30
0.0
 10
-737.0275131079
 20
190.9812183386
 30
0.0
 10
-737.351293117
 20
191.0131845038
 30
0.0
 10
-737.5655581107
 20
191.0415431015
 30
0.0
 10
-737.6910002656
 20
191.0666261117
 30
0.0
 10
-737.7452217089
 20
191.0810202607
 30
0.0
 10
-737.776898651
 20
191.0937603898
 30
0.0
 10
-737.7940650402
 20
191.1028416858
 30
0.0
 10
-737.804943902
 20
191.1133757643
 30
0.0
 10
-737.8049467309
 20
191.120294664
 30
0.0
  0
SPLINE
  5
672
100
AcDbEntity
  8
0
100
AcDbSpline
 62
9
  6
CONTINUOUS
 70
0
 71
3
 72
11
 73
7
 74
0
 42
0.0000001
 43
0.0000001
 44
0.0000000001
 40
0.0
 40
0.0
 40
0.0
 40
0.0
 40
0.2499269918
 40
0.4998808692
 40
0.7498962803
 40
1.0
 40
1.0
 40
1.0
 40
1.0
 10
-737.7791280905
 20
258.5072355371
 30
0.0
 10
-737.7386375076
 20
258.0026273038
 30
0.0
 10
-737.5617981027
 20
256.998462077
 30
0.0
 10
-737.0186999805
 20
255.5705770654
 30
0.0
 10
-736.2168322712
 20
254.2698047456
 30
0.0
 10
-735.5272033398
 20
253.518010894
 30
0.0
 10
-735.1509237616
 20
253.1788277744
 30
0.0
  0
SPLINE
  5
673
100
AcDbEntity
  8
0
100
AcDbSpline
 62
9
  6
CONTINUOUS
 70
0
 71
3
 72
18
 73
14
 74
0
 42
0.0000001
 43
0.0000001
 44
0.0000000001
 40
0.0
 40
0.0
 40
0.0
 40
0.0
 40
0.0072017908
 40
0.0131442752
 40
0.0209370462
 40
0.042336297
 40
0.0716396177
 40
0.1539371094
 40
0.267217597
 40
0.4102684702
 40
0.5814528646
 40
0.7788108047
 40
1.0
 40
1.0
 40
1.0
 40
1.0
 10
-737.8049467309
 20
175.120294664
 30
0.0
 10
-737.804943902
 20
175.1272135636
 30
0.0
 10
-737.7940650401
 20
175.1377476422
 30
0.0
 10
-737.776898651
 20
175.1468289382
 30
0.0
 10
-737.7452217089
 20
175.1595690673
 30
0.0
 10
-737.6910002656
 20
175.1739632163
 30
0.0
 10
-737.5655581106
 20
175.1990462263
 30
0.0
 10
-737.351293117
 20
175.2274048243
 30
0.0
 10
-737.0275131079
 20
175.2593709892
 30
0.0
 10
-736.6179243986
 20
175.2902536617
 30
0.0
 10
-736.1273074949
 20
175.3198443208
 30
0.0
 10
-735.5614039819
 20
175.3474580557
 30
0.0
 10
-735.1596097182
 20
175.3634232911
 30
0.0
 10
-734.9472476084
 20
175.3710981611
 30
0.0
  0
SPLINE
  5
674
100
AcDbEntity
  8
0
100
AcDbSpline
 62
9
  6
CONTINUOUS
 70
0
 71
3
 72
11
 73
7
 74
0
 42
0.0000001
 43
0.0000001
 44
0.0000000001
 40
0.0
 40
0.0
 40
0.0
 40
0.0
 40
0.2501037163
 40
0.5001191153
 40
0.7500729848
 40
1.0
 40
1.0
 40
1.0
 40
1.0
 10
-735.1509237616
 20
113.0617615536
 30
0.0
 10
-735.527256068
 20
112.7225308476
 30
0.0
 10
-736.2169730688
 20
111.9706209725
 30
0.0
 10
-737.0189024541
 20
110.6696321041
 30
0.0
 10
-737.5619826575
 20
109.2415084696
 30
0.0
 10
-737.7387538951
 20
108.2371840052
 30
0.0
 10
-737.7791964945
 20
107.7325006657
 30
0.0
  0
SPLINE
  5
675
100
AcDbEntity
  8
0
100
AcDbSpline
 62
9
  6
CONTINUOUS
 70
0
 71
3
 72
15
 73
11
 74
0
 42
0.0000001
 43
0.0000001
 44
0.0000000001
 40
0.0
 40
0.0
 40
0.0
 40
0.0
 40
0.125006382
 40
0.2500346131
 40
0.3750465783
 40
0.5000554918
 40
0.6250754523
 40
0.7500595886
 40
0.875032936
 40
1.0
 40
1.0
 40
1.0
 40
1.0
 10
-672.7560860983
 20
137.9352292919
 30
0.0
 10
-672.7229143051
 20
138.0216148654
 30
0.0
 10
-672.6767075349
 20
138.2029622035
 30
0.0
 10
-672.6740056381
 20
138.4831580539
 30
0.0
 10
-672.7372196412
 20
138.7560372076
 30
0.0
 10
-672.8602484695
 20
139.0077497962
 30
0.0
 10
-673.0403181278
 20
139.2226169507
 30
0.0
 10
-673.2664640201
 20
139.3883553252
 30
0.0
 10
-673.5265711631
 20
139.4930399941
 30
0.0
 10
-673.7124402472
 20
139.5169686749
 30
0.0
 10
-673.8049467309
 20
139.5169691027
 30
0.0
  0
SPLINE
  5
676
100
AcDbEntity
  8
0
100
AcDbSpline
 62
9
  6
CONTINUOUS
 70
0
 71
3
 72
9
 73
5
 74
0
 42
0.0000001
 43
0.0000001
 44
0.0000000001
 40
0.0
 40
0.0
 40
0.0
 40
0.0
 40
0.4996362299
 40
1.0
 40
1.0
 40
1.0
 40
1.0
 10
-672.8049467309
 20
137.7082918453
 30
0.0
 10
-672.8049472441
 20
137.7471239877
 30
0.0
 10
-672.7949101107
 20
137.8250392918
 30
0.0
 10
-672.7700113671
 20
137.8989192809
 30
0.0
 10
-672.7560860983
 20
137.9352292919
 30
0.0
  0
SPLINE
  5
677
100
AcDbEntity
  8
0
100
AcDbSpline
 62
9
  6
CONTINUOUS
 70
0
 71
3
 72
13
 73
9
 74
0
 42
0.0000001
 43
0.0000001
 44
0.0000000001
 40
0.0
 40
0.0
 40
0.0
 40
0.0
 40
0.2962096918
 40
0.564508425
 40
0.685058441
 40
0.7963874635
 40
0.9002904343
 40
1.0
 40
1.0
 40
1.0
 40
1.0
 10
-703.2050216382
 20
175.5142336999
 30
0.0
 10
-703.1752462177
 20
175.8609136072
 30
0.0
 10
-703.0437804286
 20
176.5178508162
 30
0.0
 10
-702.6830412063
 20
177.2521672872
 30
0.0
 10
-702.2937579268
 20
177.696602738
 30
0.0
 10
-701.9767976154
 20
177.9367911665
 30
0.0
 10
-701.6341717761
 20
178.0861509353
 30
0.0
 10
-701.3937892291
 20
178.1202945164
 30
0.0
 10
-701.2766608402
 20
178.120294664
 30
0.0
  0
SPLINE
  5
678
100
AcDbEntity
  8
0
100
AcDbSpline
 62
9
  6
CONTINUOUS
 70
0
 71
3
 72
11
 73
7
 74
0
 42
0.0000001
 43
0.0000001
 44
0.0000000001
 40
0.0
 40
0.0
 40
0.0
 40
0.0
 40
0.2500171163
 40
0.5000209104
 40
0.750013656
 40
1.0
 40
1.0
 40
1.0
 40
1.0
 10
-701.3988446506
 20
228.0439894412
 30
0.0
 10
-701.1744601457
 20
227.8364581742
 30
0.0
 10
-700.6870303688
 20
227.4610412373
 30
0.0
 10
-699.8659816071
 20
227.0415750431
 30
0.0
 10
-698.9811223125
 20
226.7821358895
 30
0.0
 10
-698.3683281557
 20
226.7236201195
 30
0.0
 10
-698.0627227918
 20
226.7236202252
 30
0.0
  0
SPLINE
  5
679
100
AcDbEntity
  8
0
100
AcDbSpline
 62
9
  6
CONTINUOUS
 70
0
 71
3
 72
10
 73
6
 74
0
 42
0.0000001
 43
0.0000001
 44
0.0000000001
 40
0.0
 40
0.0
 40
0.0
 40
0.0
 40
0.4999999908
 40
0.7500000501
 40
1.0
 40
1.0
 40
1.0
 40
1.0
 10
-733.0254909086
 20
255.2686446311
 30
0.0
 10
-727.7663567079
 20
250.7846394469
 30
0.0
 10
-719.8868050691
 20
244.0478544586
 30
0.0
 10
-709.4158023203
 20
235.0246770588
 30
0.0
 10
-704.1972998985
 20
230.4934008928
 30
0.0
 10
-701.5944619042
 20
228.2204229382
 30
0.0
  0
SPLINE
  5
67A
100
AcDbEntity
  8
0
100
AcDbSpline
 62
7
  6
CONTINUOUS
 70
0
 71
3
 72
10
 73
6
 74
0
 42
0.0000001
 43
0.0000001
 44
0.0000000001
 40
0.0
 40
0.0
 40
0.0
 40
0.0
 40
0.2765642453
 40
0.5374748879
 40
1.0
 40
1.0
 40
1.0
 40
1.0
 10
-959.3629298758
 20
378.120294664
 30
0.0
 10
-958.3434265532
 20
379.9436275679
 30
0.0
 10
-955.9805868391
 20
383.2887335426
 30
0.0
 10
-950.5750385844
 20
388.582339132
 30
0.0
 10
-945.6616161023
 20
391.3785171666
 30
0.0
 10
-942.3049467309
 20
392.3471719354
 30
0.0
  0
SPLINE
  5
67B
100
AcDbEntity
  8
0
100
AcDbSpline
 62
9
  6
CONTINUOUS
 70
0
 71
3
 72
28
 73
24
 74
0
 42
0.0000001
 43
0.0000001
 44
0.0000000001
 40
0.0
 40
0.0
 40
0.0
 40
0.0
 40
0.0001768175
 40
0.0007065464
 40
0.0015892111
 40
0.0028257805
 40
0.0063655203
 40
0.0113355708
 40
0.0177484587
 40
0.02562489
 40
0.0349874662
 40
0.0458647637
 40
0.0723099121
 40
0.1053182617
 40
0.1453755396
 40
0.1931274441
 40
0.2494180338
 40
0.3153350688
 40
0.3922520521
 40
0.4818573661
 40
0.7070500693
 40
0.8458491719
 40
1.0
 40
1.0
 40
1.0
 40
1.0
 10
-956.4224927584
 20
31.9536133109
 30
0.0
 10
-956.4237208938
 20
31.9550420023
 30
0.0
 10
-956.4213745468
 20
31.9636610752
 30
0.0
 10
-956.4248915472
 20
31.9795093573
 30
0.0
 10
-956.4248445529
 20
32.0082985427
 30
0.0
 10
-956.4289049927
 20
32.0681465937
 30
0.0
 10
-956.4338527049
 20
32.1721158062
 30
0.0
 10
-956.443251084
 20
32.3307272154
 30
0.0
 10
-956.4555004657
 20
32.5356162446
 30
0.0
 10
-956.4719824182
 20
32.7870750011
 30
0.0
 10
-956.4931254104
 20
33.0859168061
 30
0.0
 10
-956.5314409784
 20
33.5818727802
 30
0.0
 10
-956.5979679087
 20
34.328332493
 30
0.0
 10
-956.7112965208
 20
35.382622827
 30
0.0
 10
-956.8762184469
 20
36.6594488653
 30
0.0
 10
-957.1093057781
 20
38.1772089957
 30
0.0
 10
-957.4297351953
 20
39.9597729109
 30
0.0
 10
-957.8581794275
 20
42.0379700314
 30
0.0
 10
-958.4144747666
 20
44.4515542835
 30
0.0
 10
-959.4236642261
 20
48.5014363192
 30
0.0
 10
-960.6544466253
 20
53.1765191806
 30
0.0
 10
-961.7935852227
 20
58.5797172101
 30
0.0
 10
-962.189520879
 20
61.6854042733
 30
0.0
 10
-962.2697476968
 20
63.3259340775
 30
0.0
  0
SPLINE
  5
67C
100
AcDbEntity
  8
0
100
AcDbSpline
 62
9
  6
CONTINUOUS
 70
0
 71
3
 72
28
 73
24
 74
0
 42
0.0000001
 43
0.0000001
 44
0.0000000001
 40
0.0
 40
0.0
 40
0.0
 40
0.0
 40
0.0001703133
 40
0.0006805335
 40
0.0015306361
 40
0.0027216659
 40
0.0061321026
 40
0.0109230726
 40
0.0171079099
 40
0.0247094691
 40
0.0337535669
 40
0.0442706374
 40
0.0698882179
 40
0.1019589165
 40
0.1410225147
 40
0.1877992909
 40
0.2432356086
 40
0.3085558003
 40
0.3853142804
 40
0.4754156541
 40
0.7041566204
 40
0.8453310547
 40
1.0
 40
1.0
 40
1.0
 40
1.0
 10
-959.2460019484
 20
33.1202767829
 30
0.0
 10
-959.2472918236
 20
33.1214644837
 30
0.0
 10
-959.2448707206
 20
33.1298241417
 30
0.0
 10
-959.2486065991
 20
33.1442328574
 30
0.0
 10
-959.2486618246
 20
33.1711964134
 30
0.0
 10
-959.2531210983
 20
33.2267561944
 30
0.0
 10
-959.2586663716
 20
33.3235899202
 30
0.0
 10
-959.2690787909
 20
33.4711914435
 30
0.0
 10
-959.2826273673
 20
33.662023141
 30
0.0
 10
-959.3007602103
 20
33.8963474857
 30
0.0
 10
-959.3239776616
 20
34.175034957
 30
0.0
 10
-959.3658709667
 20
34.6382669024
 30
0.0
 10
-959.4383514064
 20
35.3367444303
 30
0.0
 10
-959.5612400527
 20
36.3252893852
 30
0.0
 10
-959.739878068
 20
37.5261202304
 30
0.0
 10
-959.9928813129
 20
38.9586088644
 30
0.0
 10
-960.3427601977
 20
40.6477949123
 30
0.0
 10
-960.8155172765
 20
42.6258385011
 30
0.0
 10
-961.4394960746
 20
44.9336175394
 30
0.0
 10
-962.6024280059
 20
48.8371080373
 30
0.0
 10
-964.0932324333
 20
53.3337878873
 30
0.0
 10
-965.602209815
 20
58.5182138549
 30
0.0
 10
-966.1568944135
 20
61.5314754385
 30
0.0
 10
-966.2627078899
 20
63.120294664
 30
0.0
  0
SPLINE
  5
67D
100
AcDbEntity
  8
0
100
AcDbSpline
 62
9
  6
CONTINUOUS
 70
0
 71
3
 72
15
 73
11
 74
0
 42
0.0000001
 43
0.0000001
 44
0.0000000001
 40
0.0
 40
0.0
 40
0.0
 40
0.0
 40
0.0098652269
 40
0.0264798526
 40
0.0849957061
 40
0.1775775347
 40
0.3010203172
 40
0.4509960272
 40
0.6219954092
 40
1.0
 40
1.0
 40
1.0
 40
1.0
 10
-962.3058508543
 20
64.7229409645
 30
0.0
 10
-962.3058170766
 20
64.7096229755
 30
0.0
 10
-962.3304088488
 20
64.6774323513
 30
0.0
 10
-962.432789046
 20
64.6278088528
 30
0.0
 10
-962.6549663212
 20
64.5713971808
 30
0.0
 10
-963.020297529
 20
64.5149272476
 30
0.0
 10
-963.5123081719
 20
64.4632915281
 30
0.0
 10
-964.1106647777
 20
64.4207062058
 30
0.0
 10
-965.0533859597
 20
64.3766134629
 30
0.0
 10
-965.7946414683
 20
64.3645745449
 30
0.0
 10
-966.3049467309
 20
64.3645690146
 30
0.0
  0
SPLINE
  5
67E
100
AcDbEntity
  8
0
100
AcDbSpline
 62
7
  6
CONTINUOUS
 70
0
 71
3
 72
9
 73
5
 74
0
 42
0.0000001
 43
0.0000001
 44
0.0000000001
 40
0.0
 40
0.0
 40
0.0
 40
0.0
 40
0.4913858062
 40
1.0
 40
1.0
 40
1.0
 40
1.0
 10
-769.8049467309
 20
325.7648780677
 30
0.0
 10
-769.8049467309
 20
323.2804228252
 30
0.0
 10
-770.2813778315
 20
318.2175486239
 30
0.0
 10
-771.531533276
 20
313.3020241204
 30
0.0
 10
-772.3049467309
 20
310.8495225104
 30
0.0
  0
SPLINE
  5
67F
100
AcDbEntity
  8
0
100
AcDbSpline
 62
7
  6
CONTINUOUS
 70
0
 71
3
 72
16
 73
12
 74
0
 42
0.0000001
 43
0.0000001
 44
0.0000000001
 40
0.0
 40
0.0
 40
0.0
 40
0.0
 40
0.2418129761
 40
0.364521965
 40
0.4884205356
 40
0.6135832839
 40
0.7402024276
 40
0.8042698196
 40
0.8689544359
 40
0.9342554042
 40
1.0
 40
1.0
 40
1.0
 40
1.0
 10
-772.3049467309
 20
310.8495225104
 30
0.0
 10
-772.8316299399
 20
309.1794049169
 30
0.0
 10
-773.7406687639
 20
306.694931751
 30
0.0
 10
-775.2205420469
 20
303.4806078545
 30
0.0
 10
-776.5048569466
 20
301.1112736958
 30
0.0
 10
-778.0003708399
 20
298.8345001903
 30
0.0
 10
-779.4837556724
 20
297.0789601858
 30
0.0
 10
-780.8773296506
 20
295.8572443893
 30
0.0
 10
-782.055871195
 20
295.0803306138
 30
0.0
 10
-783.3757518209
 20
294.5348958179
 30
0.0
 10
-784.3288280156
 20
294.3975061261
 30
0.0
 10
-784.8049467309
 20
294.3975061261
 30
0.0
  0
SPLINE
  5
680
100
AcDbEntity
  8
0
100
AcDbSpline
 62
7
  6
CONTINUOUS
 70
0
 71
3
 72
22
 73
18
 74
0
 42
0.0000001
 43
0.0000001
 44
0.0000000001
 40
0.0
 40
0.0
 40
0.0
 40
0.0
 40
0.0339704695
 40
0.0677641404
 40
0.1012647563
 40
0.1344635166
 40
0.2001154669
 40
0.2650497626
 40
0.2972912664
 40
0.3293880308
 40
0.3931576356
 40
0.4563893977
 40
0.5190854186
 40
0.6428111831
 40
0.7642643149
 40
0.8833386955
 40
1.0
 40
1.0
 40
1.0
 40
1.0
 10
-839.8049467309
 20
294.3975061261
 30
0.0
 10
-840.2261902493
 20
294.3975061261
 30
0.0
 10
-841.0693750812
 20
294.5048482702
 30
0.0
 10
-842.2564541297
 20
294.9387151326
 30
0.0
 10
-843.3342850347
 20
295.5746264132
 30
0.0
 10
-844.6256493463
 20
296.5931194967
 30
0.0
 10
-846.0177706876
 20
298.0860239307
 30
0.0
 10
-847.2016852319
 20
299.7251542689
 30
0.0
 10
-848.0531387897
 20
301.0837935762
 30
0.0
 10
-848.8446883441
 20
302.4614878001
 30
0.0
 10
-849.7418891247
 20
304.2200058477
 30
0.0
 10
-850.6961201347
 20
306.3711135896
 30
0.0
 10
-851.8171226075
 20
309.2577586963
 30
0.0
 10
-852.9720583035
 20
312.9013859561
 30
0.0
 10
-853.9956184941
 20
317.3054956234
 30
0.0
 10
-854.6438581291
 20
321.6920773046
 30
0.0
 10
-854.8049467309
 20
324.6167053631
 30
0.0
 10
-854.8049467309
 20
326.0633388397
 30
0.0
  0
SPLINE
  5
681
100
AcDbEntity
  8
0
100
AcDbSpline
 62
7
  6
CONTINUOUS
 70
0
 71
3
 72
9
 73
5
 74
0
 42
0.0000001
 43
0.0000001
 44
0.0000000001
 40
0.0
 40
0.0
 40
0.0
 40
0.0
 40
0.5000717092
 40
1.0
 40
1.0
 40
1.0
 40
1.0
 10
-962.3049467309
 20
366.6016841185
 30
0.0
 10
-962.3049467309
 20
368.599505795
 30
0.0
 10
-961.8194803309
 20
372.610504393
 30
0.0
 10
-960.3376544418
 20
376.3770464233
 30
0.0
 10
-959.3629298758
 20
378.120294664
 30
0.0
  0
SPLINE
  5
682
100
AcDbEntity
  8
0
100
AcDbSpline
 62
9
  6
CONTINUOUS
 70
0
 71
3
 72
15
 73
11
 74
0
 42
0.0000001
 43
0.0000001
 44
0.0000000001
 40
0.0
 40
0.0
 40
0.0
 40
0.0
 40
0.1225763207
 40
0.2455817734
 40
0.3692233322
 40
0.4937162359
 40
0.6191281838
 40
0.7454181278
 40
0.8724195391
 40
1.0
 40
1.0
 40
1.0
 40
1.0
 10
-752.3049467309
 20
373.1202946698
 30
0.0
 10
-752.3055753663
 20
374.2744630545
 30
0.0
 10
-752.5238510575
 20
376.5925845079
 30
0.0
 10
-753.4954277931
 20
379.9508650823
 30
0.0
 10
-755.0800410168
 20
383.088196107
 30
0.0
 10
-757.2237475784
 20
385.9012312264
 30
0.0
 10
-759.8574024342
 20
388.2985705277
 30
0.0
 10
-762.8952450262
 20
390.201796493
 30
0.0
 10
-766.2373724657
 20
391.5502409389
 30
0.0
 10
-768.5969058493
 20
392.0483847075
 30
0.0
 10
-769.7893540063
 20
392.1938431514
 30
0.0
  0
SPLINE
  5
683
100
AcDbEntity
  8
0
100
AcDbSpline
 62
9
  6
CONTINUOUS
 70
0
 71
3
 72
17
 73
13
 74
0
 42
0.0000001
 43
0.0000001
 44
0.0000000001
 40
0.0
 40
0.0
 40
0.0
 40
0.0
 40
0.1949884978
 40
0.3825495826
 40
0.5553976762
 40
0.7069526184
 40
0.831354665
 40
0.9238196845
 40
0.9569036386
 40
0.9807660995
 40
0.9951661283
 40
1.0
 40
1.0
 40
1.0
 40
1.0
 10
1842.5223718482
 20
373.120294664
 30
0.0
 10
1842.578945249
 20
374.4200813886
 30
0.0
 10
1842.6809236465
 20
376.9705270996
 30
0.0
 10
1842.8342345918
 20
380.6731201046
 30
0.0
 10
1842.9746694861
 20
384.0861985093
 30
0.0
 10
1843.0965105746
 20
387.0782729725
 30
0.0
 10
1843.1974926323
 20
389.5344054844
 30
0.0
 10
1843.264577719
 20
391.2008123565
 30
0.0
 10
1843.3060399542
 20
392.1968453668
 30
0.0
 10
1843.3237261954
 20
392.6725953684
 30
0.0
 10
1843.3383282072
 20
392.9597322187
 30
0.0
 10
1843.340511161
 20
393.0881437263
 30
0.0
 10
1843.3430853465
 20
393.1202937682
 30
0.0
  0
SPLINE
  5
684
100
AcDbEntity
  8
0
100
AcDbSpline
 62
9
  6
CONTINUOUS
 70
0
 71
3
 72
17
 73
13
 74
0
 42
0.0000001
 43
0.0000001
 44
0.0000000001
 40
0.0
 40
0.0
 40
0.0
 40
0.0
 40
0.004833871
 40
0.0192339004
 40
0.0430963616
 40
0.0761803156
 40
0.1686453349
 40
0.2930473815
 40
0.4446023237
 40
0.6174504175
 40
0.8050115021
 40
1.0
 40
1.0
 40
1.0
 40
1.0
 10
1753.3430470368
 20
393.1202937683
 30
0.0
 10
1753.3456212202
 20
393.0881437305
 30
0.0
 10
1753.3478041842
 20
392.9597322247
 30
0.0
 10
1753.3624061882
 20
392.6725953731
 30
0.0
 10
1753.3800924106
 20
392.1968453663
 30
0.0
 10
1753.4215546166
 20
391.200812354
 30
0.0
 10
1753.4886399501
 20
389.5344054933
 30
0.0
 10
1753.5896214379
 20
387.0782729597
 30
0.0
 10
1753.7114634026
 20
384.0861985308
 30
0.0
 10
1753.8518971785
 20
380.6731200834
 30
0.0
 10
1754.0052083951
 20
376.9705270762
 30
0.0
 10
1754.1071965725
 20
374.4200818001
 30
0.0
 10
1754.1637605335
 20
373.120294664
 30
0.0
  0
SPLINE
  5
685
100
AcDbEntity
  8
0
100
AcDbSpline
 62
9
  6
CONTINUOUS
 70
0
 71
3
 72
23
 73
19
 74
0
 42
0.0000001
 43
0.0000001
 44
0.0000000001
 40
0.0
 40
0.0
 40
0.0
 40
0.0
 40
0.1949781409
 40
0.3825298334
 40
0.5553722143
 40
0.6342045614
 40
0.7069269884
 40
0.7728546114
 40
0.8313346912
 40
0.8818199305
 40
0.9238086399
 40
0.9568969711
 40
0.970002399
 40
0.9807628072
 40
0.9891541514
 40
0.9951649008
 40
0.998783901
 40
1.0
 40
1.0
 40
1.0
 40
1.0
 10
1754.1637605318
 20
373.1202946698
 30
0.0
 10
1753.7981277869
 20
374.3689305337
 30
0.0
 10
1753.074716618
 20
376.8168614828
 30
0.0
 10
1752.0365255578
 20
380.3744144054
 30
0.0
 10
1751.2200102105
 20
383.1892933835
 30
0.0
 10
1750.6186921453
 20
385.2687653864
 30
0.0
 10
1750.2168993378
 20
386.6632728166
 30
0.0
 10
1749.8536239989
 20
387.9275451145
 30
0.0
 10
1749.5319006813
 20
389.0493636771
 30
0.0
 10
1749.2546683268
 20
390.017767926
 30
0.0
 10
1749.0242499795
 20
390.823309459
 30
0.0
 10
1748.8628277555
 20
391.3892049213
 30
0.0
 10
1748.7582870991
 20
391.7545355544
 30
0.0
 10
1748.6998552428
 20
391.9618244298
 30
0.0
 10
1748.6523607787
 20
392.122564821
 30
0.0
 10
1748.6228337683
 20
392.2399092682
 30
0.0
 10
1748.597024445
 20
392.3065432967
 30
0.0
 10
1748.5944036833
 20
392.3406621089
 30
0.0
 10
1748.5895672314
 20
392.347178267
 30
0.0
  0
SPLINE
  5
686
100
AcDbEntity
  8
0
100
AcDbSpline
 62
9
  6
CONTINUOUS
 70
0
 71
3
 72
16
 73
12
 74
0
 42
0.0000001
 43
0.0000001
 44
0.0000000001
 40
0.0
 40
0.0
 40
0.0
 40
0.0
 40
0.0085745816
 40
0.0244442913
 40
0.0820996621
 40
0.1741484816
 40
0.2973216019
 40
0.4473628381
 40
0.6188926538
 40
0.8057751154
 40
1.0
 40
1.0
 40
1.0
 40
1.0
 10
1848.0965870099
 20
392.3471710146
 30
0.0
 10
1848.0859117056
 20
392.3507378973
 30
0.0
 10
1848.0689904817
 20
392.3841099667
 30
0.0
 10
1848.0638686789
 20
392.4889577281
 30
0.0
 10
1848.0885556057
 20
392.7087165302
 30
0.0
 10
1848.1581773333
 20
393.0583691076
 30
0.0
 10
1848.2699486922
 20
393.5254775502
 30
0.0
 10
1848.4217311132
 20
394.0889706595
 30
0.0
 10
1848.6079431668
 20
394.7300175527
 30
0.0
 10
1848.8218967971
 20
395.4231683201
 30
0.0
 10
1848.9762337257
 20
395.8990535629
 30
0.0
 10
1849.0565974082
 20
396.1410058745
 30
0.0
  0
SPLINE
  5
687
100
AcDbEntity
  8
0
100
AcDbSpline
 62
9
  6
CONTINUOUS
 70
0
 71
3
 72
18
 73
14
 74
0
 42
0.0000001
 43
0.0000001
 44
0.0000000001
 40
0.0
 40
0.0
 40
0.0
 40
0.0
 40
0.0058945966
 40
0.0206703622
 40
0.0446616766
 40
0.0777727646
 40
0.1197920843
 40
0.1702536686
 40
0.2943697434
 40
0.4455618078
 40
0.6181618316
 40
0.8057485545
 40
1.0
 40
1.0
 40
1.0
 40
1.0
 10
1843.3430661496
 20
393.1201147302
 30
0.0
 10
1843.3351887484
 20
393.1201112064
 30
0.0
 10
1843.3245232669
 20
393.1559096071
 30
0.0
 10
1843.3134237241
 20
393.2060331724
 30
0.0
 10
1843.3007844422
 20
393.3059527025
 30
0.0
 10
1843.2886128203
 20
393.435857618
 30
0.0
 10
1843.2766313918
 20
393.6040403974
 30
0.0
 10
1843.2603018392
 20
393.8926901216
 30
0.0
 10
1843.2428106024
 20
394.3279341337
 30
0.0
 10
1843.2263311131
 20
394.9261994889
 30
0.0
 10
1843.2139813933
 20
395.6095216485
 30
0.0
 10
1843.2064175207
 20
396.3504180517
 30
0.0
 10
1843.2046802153
 20
396.8607015436
 30
0.0
 10
1843.2046807292
 20
397.1202946626
 30
0.0
  0
SPLINE
  5
688
100
AcDbEntity
  8
0
100
AcDbSpline
 62
9
  6
CONTINUOUS
 70
0
 71
3
 72
23
 73
19
 74
0
 42
0.0000001
 43
0.0000001
 44
0.0000000001
 40
0.0
 40
0.0
 40
0.0
 40
0.0
 40
0.0012160995
 40
0.0048350998
 40
0.0108458491
 40
0.0192371929
 40
0.0299976009
 40
0.0431030288
 40
0.0761913601
 40
0.1181800696
 40
0.1686653088
 40
0.2271453886
 40
0.2930730118
 40
0.3657954388
 40
0.4446277858
 40
0.6174701667
 40
0.8050218591
 40
1.0
 40
1.0
 40
1.0
 40
1.0
 10
1848.0965651486
 20
392.3471782674
 30
0.0
 10
1848.0917288708
 20
392.3406619755
 30
0.0
 10
1848.0891076794
 20
392.3065434764
 30
0.0
 10
1848.0632987641
 20
392.2399091409
 30
0.0
 10
1848.033771519
 20
392.1225648699
 30
0.0
 10
1847.9862771611
 20
391.9618244063
 30
0.0
 10
1847.9278452749
 20
391.7545355615
 30
0.0
 10
1847.8233046577
 20
391.3892049098
 30
0.0
 10
1847.6618824387
 20
390.8233094507
 30
0.0
 10
1847.4314640446
 20
390.0177679278
 30
0.0
 10
1847.1542315993
 20
389.0493637059
 30
0.0
 10
1846.8325083239
 20
387.9275451309
 30
0.0
 10
1846.4692332031
 20
386.6632727694
 30
0.0
 10
1846.0674404975
 20
385.2687653087
 30
0.0
 10
1845.4661216781
 20
383.1892935245
 30
0.0
 10
1844.6496074353
 20
380.3744142285
 30
0.0
 10
1843.6114160707
 20
376.816861394
 30
0.0
 10
1842.8879955614
 20
374.3689331785
 30
0.0
 10
1842.52237185
 20
373.1202946699
 30
0.0
  0
SPLINE
  5
689
100
AcDbEntity
  8
0
100
AcDbSpline
 62
9
  6
CONTINUOUS
 70
0
 71
3
 72
32
 73
28
 74
0
 42
0.0000001
 43
0.0000001
 44
0.0000000001
 40
0.0
 40
0.0
 40
0.0
 40
0.0
 40
0.1440885
 40
0.2870144413
 40
0.4281579879
 40
0.4978189226
 40
0.5666823481
 40
0.6345480886
 40
0.7011386305
 40
0.7660401834
 40
0.7976651001
 40
0.8285874541
 40
0.8586409425
 40
0.8875996815
 40
0.9151265087
 40
0.9407138668
 40
0.9525518324
 40
0.9635801291
 40
0.9736039187
 40
0.9824208669
 40
0.9897647494
 40
0.9927850204
 40
0.9953175843
 40
0.9973283743
 40
0.9987939379
 40
0.9996919294
 40
1.0
 40
1.0
 40
1.0
 40
1.0
 10
1849.0565973779
 20
396.1410058745
 30
0.0
 10
1852.0014722531
 20
395.1281851744
 30
0.0
 10
1857.8071752886
 20
392.9300008536
 30
0.0
 10
1866.2475820357
 20
389.1230629477
 30
0.0
 10
1873.0127834579
 20
385.5502064372
 30
0.0
 10
1878.2181673987
 20
382.4762136349
 30
0.0
 10
1881.9852950925
 20
380.0858664145
 30
0.0
 10
1885.6178003643
 20
377.6115858877
 30
0.0
 10
1889.0966053333
 20
375.0680064878
 30
0.0
 10
1891.8694838
 20
372.8895591759
 30
0.0
 10
1893.9878626217
 20
371.1286708016
 30
0.0
 10
1895.5026288729
 20
369.8204293651
 30
0.0
 10
1896.9486173721
 20
368.5212829748
 30
0.0
 10
1898.3142608123
 20
367.243084659
 30
0.0
 10
1899.5833689251
 20
366.0035928054
 30
0.0
 10
1900.566069148
 20
365.0009306744
 30
0.0
 10
1901.2861385063
 20
364.2405208004
 30
0.0
 10
1901.7690561292
 20
363.718872042
 30
0.0
 10
1902.2027559411
 20
363.2406773667
 30
0.0
 10
1902.5785564818
 20
362.8175449814
 30
0.0
 10
1902.8511398739
 20
362.505148263
 30
0.0
 10
1903.0329089166
 20
362.2939065726
 30
0.0
 10
1903.1397547111
 20
362.1700234961
 30
0.0
 10
1903.2227600149
 20
362.070545479
 30
0.0
 10
1903.2869040662
 20
362.0000230565
 30
0.0
 10
1903.318825641
 20
361.9531072119
 30
0.0
 10
1903.3412125835
 20
361.936090873
 30
0.0
 10
1903.3430661909
 20
361.9296957762
 30
0.0
  0
SPLINE
  5
68A
100
AcDbEntity
  8
0
100
AcDbSpline
 62
7
  6
CONTINUOUS
 70
0
 71
3
 72
9
 73
5
 74
0
 42
0.0000001
 43
0.0000001
 44
0.0000000001
 40
0.0
 40
0.0
 40
0.0
 40
0.0
 40
0.5050854238
 40
1.0
 40
1.0
 40
1.0
 40
1.0
 10
1664.8430661909
 20
325.7648780677
 30
0.0
 10
1663.3344712704
 20
323.318528378
 30
0.0
 10
1660.4269213073
 20
318.4259265932
 30
0.0
 10
1657.7606955112
 20
313.3929474691
 30
0.0
 10
1656.551504215
 20
310.8495225104
 30
0.0
  0
SPLINE
  5
68B
100
AcDbEntity
  8
0
100
AcDbSpline
 62
7
  6
CONTINUOUS
 70
0
 71
3
 72
10
 73
6
 74
0
 42
0.0000001
 43
0.0000001
 44
0.0000000001
 40
0.0
 40
0.0
 40
0.0
 40
0.0
 40
0.2341203603
 40
0.4822896946
 40
1.0
 40
1.0
 40
1.0
 40
1.0
 10
1728.1346281667
 20
383.8663069744
 30
0.0
 10
1727.4712429253
 20
383.5346385434
 30
0.0
 10
1726.1220863912
 20
382.8167020312
 30
0.0
 10
1723.3612472135
 20
381.2631215549
 30
0.0
 10
1721.262933727
 20
380.0448703451
 30
0.0
 10
1719.8430661909
 20
379.2240157257
 30
0.0
  0
SPLINE
  5
68C
100
AcDbEntity
  8
0
100
AcDbSpline
 62
9
  6
CONTINUOUS
 70
0
 71
3
 72
15
 73
11
 74
0
 42
0.0000001
 43
0.0000001
 44
0.0000000001
 40
0.0
 40
0.0
 40
0.0
 40
0.0
 40
0.1245016175
 40
0.2490566544
 40
0.3737531405
 40
0.498635623
 40
0.6237284471
 40
0.7490217694
 40
0.8744638449
 40
1.0
 40
1.0
 40
1.0
 40
1.0
 10
1046.6248260591
 20
-290.8711791888
 30
0.0
 10
1046.624833442
 20
-291.1305081254
 30
0.0
 10
1046.6763613115
 20
-291.6507370675
 30
0.0
 10
1046.9054098709
 20
-292.3998537055
 30
0.0
 10
1047.2773389701
 20
-293.090496787
 30
0.0
 10
1047.7779584614
 20
-293.6957429318
 30
0.0
 10
1048.3879952057
 20
-294.1924485565
 30
0.0
 10
1049.0841056921
 20
-294.5614904926
 30
0.0
 10
1049.839140579
 20
-294.7887823304
 30
0.0
 10
1050.3633422467
 20
-294.8399103155
 30
0.0
 10
1050.6248260591
 20
-294.8399206838
 30
0.0
  0
SPLINE
  5
68D
100
AcDbEntity
  8
0
100
AcDbSpline
 62
9
  6
CONTINUOUS
 70
0
 71
3
 72
11
 73
7
 74
0
 42
0.0000001
 43
0.0000001
 44
0.0000000001
 40
0.0
 40
0.0
 40
0.0
 40
0.0
 40
0.1637100438
 40
0.4006069181
 40
0.68777431
 40
1.0
 40
1.0
 40
1.0
 40
1.0
 10
1115.8846929923
 20
-295.7943597649
 30
0.0
 10
1115.9167644328
 20
-295.626651399
 30
0.0
 10
1115.9764836267
 20
-295.2128053708
 30
0.0
 10
1116.0510220376
 20
-294.4992640048
 30
0.0
 10
1116.1084256448
 20
-293.6286881192
 30
0.0
 10
1116.1248164271
 20
-293.0034853313
 30
0.0
 10
1116.1248165139
 20
-292.6778380934
 30
0.0
  0
SPLINE
  5
68E
100
AcDbEntity
  8
0
100
AcDbSpline
 62
9
  6
CONTINUOUS
 70
0
 71
3
 72
11
 73
7
 74
0
 42
0.0000001
 43
0.0000001
 44
0.0000000001
 40
0.0
 40
0.0
 40
0.0
 40
0.0
 40
0.3123150576
 40
0.599625108
 40
0.836601476
 40
1.0
 40
1.0
 40
1.0
 40
1.0
 10
1116.1248165149
 20
-380.6778380934
 30
0.0
 10
1116.124816427
 20
-380.3521112535
 30
0.0
 10
1116.1080555625
 20
-379.7266891714
 30
0.0
 10
1116.0497186134
 20
-378.8558969537
 30
0.0
 10
1115.9748305388
 20
-378.1424997875
 30
0.0
 10
1115.9156136755
 20
-377.7289032157
 30
0.0
 10
1115.8846931007
 20
-377.5613164768
 30
0.0
  0
SPLINE
  5
68F
100
AcDbEntity
  8
0
100
AcDbSpline
 62
9
  6
CONTINUOUS
 70
0
 71
3
 72
9
 73
5
 74
0
 42
0.0000001
 43
0.0000001
 44
0.0000000001
 40
0.0
 40
0.0
 40
0.0
 40
0.0
 40
0.4956959773
 40
1.0
 40
1.0
 40
1.0
 40
1.0
 10
1115.8846931007
 20
-377.5613164768
 30
0.0
 10
1115.8754205959
 20
-377.5110594467
 30
0.0
 10
1115.8421096788
 20
-377.411234698
 30
0.0
 10
1115.7754408968
 20
-377.3295611374
 30
0.0
 10
1115.7369624717
 20
-377.2945946411
 30
0.0
  0
SPLINE
  5
690
100
AcDbEntity
  8
0
100
AcDbSpline
 62
9
  6
CONTINUOUS
 70
0
 71
3
 72
9
 73
5
 74
0
 42
0.0000001
 43
0.0000001
 44
0.0000000001
 40
0.0
 40
0.0
 40
0.0
 40
0.0
 40
0.2400483714
 40
1.0
 40
1.0
 40
1.0
 40
1.0
 10
1115.7107478588
 20
-377.2722090732
 30
0.0
 10
1115.7041053385
 20
-377.2668720977
 30
0.0
 10
1115.6759563365
 20
-377.2452350168
 30
0.0
 10
1115.646025682
 20
-377.225957985
 30
0.0
 10
1115.6226557139
 20
-377.2124843352
 30
0.0
  0
SPLINE
  5
691
100
AcDbEntity
  8
0
100
AcDbSpline
 62
9
  6
CONTINUOUS
 70
0
 71
3
 72
9
 73
5
 74
0
 42
0.0000001
 43
0.0000001
 44
0.0000000001
 40
0.0
 40
0.0
 40
0.0
 40
0.0
 40
0.2616297948
 40
1.0
 40
1.0
 40
1.0
 40
1.0
 10
1115.6227377967
 20
-296.1431445215
 30
0.0
 10
1115.6310026664
 20
-296.1383782594
 30
0.0
 10
1115.6622736658
 20
-296.1196206577
 30
0.0
 10
1115.6922096518
 20
-296.0985808764
 30
0.0
 10
1115.7131228839
 20
-296.0816211104
 30
0.0
  0
SPLINE
  5
692
100
AcDbEntity
  8
0
100
AcDbSpline
 62
9
  6
CONTINUOUS
 70
0
 71
3
 72
9
 73
5
 74
0
 42
0.0000001
 43
0.0000001
 44
0.0000000001
 40
0.0
 40
0.0
 40
0.0
 40
0.0
 40
0.5029782956
 40
1.0
 40
1.0
 40
1.0
 40
1.0
 10
1115.7374500238
 20
-296.0607292695
 30
0.0
 10
1115.7757154044
 20
-296.0258882951
 30
0.0
 10
1115.8420292402
 20
-295.9441618675
 30
0.0
 10
1115.8750879331
 20
-295.8445874362
 30
0.0
 10
1115.8846929923
 20
-295.7943597649
 30
0.0
  0
SPLINE
  5
693
100
AcDbEntity
  8
0
100
AcDbSpline
 62
9
  6
CONTINUOUS
 70
0
 71
3
 72
11
 73
7
 74
0
 42
0.0000001
 43
0.0000001
 44
0.0000000001
 40
0.0
 40
0.0
 40
0.0
 40
0.0
 40
0.2499364461
 40
0.4999140573
 40
0.7499420178
 40
1.0
 40
1.0
 40
1.0
 40
1.0
 10
1050.6248260591
 20
-381.4690202613
 30
0.0
 10
1050.493794555
 20
-381.4690302832
 30
0.0
 10
1050.2287396551
 20
-381.5228242727
 30
0.0
 10
1049.8963287092
 20
-381.7510982904
 30
0.0
 10
1049.6760041789
 20
-382.0884642787
 30
0.0
 10
1049.6248356627
 20
-382.3534017774
 30
0.0
 10
1049.6248260591
 20
-382.4844969979
 30
0.0
  0
SPLINE
  5
694
100
AcDbEntity
  8
0
100
AcDbSpline
 62
9
  6
CONTINUOUS
 70
0
 71
3
 72
11
 73
7
 74
0
 42
0.0000001
 43
0.0000001
 44
0.0000000001
 40
0.0
 40
0.0
 40
0.0
 40
0.0
 40
0.2500083417
 40
0.5000052994
 40
0.7499996279
 40
1.0
 40
1.0
 40
1.0
 40
1.0
 10
1078.0965401685
 20
-382.6568350207
 30
0.0
 10
1077.8748582716
 20
-382.4680393598
 30
0.0
 10
1077.3975594326
 20
-382.1283324851
 30
0.0
 10
1076.6043670323
 20
-381.7521225427
 30
0.0
 10
1075.7574226329
 20
-381.5209660986
 30
0.0
 10
1075.1737743362
 20
-381.4690299716
 30
0.0
 10
1074.88260212
 20
-381.4690202613
 30
0.0
  0
SPLINE
  5
695
100
AcDbEntity
  8
0
100
AcDbSpline
 62
9
  6
CONTINUOUS
 70
0
 71
3
 72
11
 73
7
 74
0
 42
0.0000001
 43
0.0000001
 44
0.0000000001
 40
0.0
 40
0.0
 40
0.0
 40
0.0
 40
0.2500043589
 40
0.5000039987
 40
0.7500015826
 40
1.0
 40
1.0
 40
1.0
 40
1.0
 10
1111.6248260591
 20
-413.3967471607
 30
0.0
 10
1111.624812902
 20
-413.0322307541
 30
0.0
 10
1111.5453796241
 20
-412.3007609091
 30
0.0
 10
1111.1931483905
 20
-411.2567277472
 30
0.0
 10
1110.6245313823
 20
-410.3129010279
 30
0.0
 10
1110.117291913
 20
-409.7797967374
 30
0.0
 10
1109.8387641075
 20
-409.5446623992
 30
0.0
  0
SPLINE
  5
696
100
AcDbEntity
  8
0
100
AcDbSpline
 62
9
  6
CONTINUOUS
 70
0
 71
3
 72
11
 73
7
 74
0
 42
0.0000001
 43
0.0000001
 44
0.0000000001
 40
0.0
 40
0.0
 40
0.0
 40
0.0
 40
0.2499984174
 40
0.4999960013
 40
0.7499956411
 40
1.0
 40
1.0
 40
1.0
 40
1.0
 10
1109.8387641075
 20
-263.8110137876
 30
0.0
 10
1110.1172919135
 20
-263.5758794499
 30
0.0
 10
1110.6245313819
 20
-263.0427751585
 30
0.0
 10
1111.1931483906
 20
-262.0989484397
 30
0.0
 10
1111.545379624
 20
-261.0549152777
 30
0.0
 10
1111.624812902
 20
-260.3234454327
 30
0.0
 10
1111.6248260591
 20
-259.958929026
 30
0.0
  0
SPLINE
  5
697
100
AcDbEntity
  8
0
100
AcDbSpline
 62
9
  6
CONTINUOUS
 70
0
 71
3
 72
11
 73
7
 74
0
 42
0.0000001
 43
0.0000001
 44
0.0000000001
 40
0.0
 40
0.0
 40
0.0
 40
0.0
 40
0.2500003721
 40
0.4999947006
 40
0.7499916583
 40
1.0
 40
1.0
 40
1.0
 40
1.0
 10
1074.88260212
 20
-291.8866559255
 30
0.0
 10
1075.1737743362
 20
-291.8866462151
 30
0.0
 10
1075.7574226328
 20
-291.8347100882
 30
0.0
 10
1076.6043670325
 20
-291.6035536442
 30
0.0
 10
1077.3975594322
 20
-291.2273437011
 30
0.0
 10
1077.8748582725
 20
-290.887636828
 30
0.0
 10
1078.0965401685
 20
-290.698841166
 30
0.0
  0
SPLINE
  5
698
100
AcDbEntity
  8
0
100
AcDbSpline
 62
9
  6
CONTINUOUS
 70
0
 71
3
 72
11
 73
7
 74
0
 42
0.0000001
 43
0.0000001
 44
0.0000000001
 40
0.0
 40
0.0
 40
0.0
 40
0.0
 40
0.2500579822
 40
0.5000859427
 40
0.7500635539
 40
1.0
 40
1.0
 40
1.0
 40
1.0
 10
1049.6248260591
 20
-290.8711791888
 30
0.0
 10
1049.6248356627
 20
-291.0022744093
 30
0.0
 10
1049.6760041789
 20
-291.2672119081
 30
0.0
 10
1049.8963287092
 20
-291.6045778964
 30
0.0
 10
1050.2287396551
 20
-291.832851914
 30
0.0
 10
1050.493794555
 20
-291.8866459037
 30
0.0
 10
1050.6248260591
 20
-291.8866559255
 30
0.0
  0
LINE
  5
699
100
AcDbEntity
  8
0
100
AcDbLine
 62
9
  6
CONTINUOUS
 10
1116.1248260625
 20
-422.4283224321
 11
1116.1248260624
 21
-406.6778380934
  0
LINE
  5
69A
100
AcDbEntity
  8
0
100
AcDbLine
 62
9
  6
CONTINUOUS
 10
1116.1248260625
 20
-266.6778380924
 11
1116.1248260624
 21
-250.9273537544
  0
SPLINE
  5
69B
100
AcDbEntity
  8
0
100
AcDbSpline
 62
9
  6
CONTINUOUS
 70
0
 71
3
 72
15
 73
11
 74
0
 42
0.0000001
 43
0.0000001
 44
0.0000000001
 40
0.0
 40
0.0
 40
0.0
 40
0.0
 40
0.1255361551
 40
0.2509782306
 40
0.3762715529
 40
0.501364377
 40
0.6262468595
 40
0.7509433456
 40
0.8754983825
 40
1.0
 40
1.0
 40
1.0
 40
1.0
 10
1050.6248260591
 20
-378.515755503
 30
0.0
 10
1050.3633422467
 20
-378.5157658714
 30
0.0
 10
1049.839140579
 20
-378.5668938562
 30
0.0
 10
1049.0841056921
 20
-378.7941856942
 30
0.0
 10
1048.3879952057
 20
-379.1632276303
 30
0.0
 10
1047.7779584614
 20
-379.659933255
 30
0.0
 10
1047.27733897
 20
-380.2651793997
 30
0.0
 10
1046.905409871
 20
-380.9558224813
 30
0.0
 10
1046.6763613112
 20
-381.7049391192
 30
0.0
 10
1046.6248334423
 20
-382.2251680613
 30
0.0
 10
1046.6248260591
 20
-382.4844969979
 30
0.0
  0
SPLINE
  5
69C
100
AcDbEntity
  8
0
100
AcDbSpline
 62
7
  6
CONTINUOUS
 70
0
 71
3
 72
13
 73
9
 74
0
 42
0.0000001
 43
0.0000001
 44
0.0000000001
 40
0.0
 40
0.0
 40
0.0
 40
0.0
 40
0.2999382323
 40
0.5761919133
 40
0.7013804809
 40
0.8152099913
 40
0.9153774945
 40
1.0
 40
1.0
 40
1.0
 40
1.0
 10
1319.1248260591
 20
-370.4313592201
 30
0.0
 10
1320.6504444097
 20
-371.7490105832
 30
0.0
 10
1323.638743161
 20
-374.2143751513
 30
0.0
 10
1327.4693445436
 20
-376.9739856065
 30
0.0
 10
1330.4422177193
 20
-378.7542369389
 30
0.0
 10
1332.4862761342
 20
-379.7723939193
 30
0.0
 10
1334.3746562682
 20
-380.4624871573
 30
0.0
 10
1335.6140666135
 20
-380.6778380934
 30
0.0
 10
1336.182809204
 20
-380.6778380934
 30
0.0
  0
SPLINE
  5
69D
100
AcDbEntity
  8
0
100
AcDbSpline
 62
7
  6
CONTINUOUS
 70
0
 71
3
 72
13
 73
9
 74
0
 42
0.0000001
 43
0.0000001
 44
0.0000000001
 40
0.0
 40
0.0
 40
0.0
 40
0.0
 40
0.0845617709
 40
0.1847106717
 40
0.2985341497
 40
0.4237279185
 40
0.7000011648
 40
1.0
 40
1.0
 40
1.0
 40
1.0
 10
1336.182809204
 20
-260.6778380934
 30
0.0
 10
1335.6144744071
 20
-260.6778380934
 30
0.0
 10
1334.3756407185
 20
-260.8931746116
 30
0.0
 10
1332.4875229161
 20
-261.5823121689
 30
0.0
 10
1330.4437123179
 20
-262.6007388813
 30
0.0
 10
1327.4705718221
 20
-264.3807473234
 30
0.0
 10
1323.6394885257
 20
-267.1407239812
 30
0.0
 10
1320.6507537374
 20
-269.6063984423
 30
0.0
 10
1319.1248260591
 20
-270.9243169666
 30
0.0
  0
SPLINE
  5
69E
100
AcDbEntity
  8
0
100
AcDbSpline
 62
9
  6
CONTINUOUS
 70
0
 71
3
 72
20
 73
16
 74
0
 42
0.0000001
 43
0.0000001
 44
0.0000000001
 40
0.0
 40
0.0
 40
0.0
 40
0.0
 40
0.0024169623
 40
0.0065486139
 40
0.0213980596
 40
0.0454532835
 40
0.0786014455
 40
0.1205557618
 40
0.1709343536
 40
0.229257623
 40
0.294993708
 40
0.4461005523
 40
0.6184545165
 40
0.8055135655
 40
1.0
 40
1.0
 40
1.0
 40
1.0
 10
1129.1248260591
 20
-364.8571437507
 30
0.0
 10
1129.1250211703
 20
-364.873313486
 30
0.0
 10
1129.1563679898
 20
-364.9120664421
 30
0.0
 10
1129.2860790033
 20
-364.9694360695
 30
0.0
 10
1129.5695815114
 20
-365.0359306559
 30
0.0
 10
1130.0448728324
 20
-365.1082310148
 30
0.0
 10
1130.7049345251
 20
-365.1821115166
 30
0.0
 10
1131.541278387
 20
-365.2532121967
 30
0.0
 10
1132.547125538
 20
-365.3206026754
 30
0.0
 10
1133.7124958117
 20
-365.383889365
 30
0.0
 10
1135.5517207842
 20
-365.466040278
 30
0.0
 10
1138.1543902149
 20
-365.5505963858
 30
0.0
 10
1141.5693533692
 20
-365.6231168451
 30
0.0
 10
1145.2750445906
 20
-365.6678153485
 30
0.0
 10
1147.8278221409
 20
-365.6778463993
 30
0.0
 10
1149.1290518321
 20
-365.6778573027
 30
0.0
  0
SPLINE
  5
69F
100
AcDbEntity
  8
0
100
AcDbSpline
 62
9
  6
CONTINUOUS
 70
0
 71
3
 72
17
 73
13
 74
0
 42
0.0000001
 43
0.0000001
 44
0.0000000001
 40
0.0
 40
0.0
 40
0.0
 40
0.0
 40
0.1797763638
 40
0.3532088609
 40
0.514142668
 40
0.6572251611
 40
0.7780841241
 40
0.8740288318
 40
0.9126631984
 40
0.9456697078
 40
0.9741848729
 40
1.0
 40
1.0
 40
1.0
 40
1.0
 10
1149.1293348961
 20
-370.431337553
 30
0.0
 10
1147.8275800977
 20
-370.4312329551
 30
0.0
 10
1145.269462957
 20
-370.3636939306
 30
0.0
 10
1141.5568712872
 20
-370.0604665718
 30
0.0
 10
1138.1327056873
 20
-369.5673360228
 30
0.0
 10
1135.1239450635
 20
-368.9048275833
 30
0.0
 10
1132.6429655391
 20
-368.0961166822
 30
0.0
 10
1130.9692016573
 20
-367.2767554011
 30
0.0
 10
1130.0004720975
 20
-366.5388620058
 30
0.0
 10
1129.5061186215
 20
-366.0011084536
 30
0.0
 10
1129.1986451817
 20
-365.4396087887
 30
0.0
 10
1129.1251750738
 20
-365.0440699225
 30
0.0
 10
1129.1248260591
 20
-364.8571437525
 30
0.0
  0
SPLINE
  5
6A0
100
AcDbEntity
  8
0
100
AcDbSpline
 62
9
  6
CONTINUOUS
 70
0
 71
3
 72
20
 73
16
 74
0
 42
0.0000001
 43
0.0000001
 44
0.0000000001
 40
0.0
 40
0.0
 40
0.0
 40
0.0
 40
0.1944864606
 40
0.3815455342
 40
0.5538995215
 40
0.7050063832
 40
0.7707424775
 40
0.8290657597
 40
0.8794443585
 40
0.9213986628
 40
0.954546817
 40
0.9786021013
 40
0.9934516533
 40
0.9975832733
 40
1.0
 40
1.0
 40
1.0
 40
1.0
 10
1149.1290514932
 20
-275.6778188856
 30
0.0
 10
1147.8278218183
 20
-275.6778297881
 30
0.0
 10
1145.2750443043
 20
-275.6878608745
 30
0.0
 10
1141.5693531329
 20
-275.7325592543
 30
0.0
 10
1138.1543900504
 20
-275.8050799687
 30
0.0
 10
1135.5517206677
 20
-275.8896358265
 30
0.0
 10
1133.7124956879
 20
-275.971786595
 30
0.0
 10
1132.5471254248
 20
-276.0350736439
 30
0.0
 10
1131.5412783516
 20
-276.1024645485
 30
0.0
 10
1130.7049347762
 20
-276.1735643726
 30
0.0
 10
1130.0448724567
 20
-276.247444263
 30
0.0
 10
1129.5695811136
 20
-276.3197455185
 30
0.0
 10
1129.286077258
 20
-276.3862463122
 30
0.0
 10
1129.1563692583
 20
-276.4436141827
 30
0.0
 10
1129.1250204473
 20
-276.4823642711
 30
0.0
 10
1129.1248260591
 20
-276.498532436
 30
0.0
  0
SPLINE
  5
6A1
100
AcDbEntity
  8
0
100
AcDbSpline
 62
9
  6
CONTINUOUS
 70
0
 71
3
 72
13
 73
9
 74
0
 42
0.0000001
 43
0.0000001
 44
0.0000000001
 40
0.0
 40
0.0
 40
0.0
 40
0.0
 40
0.0772211
 40
0.1618572378
 40
0.2589076952
 40
0.3716630069
 40
0.6499974724
 40
1.0
 40
1.0
 40
1.0
 40
1.0
 10
1129.1248260591
 20
-276.4985324343
 30
0.0
 10
1129.1251567226
 20
-276.320759395
 30
0.0
 10
1129.1911359886
 20
-275.9462193348
 30
0.0
 10
1129.4690138628
 20
-275.4111462066
 30
0.0
 10
1129.9173758126
 20
-274.896367194
 30
0.0
 10
1130.7961900133
 20
-274.1895002353
 30
0.0
 10
1132.3217734551
 20
-273.3967561041
 30
0.0
 10
1133.6894944982
 20
-272.9188251658
 30
0.0
 10
1134.4615509155
 20
-272.6882464809
 30
0.0
  0
SPLINE
  5
6A2
100
AcDbEntity
  8
0
100
AcDbSpline
 62
9
  6
CONTINUOUS
 70
0
 71
3
 72
14
 73
10
 74
0
 42
0.0000001
 43
0.0000001
 44
0.0000000001
 40
0.0
 40
0.0
 40
0.0
 40
0.0
 40
0.3487285411
 40
0.5076006185
 40
0.6491002916
 40
0.7694553857
 40
0.8666103463
 40
0.9412010321
 40
1.0
 40
1.0
 40
1.0
 40
1.0
 10
1222.7026736941
 20
-370.4313468231
 30
0.0
 10
1222.2024666627
 20
-370.3966401812
 30
0.0
 10
1221.469963575
 20
-370.3874763898
 30
0.0
 10
1220.5400294292
 20
-370.4746219339
 30
0.0
 10
1219.943700506
 20
-370.5813875456
 30
0.0
 10
1219.4470599036
 20
-370.7273905146
 30
0.0
 10
1219.0653913593
 20
-370.9079445735
 30
0.0
 10
1218.8043243708
 20
-371.1213870196
 30
0.0
 10
1218.7209888482
 20
-371.3070748074
 30
0.0
 10
1218.7144909026
 20
-371.3913671824
 30
0.0
  0
SPLINE
  5
6A3
100
AcDbEntity
  8
0
100
AcDbSpline
 62
9
  6
CONTINUOUS
 70
0
 71
3
 72
14
 73
10
 74
0
 42
0.0000001
 43
0.0000001
 44
0.0000000001
 40
0.0
 40
0.0
 40
0.0
 40
0.0
 40
0.3487269895
 40
0.5075983859
 40
0.6490977444
 40
0.769453013
 40
0.8666086263
 40
0.9412002811
 40
1.0
 40
1.0
 40
1.0
 40
1.0
 10
1155.5469784246
 20
-370.4313589125
 30
0.0
 10
1156.0471787857
 20
-370.3966542088
 30
0.0
 10
1156.7796719137
 20
-370.3874916965
 30
0.0
 10
1157.7095939258
 20
-370.4746362331
 30
0.0
 10
1158.3059163516
 20
-370.5814001219
 30
0.0
 10
1158.8025534251
 20
-370.7274007401
 30
0.0
 10
1159.1842218099
 20
-370.9079522509
 30
0.0
 10
1159.4452910977
 20
-371.1213916183
 30
0.0
 10
1159.5286324221
 20
-371.3070768739
 30
0.0
 10
1159.5351336151
 20
-371.3913693107
 30
0.0
  0
SPLINE
  5
6A4
100
AcDbEntity
  8
0
100
AcDbSpline
 62
9
  6
CONTINUOUS
 70
0
 71
3
 72
17
 73
13
 74
0
 42
0.0000001
 43
0.0000001
 44
0.0000000001
 40
0.0
 40
0.0
 40
0.0
 40
0.0
 40
0.1304372923
 40
0.2578969895
 40
0.3822502942
 40
0.5036696501
 40
0.6228779893
 40
0.7417809997
 40
0.8025253483
 40
0.8653180404
 40
0.9312142888
 40
1.0
 40
1.0
 40
1.0
 40
1.0
 10
1155.5469784246
 20
-370.43135922
 30
0.0
 10
1155.7906775239
 20
-373.5126035638
 30
0.0
 10
1156.4834813482
 20
-379.5905337793
 30
0.0
 10
1158.1728179647
 20
-388.4983068493
 30
0.0
 10
1160.5290931862
 20
-397.0343872159
 30
0.0
 10
1163.6241692253
 20
-405.1282861569
 30
0.0
 10
1167.6044731906
 20
-412.6863276067
 30
0.0
 10
1171.9052012379
 20
-418.3802064048
 30
0.0
 10
1176.1529517567
 20
-422.273517548
 30
0.0
 10
1179.9151977263
 20
-424.7654378712
 30
0.0
 10
1184.2881466137
 20
-426.5340049199
 30
0.0
 10
1187.4948672714
 20
-426.9687374614
 30
0.0
 10
1189.1248260591
 20
-426.9697635592
 30
0.0
  0
SPLINE
  5
6A5
100
AcDbEntity
  8
0
100
AcDbSpline
 62
9
  6
CONTINUOUS
 70
0
 71
3
 72
17
 73
13
 74
0
 42
0.0000001
 43
0.0000001
 44
0.0000000001
 40
0.0
 40
0.0
 40
0.0
 40
0.0
 40
0.0687930739
 40
0.1346932343
 40
0.1974887861
 40
0.2582334563
 40
0.3771346729
 40
0.4963383483
 40
0.617755809
 40
0.7421082774
 40
0.8695664474
 40
1.0
 40
1.0
 40
1.0
 40
1.0
 10
1189.1248260591
 20
-426.9697635592
 30
0.0
 10
1190.7549601549
 20
-426.9687304303
 30
0.0
 10
1193.961987153
 20
-426.5340571952
 30
0.0
 10
1198.3350979459
 20
-424.7649717804
 30
0.0
 10
1202.0975008693
 20
-422.2730072896
 30
0.0
 10
1206.3451567538
 20
-418.3795231142
 30
0.0
 10
1210.6456971527
 20
-412.6856874301
 30
0.0
 10
1214.6256340226
 20
-405.1276742765
 30
0.0
 10
1217.7207075592
 20
-397.0339682473
 30
0.0
 10
1220.0769473407
 20
-388.4979719209
 30
0.0
 10
1221.7661899125
 20
-379.5903250196
 30
0.0
 10
1222.4589823976
 20
-373.5125168938
 30
0.0
 10
1222.7026736936
 20
-370.4313592201
 30
0.0
  0
SPLINE
  5
6A6
100
AcDbEntity
  8
0
100
AcDbSpline
 62
9
  6
CONTINUOUS
 70
0
 71
3
 72
19
 73
15
 74
0
 42
0.0000001
 43
0.0000001
 44
0.0000000001
 40
0.0
 40
0.0
 40
0.0
 40
0.0
 40
0.1250536549
 40
0.2501042248
 40
0.3751465512
 40
0.5001699441
 40
0.6251510469
 40
0.6876715376
 40
0.7501834751
 40
0.8126752652
 40
0.8751226432
 40
0.9375010402
 40
0.968751413
 40
1.0
 40
1.0
 40
1.0
 40
1.0
 10
1223.0384015482
 20
-365.6778380934
 30
0.0
 10
1223.1658944373
 20
-361.9956280786
 30
0.0
 10
1223.1392876411
 20
-354.6184837916
 30
0.0
 10
1222.2522789769
 20
-343.5906695736
 30
0.0
 10
1220.4660975035
 20
-332.6694071588
 30
0.0
 10
1217.6652682061
 20
-321.9626157784
 30
0.0
 10
1214.3058519847
 20
-313.3539401872
 30
0.0
 10
1210.8107067665
 20
-306.8592298056
 30
0.0
 10
1207.7062958267
 20
-302.2745370547
 30
0.0
 10
1204.0286570039
 20
-298.126940206
 30
0.0
 10
1199.6890046289
 20
-294.6624329354
 30
0.0
 10
1195.4842033959
 20
-292.6617016958
 30
0.0
 10
1191.8901186139
 20
-291.8216723566
 30
0.0
 10
1190.0454933512
 20
-291.6778460914
 30
0.0
 10
1189.1248260591
 20
-291.6778380934
 30
0.0
  0
SPLINE
  5
6A7
100
AcDbEntity
  8
0
100
AcDbSpline
 62
9
  6
CONTINUOUS
 70
0
 71
3
 72
18
 73
14
 74
0
 42
0.0000001
 43
0.0000001
 44
0.0000000001
 40
0.0
 40
0.0
 40
0.0
 40
0.0
 40
0.0624410555
 40
0.1248960397
 40
0.1873678327
 40
0.2498593462
 40
0.3123680042
 40
0.3748853915
 40
0.4998598523
 40
0.6248761825
 40
0.7499105009
 40
0.8749530045
 40
1.0
 40
1.0
 40
1.0
 40
1.0
 10
1189.1248260591
 20
-291.6778380934
 30
0.0
 10
1187.2854739591
 20
-291.678592316
 30
0.0
 10
1183.5841941073
 20
-292.2641552941
 30
0.0
 10
1178.5512910177
 20
-294.6701967621
 30
0.0
 10
1174.2087352442
 20
-298.1379985722
 30
0.0
 10
1170.5340920753
 20
-302.2870029919
 30
0.0
 10
1167.4315080698
 20
-306.8716064195
 30
0.0
 10
1163.9387112694
 20
-313.36559879
 30
0.0
 10
1160.5812644165
 20
-321.9727021624
 30
0.0
 10
1157.7820067104
 20
-332.6771831798
 30
0.0
 10
1155.9968177305
 20
-343.5959021803
 30
0.0
 10
1155.1103256878
 20
-354.6210951135
 30
0.0
 10
1155.0837859972
 20
-361.996482544
 30
0.0
 10
1155.21125057
 20
-365.6778380934
 30
0.0
  0
ELLIPSE
  5
6A8
100
AcDbEntity
  8
02___PRT_ALL_AXES
100
AcDbEllipse
 62
7
  6
CONTINUOUS
 10
184.0355478411
 20
63.120294664
 30
0.0
 11
65.0
 21
0.0
 31
0.0
 40
0.4615384615
 41
0.0
 42
6.2831853072
  0
ELLIPSE
  5
6A9
100
AcDbEntity
  8
02___PRT_ALL_AXES
100
AcDbEllipse
 62
7
  6
CONTINUOUS
 10
1189.1248260591
 20
-360.6778380934
 30
0.0
 11
0.0
 21
65.0
 31
0.0
 40
0.4615384615
 41
0.0
 42
6.2831853072
  0
ENDSEC
  0
SECTION
  2
OBJECTS
  0
DICTIONARY
  5
C
100
AcDbDictionary
280
0
281
1
  3
ACAD_GROUP
350
D
  3
ACAD_MLINESTYLE
350
17
  3
ACAD_LAYOUT
350
1A
  3
ACAD_PLOTSETTINGS
350
19
  3
ACAD_PLOTSTYLENAME
350
E
  0
DICTIONARY
  5
D
102
{ACAD_REACTORS
330
C
102
}
100
AcDbDictionary
280
0
281
1
  0
ACDBDICTIONARYWDFLT
  5
E
102
{ACAD_REACTORS
330
C
102
}
100
AcDbDictionary
281
1
  3
Normal
350
F
100
AcDbDictionaryWithDefault
340
F
  0
DICTIONARY
  5
17
102
{ACAD_REACTORS
330
C
102
}
100
AcDbDictionary
280
0
281
1
  3
Standard
350
18
  0
DICTIONARY
  5
19
102
{ACAD_REACTORS
330
C
102
}
100
AcDbDictionary
281
1
  0
DICTIONARY
  5
1A
102
{ACAD_REACTORS
330
C
102
}
100
AcDbDictionary
281
1
  3
Model
350
6AA
  3
Layout1
350
6AB
  0
ACDBPLACEHOLDER
  5
F
102
{ACAD_REACTORS
330
E
102
}
  0
MLINESTYLE
  5
18
102
{ACAD_REACTORS
330
17
102
}
100
AcDbMlineStyle
  2
STANDARD
 70
0
  3

 62
256
 51
90.0
 52
90.0
 71
2
 49
0.5
 62
256
  6
BYLAYER
 49
-0.5
 62
256
  6
BYLAYER
  0
LAYOUT
  5
6AA
102
{ACAD_REACTORS
330
1A
102
}
100
AcDbPlotSettings
  1

  2
none_device
  4

  6

 40
0.0
 41
0.0
 42
0.0
 43
0.0
 44
210.0
 45
297.0
 46
0.0
 47
0.0
 48
0.0
 49
0.0
140
0.0
141
0.0
142
1.0
143
1.0
 70
1024
 72
1
 73
0
 74
0
  7

 75
0
147
1.0
148
0.0
149
0.0
100
AcDbLayout
  1
Model
 70
0
 71
0
 10
0.0
 20
0.0
 11
210.0
 21
297.0
 12
0.0
 22
0.0
 32
0.0
 14
0.0
 24
0.0
 34
0.0
 15
0.0
 25
0.0
 35
0.0
146
0.0
 13
0.0
 23
0.0
 33
0.0
 16
1.0
 26
0.0
 36
0.0
 17
0.0
 27
1.0
 37
0.0
 76
0
330
21A
345
0
346
0
  0
LAYOUT
  5
6AB
102
{ACAD_REACTORS
330
1A
102
}
100
AcDbPlotSettings
  1

  2
none_device
  4

  6

 40
0.0
 41
0.0
 42
0.0
 43
0.0
 44
210.0
 45
297.0
 46
0.0
 47
0.0
 48
0.0
 49
0.0
140
0.0
141
0.0
142
1.0
143
1.0
 70
0
 72
1
 73
0
 74
0
  7

 75
0
147
1.0
148
0.0
149
0.0
100
AcDbLayout
  1
Layout1
 70
0
 71
1
 10
0.0
 20
0.0
 11
210.0
 21
297.0
 12
0.0
 22
0.0
 32
0.0
 14
0.0
 24
0.0
 34
0.0
 15
0.0
 25
0.0
 35
0.0
146
0.0
 13
0.0
 23
0.0
 33
0.0
 16
1.0
 26
0.0
 36
0.0
 17
0.0
 27
1.0
 37
0.0
 76
0
330
21B
345
0
346
0
  0
ENDSEC
  0
EOF
