999
DXF file: s_63_t_f_2.dxf
999
Pro/ENGINEER 2011370 by Parametric Technology Corporation
  0
SECTION
  2
HEADER
  9
$ACADVER
  1
AC1015
  9
$DWGCODEPAGE
  3
ANSI_1252
  9
$EXTMAX
 10
210.0
 20
297.0
 30
0.0
  9
$EXTMIN
 10
0.0
 20
0.0
 30
0.0
  9
$LIMMIN
 10
0.0
 20
0.0
  9
$LIMMAX
 10
210.0
 20
297.0
  9
$VIEWCTR
 10
105.0
 20
148.5
  9
$VIEWSIZE
 40
297.0
  9
$CLAYER
  8
0
  9
$LTSCALE
 40
19.36
  9
$CELTYPE
  6
BYLAYER
  9
$DIMSCALE
 40
1.0
  9
$DIMASZ
 40
2.0
  9
$DIMEXO
 40
2.2
  9
$DIMDLI
 40
13.376
  9
$DIMEXE
 40
6.336
  9
$DIMCEN
 40
3.168
  9
$DIMLFAC
 40
1.0
  9
$DIMBLK
  1
_FILLED
  9
$DIMTXT
 40
2.0
  9
$DIMTOL
 70
0
  9
$DIMLIM
 70
0
  9
$DIMTFAC
 40
1.0
  9
$PDMODE
 70
3
  9
$PDSIZE
 40
0.3125
  9
$HANDSEED
  5
62F
  9
$TILEMODE
 70
1
  9
$MEASUREMENT
 70
1
  9
$INSUNITS
 70
4
  0
ENDSEC
  0
SECTION
  2
CLASSES
  0
CLASS
  1
ACDBDICTIONARYWDFLT
  2
AcDbDictionaryWithDefault
  3
AutoCAD 2000
 90
0
280
0
281
0
  0
CLASS
  1
ACDBPLACEHOLDER
  2
AcDbPlaceHolder
  3
AutoCAD 2000
 90
0
280
0
281
0
  0
CLASS
  1
LAYOUT
  2
AcDbLayout
  3
AutoCAD 2000
 90
0
280
0
281
0
  0
ENDSEC
  0
SECTION
  2
TABLES
  0
TABLE
  2
VPORT
  5
8
100
AcDbSymbolTable
 70
2
  0
VPORT
  5
1F4
100
AcDbSymbolTableRecord
100
AcDbViewportTableRecord
  2
*ACTIVE
 70
0
 10
0.0
 20
0.0
 11
1.0
 21
1.0
 12
105.0
 22
148.5
 13
0.0
 23
0.0
 14
1.0
 24
1.0
 15
0.0
 25
0.0
 16
0.0
 26
0.0
 36
1.0
 17
0.0
 27
0.0
 37
0.0
 40
297.0
 41
0.7070707071
 42
50.0
 43
0.0
 44
0.0
 50
0.0
 51
0.0
 71
0
 72
100
 73
1
 74
1
 75
0
 76
0
 77
0
 78
0
  0
ENDTAB
  0
TABLE
  2
LTYPE
  5
5
100
AcDbSymbolTable
 70
6
  0
LTYPE
  5
14
100
AcDbSymbolTableRecord
100
AcDbLinetypeTableRecord
  2
BYBLOCK
 70
0
  3

 72
65
 73
0
 40
0.0
  0
LTYPE
  5
15
100
AcDbSymbolTableRecord
100
AcDbLinetypeTableRecord
  2
BYLAYER
 70
0
  3

 72
65
 73
0
 40
0.0
  0
LTYPE
  5
16
100
AcDbSymbolTableRecord
100
AcDbLinetypeTableRecord
  2
CONTINUOUS
 70
64
  3
Solid line
 72
65
 73
0
 40
0.0
  0
LTYPE
  5
1F5
100
AcDbSymbolTableRecord
100
AcDbLinetypeTableRecord
  2
CENTER
 70
64
  3
____ _ ____ _ ____ _ ____ _ ____ _ ____ _ ____
 72
65
 73
4
 40
0.6
 49
0.375
 74
0
 49
-0.075
 74
0
 49
0.075
 74
0
 49
-0.075
 74
0
  0
LTYPE
  5
1F6
100
AcDbSymbolTableRecord
100
AcDbLinetypeTableRecord
  2
HIDDEN
 70
64
  3
- - - - - - - - - - - - - - - - - - - -
 72
65
 73
2
 40
0.2
 49
0.1
 74
0
 49
-0.1
 74
0
  0
LTYPE
  5
1F7
100
AcDbSymbolTableRecord
100
AcDbLinetypeTableRecord
  2
PHANTOM
 70
64
  3
_____ _ _ _____ _ _ _____ _ _ _____
 72
65
 73
6
 40
0.8
 49
0.45
 74
0
 49
-0.05
 74
0
 49
0.1
 74
0
 49
-0.05
 74
0
 49
0.1
 74
0
 49
-0.05
 74
0
  0
LTYPE
  5
1F8
100
AcDbSymbolTableRecord
100
AcDbLinetypeTableRecord
  2
DOT
 70
64
  3
. . . . . . . . . . . . . . . . . . . .
 72
65
 73
2
 40
0.2
 49
0.1
 74
0
 49
-0.1
 74
0
  0
LTYPE
  5
1F9
100
AcDbSymbolTableRecord
100
AcDbLinetypeTableRecord
  2
DASHED
 70
64
  3
- - - - - - - - - - - - - - - - - - - -
 72
65
 73
2
 40
0.2
 49
0.1
 74
0
 49
-0.1
 74
0
  0
ENDTAB
  0
TABLE
  2
LAYER
  5
2
100
AcDbSymbolTable
 70
36
  0
LAYER
  5
10
100
AcDbSymbolTableRecord
100
AcDbLayerTableRecord
  2
0
 70
0
 62
7
  6
CONTINUOUS
370
-3
390
F
  0
LAYER
  5
1FA
100
AcDbSymbolTableRecord
100
AcDbLayerTableRecord
  2
DEFAULT_1
 70
0
 62
7
  6
CENTER
370
-3
390
F
  0
LAYER
  5
1FB
100
AcDbSymbolTableRecord
100
AcDbLayerTableRecord
  2
DEFAULT_2
 70
0
 62
8
  6
HIDDEN
370
-3
390
F
  0
LAYER
  5
1FC
100
AcDbSymbolTableRecord
100
AcDbLayerTableRecord
  2
DEFAULT_3
 70
0
 62
7
  6
PHANTOM
370
-3
390
F
  0
LAYER
  5
1FD
100
AcDbSymbolTableRecord
100
AcDbLayerTableRecord
  2
01___PRT_ALL_DTM_PLN
 70
0
 62
7
  6
CONTINUOUS
370
-3
390
F
  0
LAYER
  5
1FE
100
AcDbSymbolTableRecord
100
AcDbLayerTableRecord
  2
01___PRT_DEF_DTM_PLN
 70
0
 62
7
  6
CONTINUOUS
370
-3
390
F
  0
LAYER
  5
1FF
100
AcDbSymbolTableRecord
100
AcDbLayerTableRecord
  2
02___PRT_ALL_AXES
 70
0
 62
7
  6
CONTINUOUS
370
-3
390
F
  0
LAYER
  5
200
100
AcDbSymbolTableRecord
100
AcDbLayerTableRecord
  2
03___PRT_ALL_CURVES
 70
0
 62
7
  6
CONTINUOUS
370
-3
390
F
  0
LAYER
  5
201
100
AcDbSymbolTableRecord
100
AcDbLayerTableRecord
  2
04___PRT_ALL_DTM_PNT
 70
0
 62
7
  6
CONTINUOUS
370
-3
390
F
  0
LAYER
  5
202
100
AcDbSymbolTableRecord
100
AcDbLayerTableRecord
  2
05___PRT_ALL_DTM_CSYS
 70
0
 62
7
  6
CONTINUOUS
370
-3
390
F
  0
LAYER
  5
203
100
AcDbSymbolTableRecord
100
AcDbLayerTableRecord
  2
05___PRT_DEF_DTM_CSYS
 70
0
 62
7
  6
CONTINUOUS
370
-3
390
F
  0
LAYER
  5
204
100
AcDbSymbolTableRecord
100
AcDbLayerTableRecord
  2
06___PRT_ALL_SURFS
 70
0
 62
7
  6
CONTINUOUS
370
-3
390
F
  0
LAYER
  5
205
100
AcDbSymbolTableRecord
100
AcDbLayerTableRecord
  2
1_ALL_PLANES
 70
0
 62
7
  6
CONTINUOUS
370
-3
390
F
  0
LAYER
  5
206
100
AcDbSymbolTableRecord
100
AcDbLayerTableRecord
  2
1_SISCO
 70
0
 62
7
  6
CONTINUOUS
370
-3
390
F
  0
LAYER
  5
207
100
AcDbSymbolTableRecord
100
AcDbLayerTableRecord
  2
1__DEF_ASM_PLN
 70
0
 62
7
  6
CONTINUOUS
370
-3
390
F
  0
LAYER
  5
208
100
AcDbSymbolTableRecord
100
AcDbLayerTableRecord
  2
1__DEF_PLANES
 70
0
 62
7
  6
CONTINUOUS
370
-3
390
F
  0
LAYER
  5
209
100
AcDbSymbolTableRecord
100
AcDbLayerTableRecord
  2
2_ALL_CSYS
 70
0
 62
7
  6
CONTINUOUS
370
-3
390
F
  0
LAYER
  5
20A
100
AcDbSymbolTableRecord
100
AcDbLayerTableRecord
  2
2_PIANI
 70
0
 62
7
  6
CONTINUOUS
370
-3
390
F
  0
LAYER
  5
20B
100
AcDbSymbolTableRecord
100
AcDbLayerTableRecord
  2
2__DEF_ASM_CSYS
 70
0
 62
7
  6
CONTINUOUS
370
-3
390
F
  0
LAYER
  5
20C
100
AcDbSymbolTableRecord
100
AcDbLayerTableRecord
  2
2__DEF_CSYS
 70
0
 62
7
  6
CONTINUOUS
370
-3
390
F
  0
LAYER
  5
20D
100
AcDbSymbolTableRecord
100
AcDbLayerTableRecord
  2
3_ALL_AXES
 70
0
 62
7
  6
CONTINUOUS
370
-3
390
F
  0
LAYER
  5
20E
100
AcDbSymbolTableRecord
100
AcDbLayerTableRecord
  2
3_PUNTI
 70
0
 62
7
  6
CONTINUOUS
370
-3
390
F
  0
LAYER
  5
20F
100
AcDbSymbolTableRecord
100
AcDbLayerTableRecord
  2
4_ALL_POINTS
 70
0
 62
7
  6
CONTINUOUS
370
-3
390
F
  0
LAYER
  5
210
100
AcDbSymbolTableRecord
100
AcDbLayerTableRecord
  2
4_CURVE
 70
0
 62
7
  6
CONTINUOUS
370
-3
390
F
  0
LAYER
  5
211
100
AcDbSymbolTableRecord
100
AcDbLayerTableRecord
  2
5_ALL_CURVES
 70
0
 62
7
  6
CONTINUOUS
370
-3
390
F
  0
LAYER
  5
212
100
AcDbSymbolTableRecord
100
AcDbLayerTableRecord
  2
5_SUPERFICI
 70
0
 62
7
  6
CONTINUOUS
370
-3
390
F
  0
LAYER
  5
213
100
AcDbSymbolTableRecord
100
AcDbLayerTableRecord
  2
6_ALL_SURFS
 70
0
 62
7
  6
CONTINUOUS
370
-3
390
F
  0
LAYER
  5
214
100
AcDbSymbolTableRecord
100
AcDbLayerTableRecord
  2
7_ALL_QUILTS
 70
0
 62
7
  6
CONTINUOUS
370
-3
390
F
  0
LAYER
  5
215
100
AcDbSymbolTableRecord
100
AcDbLayerTableRecord
  2
8_ALL_CGFEAT
 70
0
 62
7
  6
CONTINUOUS
370
-3
390
F
  0
LAYER
  5
216
100
AcDbSymbolTableRecord
100
AcDbLayerTableRecord
  2
9_ALL_THREAD
 70
0
 62
7
  6
CONTINUOUS
370
-3
390
F
  0
LAYER
  5
217
100
AcDbSymbolTableRecord
100
AcDbLayerTableRecord
  2
ASSI_FORI
 70
0
 62
7
  6
CONTINUOUS
370
-3
390
F
  0
LAYER
  5
218
100
AcDbSymbolTableRecord
100
AcDbLayerTableRecord
  2
FILETTATURE
 70
0
 62
7
  6
CONTINUOUS
370
-3
390
F
  0
ENDTAB
  0
TABLE
  2
STYLE
  5
3
100
AcDbSymbolTable
 70
1
  0
STYLE
  5
11
100
AcDbSymbolTableRecord
100
AcDbTextStyleTableRecord
  2
STANDARD
 70
0
 40
0.0
 41
1.0
 50
0.0
 71
0
 42
0.2
  3
arial.ttf
  4

  0
STYLE
  5
219
100
AcDbSymbolTableRecord
100
AcDbTextStyleTableRecord
  2
TEXTSTYLE_1
 70
0
 40
0.0
 41
0.8
 50
0.0
 71
0
 42
0.2
  3
gdt
  4

  0
ENDTAB
  0
TABLE
  2
VIEW
  5
6
100
AcDbSymbolTable
 70
0
  0
ENDTAB
  0
TABLE
  2
UCS
  5
7
100
AcDbSymbolTable
 70
0
  0
ENDTAB
  0
TABLE
  2
APPID
  5
9
100
AcDbSymbolTable
 70
1
  0
APPID
  5
21A
100
AcDbSymbolTableRecord
100
AcDbRegAppTableRecord
  2
ACAD
 70
0
  0
ENDTAB
  0
TABLE
  2
BLOCK_RECORD
  5
1
100
AcDbSymbolTable
 70
0
  0
BLOCK_RECORD
  5
21B
100
AcDbSymbolTableRecord
100
AcDbBlockTableRecord
  2
*Model_Space
  0
BLOCK_RECORD
  5
21C
100
AcDbSymbolTableRecord
100
AcDbBlockTableRecord
  2
*Paper_Space
  0
ENDTAB
  0
TABLE
  2
DIMSTYLE
  5
A
100
AcDbSymbolTable
 70
1
100
AcDbDimStyleTable
 71
0
  0
DIMSTYLE
105
21D
100
AcDbSymbolTableRecord
100
AcDbDimStyleTableRecord
  2
STANDARD
 70
0
  3

  4

 40
1.0
 41
2.0
 42
0.0625
 43
0.38
 44
0.18
 45
0.0
 46
0.0
 47
0.01
 48
0.01
140
2.0
141
0.09
142
0.0
143
25.4
144
1.0
145
0.0
146
1.0
147
0.09
 71
0.0
 72
0.0
 73
1
 74
1
 75
0
 76
0
 77
0
 78
8
170
0
171
2
172
0
173
0
174
0
175
0
176
0
177
0
178
0
270
2
271
2
272
2
273
2
274
2
275
0
280
0
281
0
282
0
283
1
284
8
285
0
286
0
287
3
288
0
340
11
  0
ENDTAB
  0
ENDSEC
  0
SECTION
  2
BLOCKS
  0
BLOCK
  5
20
100
AcDbEntity
  8
0
100
AcDbBlockBegin
  2
*Model_Space
 70
0
 10
0.0
 20
0.0
 30
0.0
  3
*Model_Space
  1

  0
ENDBLK
  5
21
100
AcDbEntity
  8
0
100
AcDbBlockEnd
  0
BLOCK
  5
1C
100
AcDbEntity
  8
0
100
AcDbBlockBegin
  2
*Paper_Space
 70
0
 10
0.0
 20
0.0
 30
0.0
  3
*Paper_Space
  1

  0
ENDBLK
  5
1D
100
AcDbEntity
  8
0
100
AcDbBlockEnd
  0
ENDSEC
  0
SECTION
  2
ENTITIES
  0
LINE
  5
21E
100
AcDbEntity
  8
0
100
AcDbLine
 62
7
  6
CONTINUOUS
 10
618.9094388911
 20
57.8528910588
 11
627.1936895005
 21
49.5686387826
  0
LINE
  5
21F
100
AcDbEntity
  8
0
100
AcDbLine
 62
7
  6
CONTINUOUS
 10
613.0515762769
 20
235.426520501
 11
613.0515762769
 21
71.9950254191
  0
LINE
  5
220
100
AcDbEntity
  8
0
100
AcDbLine
 62
9
  6
CONTINUOUS
 10
618.9094388918
 20
57.8528910582
 11
618.9094388918
 21
249.5686548619
  0
LINE
  5
221
100
AcDbEntity
  8
0
100
AcDbLine
 62
9
  6
CONTINUOUS
 10
627.193689498
 20
257.8529071348
 11
627.193689498
 21
49.5686387853
  0
LINE
  5
222
100
AcDbEntity
  8
0
100
AcDbLine
 62
7
  6
CONTINUOUS
 10
678.0515762769
 20
53.7107729601
 11
688.0515762769
 21
43.7107729601
  0
LINE
  5
223
100
AcDbEntity
  8
0
100
AcDbLine
 62
9
  6
CONTINUOUS
 10
641.335826559
 20
263.7107729598
 11
641.335826559
 21
43.7107729603
  0
LINE
  5
224
100
AcDbEntity
  8
0
100
AcDbLine
 62
7
  6
CONTINUOUS
 10
678.0515762769
 20
263.7094837286
 11
678.0515762769
 21
43.7120621915
  0
LINE
  5
225
100
AcDbEntity
  8
0
100
AcDbLine
 62
7
  6
CONTINUOUS
 10
688.0515762769
 20
263.7107729601
 11
688.0515762769
 21
43.7107729601
  0
LINE
  5
226
100
AcDbEntity
  8
0
100
AcDbLine
 62
3
  6
CONTINUOUS
 10
706.5515762769
 20
41.7107729601
 11
706.5515762769
 21
24.7107729601
  0
LINE
  5
227
100
AcDbEntity
  8
0
100
AcDbLine
 62
7
  6
CONTINUOUS
 10
706.5515762769
 20
21.7107729601
 11
706.5515762769
 21
24.7107729601
  0
LINE
  5
228
100
AcDbEntity
  8
0
100
AcDbLine
 62
7
  6
CONTINUOUS
 10
618.9094388911
 20
249.5686548613
 11
627.1936895005
 21
257.8529071375
  0
LINE
  5
229
100
AcDbEntity
  8
0
100
AcDbLine
 62
7
  6
CONTINUOUS
 10
711.0515762769
 20
41.7107729601
 11
711.0515762769
 21
53.7107729601
  0
LINE
  5
22A
100
AcDbEntity
  8
0
100
AcDbLine
 62
9
  6
CONTINUOUS
 10
721.5515762769
 20
21.7107729601
 11
721.5515762769
 21
24.7107729601
  0
LINE
  5
22B
100
AcDbEntity
  8
0
100
AcDbLine
 62
7
  6
CONTINUOUS
 10
678.0515762769
 20
253.7107729601
 11
688.0515762769
 21
263.7107729601
  0
LINE
  5
22C
100
AcDbEntity
  8
0
100
AcDbLine
 62
7
  6
CONTINUOUS
 10
1095.5515762769
 20
21.7107729601
 11
1065.5515762769
 21
21.7107729601
  0
LINE
  5
22D
100
AcDbEntity
  8
0
100
AcDbLine
 62
7
  6
CONTINUOUS
 10
706.5515762769
 20
21.7107729601
 11
891.5515762769
 21
21.7107729601
  0
LINE
  5
22E
100
AcDbEntity
  8
0
100
AcDbLine
 62
7
  6
CONTINUOUS
 10
1156.5515762769
 20
22.7107729601
 11
1095.5515762769
 21
22.7107729601
  0
LINE
  5
22F
100
AcDbEntity
  8
0
100
AcDbLine
 62
7
  6
CONTINUOUS
 10
1065.5515762769
 20
22.7107729601
 11
1029.5515762769
 21
22.7107729601
  0
LINE
  5
230
100
AcDbEntity
  8
0
100
AcDbLine
 62
3
  6
CONTINUOUS
 10
706.5515762769
 20
24.7107729601
 11
891.5515762769
 21
24.7107729601
  0
LINE
  5
231
100
AcDbEntity
  8
0
100
AcDbLine
 62
9
  6
CONTINUOUS
 10
706.5515762769
 20
27.7107729601
 11
891.5515762769
 21
27.7107729601
  0
LINE
  5
232
100
AcDbEntity
  8
02___PRT_ALL_AXES
100
AcDbLine
 62
7
  6
CONTINUOUS
 10
1169.0084379738
 20
27.7107729601
 11
1181.5515762769
 21
27.7107729601
  0
LINE
  5
233
100
AcDbEntity
  8
0
100
AcDbLine
 62
7
  6
CONTINUOUS
 10
1006.0515762769
 20
31.2107729601
 11
1014.0515762769
 21
31.2107729601
  0
LINE
  5
234
100
AcDbEntity
  8
0
100
AcDbLine
 62
9
  6
CONTINUOUS
 10
706.5515762769
 20
35.7107729601
 11
891.5515762769
 21
35.7107729601
  0
LINE
  5
235
100
AcDbEntity
  8
0
100
AcDbLine
 62
3
  6
CONTINUOUS
 10
706.5515762769
 20
41.7107729601
 11
711.0515762769
 21
41.7107729601
  0
LINE
  5
236
100
AcDbEntity
  8
0
100
AcDbLine
 62
7
  6
CONTINUOUS
 10
711.0515762769
 20
41.7107729601
 11
887.0515762769
 21
41.7107729601
  0
LINE
  5
237
100
AcDbEntity
  8
0
100
AcDbLine
 62
3
  6
CONTINUOUS
 10
887.0515762769
 20
41.7107729601
 11
891.5515762769
 21
41.7107729601
  0
LINE
  5
238
100
AcDbEntity
  8
02___PRT_ALL_AXES
100
AcDbLine
 62
7
  6
CONTINUOUS
 10
641.3358265601
 20
43.7107729601
 11
678.0515762769
 21
43.7107729601
  0
LINE
  5
239
100
AcDbEntity
  8
02___PRT_ALL_AXES
100
AcDbLine
 62
7
  6
CONTINUOUS
 10
688.0515762769
 20
43.7107729601
 11
711.0515762769
 21
43.7107729601
  0
LINE
  5
23A
100
AcDbEntity
  8
02___PRT_ALL_AXES
100
AcDbLine
 62
7
  6
CONTINUOUS
 10
887.0515762769
 20
43.7107729601
 11
919.0515762325
 21
43.7107729601
  0
LINE
  5
23B
100
AcDbEntity
  8
3_ALL_AXES
100
AcDbLine
 62
7
  6
CONTINUOUS
 10
1014.5515762769
 20
48.7107729601
 11
1014.0515762769
 21
48.7107729601
  0
LINE
  5
23C
100
AcDbEntity
  8
0
100
AcDbLine
 62
7
  6
CONTINUOUS
 10
1095.5515762769
 20
49.9755330461
 11
1065.5515762769
 21
49.9755330461
  0
LINE
  5
23D
100
AcDbEntity
  8
0
100
AcDbLine
 62
7
  6
CONTINUOUS
 10
1169.0084486016
 20
27.7107729601
 11
1168.9827435028
 21
27.7110847255
  0
LINE
  5
23E
100
AcDbEntity
  8
0
100
AcDbLine
 62
7
  6
CONTINUOUS
 10
774.0515762769
 20
245.906217533
 11
774.0515762769
 21
305.7107729601
  0
LINE
  5
23F
100
AcDbEntity
  8
0
100
AcDbLine
 62
7
  6
CONTINUOUS
 10
711.0515762769
 20
53.7107729601
 11
887.0515762769
 21
53.7107729601
  0
LINE
  5
240
100
AcDbEntity
  8
0
100
AcDbLine
 62
7
  6
CONTINUOUS
 10
1005.0515762769
 20
56.2107729601
 11
1004.0515762769
 21
56.2107729601
  0
LINE
  5
241
100
AcDbEntity
  8
02___PRT_ALL_AXES
100
AcDbLine
 62
7
  6
CONTINUOUS
 10
1181.5515762769
 20
87.7107729601
 11
1175.5515762769
 21
87.7107729601
  0
LINE
  5
242
100
AcDbEntity
  8
0
100
AcDbLine
 62
7
  6
CONTINUOUS
 10
1002.0515762769
 20
88.7107729601
 11
941.0515762769
 21
88.7107729601
  0
LINE
  5
243
100
AcDbEntity
  8
3_ALL_AXES
100
AcDbLine
 62
7
  6
CONTINUOUS
 10
951.0515762769
 20
88.7107729601
 11
941.0515762769
 21
88.7107729601
  0
LINE
  5
244
100
AcDbEntity
  8
0
100
AcDbLine
 62
9
  6
CONTINUOUS
 10
1004.0515762769
 20
90.7107729596
 11
953.0515762769
 21
90.7107729601
  0
LINE
  5
245
100
AcDbEntity
  8
0
100
AcDbLine
 62
9
  6
CONTINUOUS
 10
1004.0515762769
 20
102.3250919126
 11
1002.0515762769
 21
102.3250919126
  0
LINE
  5
246
100
AcDbEntity
  8
02___PRT_ALL_AXES
100
AcDbLine
 62
7
  6
CONTINUOUS
 10
1175.5515762769
 20
113.7107729601
 11
1181.5515762769
 21
113.7107729601
  0
LINE
  5
247
100
AcDbEntity
  8
0
100
AcDbLine
 62
9
  6
CONTINUOUS
 10
953.0515762769
 20
120.7600521789
 11
955.0515762769
 21
120.7600521789
  0
LINE
  5
248
100
AcDbEntity
  8
0
100
AcDbLine
 62
9
  6
CONTINUOUS
 10
976.0515762769
 20
121.8556320877
 11
956.0515762769
 21
121.8556320877
  0
LINE
  5
249
100
AcDbEntity
  8
0
100
AcDbLine
 62
9
  6
CONTINUOUS
 10
976.0515762769
 20
123.6759258518
 11
956.0515762769
 21
123.6759258518
  0
LINE
  5
24A
100
AcDbEntity
  8
0
100
AcDbLine
 62
9
  6
CONTINUOUS
 10
939.0515762769
 20
123.7107729601
 11
953.0515762769
 21
123.7107729601
  0
LINE
  5
24B
100
AcDbEntity
  8
0
100
AcDbLine
 62
9
  6
CONTINUOUS
 10
951.0515762769
 20
146.7107729601
 11
953.0515762769
 21
146.7107729601
  0
LINE
  5
24C
100
AcDbEntity
  8
0
100
AcDbLine
 62
9
  6
CONTINUOUS
 10
956.0515762769
 20
147.1107729601
 11
976.0515762769
 21
147.1107729601
  0
LINE
  5
24D
100
AcDbEntity
  8
0
100
AcDbLine
 62
7
  6
CONTINUOUS
 10
1002.0515762769
 20
148.7107729601
 11
955.0515762769
 21
148.7107729601
  0
LINE
  5
24E
100
AcDbEntity
  8
0
100
AcDbLine
 62
9
  6
CONTINUOUS
 10
1004.0515762769
 20
150.7107729596
 11
955.0515762769
 21
150.7107729601
  0
LINE
  5
24F
100
AcDbEntity
  8
0
100
AcDbLine
 62
9
  6
CONTINUOUS
 10
876.5515762769
 20
21.7107729601
 11
876.5515762769
 21
24.7107729601
  0
LINE
  5
250
100
AcDbEntity
  8
0
100
AcDbLine
 62
9
  6
CONTINUOUS
 10
1014.5515762769
 20
153.7107729601
 11
1171.5515762769
 21
153.7107729601
  0
LINE
  5
251
100
AcDbEntity
  8
0
100
AcDbLine
 62
9
  6
CONTINUOUS
 10
955.0515762769
 20
156.7107729601
 11
1004.0515762769
 21
156.7107729599
  0
LINE
  5
252
100
AcDbEntity
  8
0
100
AcDbLine
 62
7
  6
CONTINUOUS
 10
1002.0515762769
 20
158.7107729601
 11
955.0515762769
 21
158.7107729601
  0
LINE
  5
253
100
AcDbEntity
  8
0
100
AcDbLine
 62
9
  6
CONTINUOUS
 10
976.0515762769
 20
160.3107729601
 11
956.0515762769
 21
160.3107729601
  0
LINE
  5
254
100
AcDbEntity
  8
0
100
AcDbLine
 62
9
  6
CONTINUOUS
 10
953.0515762769
 20
160.7107729601
 11
951.0515762769
 21
160.7107729602
  0
LINE
  5
255
100
AcDbEntity
  8
02___PRT_ALL_AXES
100
AcDbLine
 62
7
  6
CONTINUOUS
 10
1181.5515762769
 20
173.7107729601
 11
1175.5515762769
 21
173.7107729601
  0
LINE
  5
256
100
AcDbEntity
  8
0
100
AcDbLine
 62
7
  6
CONTINUOUS
 10
887.0515762769
 20
41.7107729601
 11
887.0515762769
 21
53.7107729601
  0
LINE
  5
257
100
AcDbEntity
  8
0
100
AcDbLine
 62
3
  6
CONTINUOUS
 10
891.5515762769
 20
41.7107729601
 11
891.5515762769
 21
24.7107729601
  0
LINE
  5
258
100
AcDbEntity
  8
0
100
AcDbLine
 62
7
  6
CONTINUOUS
 10
891.5515762769
 20
21.7107729601
 11
891.5515762769
 21
24.7107729601
  0
LINE
  5
259
100
AcDbEntity
  8
0
100
AcDbLine
 62
7
  6
CONTINUOUS
 10
894.0515762769
 20
245.906217533
 11
894.0515762769
 21
305.7107729601
  0
LINE
  5
25A
100
AcDbEntity
  8
0
100
AcDbLine
 62
9
  6
CONTINUOUS
 10
939.0515762769
 20
183.7107729601
 11
953.0515762769
 21
183.7107729601
  0
LINE
  5
25B
100
AcDbEntity
  8
0
100
AcDbLine
 62
9
  6
CONTINUOUS
 10
956.0515762769
 20
183.7456200683
 11
976.0515762769
 21
183.7456200683
  0
LINE
  5
25C
100
AcDbEntity
  8
0
100
AcDbLine
 62
9
  6
CONTINUOUS
 10
956.0515762769
 20
185.5659138324
 11
976.0515762769
 21
185.5659138324
  0
LINE
  5
25D
100
AcDbEntity
  8
0
100
AcDbLine
 62
9
  6
CONTINUOUS
 10
953.0515762769
 20
186.6614937412
 11
955.0515762769
 21
186.6614937412
  0
LINE
  5
25E
100
AcDbEntity
  8
0
100
AcDbLine
 62
7
  6
CONTINUOUS
 10
919.0515763304
 20
263.7107729601
 11
919.0515763304
 21
43.7107729601
  0
LINE
  5
25F
100
AcDbEntity
  8
0
100
AcDbLine
 62
9
  6
CONTINUOUS
 10
1004.0515762769
 20
205.0964540075
 11
1002.0515762769
 21
205.0964540075
  0
LINE
  5
260
100
AcDbEntity
  8
02___PRT_ALL_AXES
100
AcDbLine
 62
7
  6
CONTINUOUS
 10
1239.5515762769
 20
211.2107729601
 11
1254.5515762769
 21
211.2107729601
  0
LINE
  5
261
100
AcDbEntity
  8
0
100
AcDbLine
 62
9
  6
CONTINUOUS
 10
953.0515762769
 20
216.7107729601
 11
1004.0515762769
 21
216.7107729599
  0
LINE
  5
262
100
AcDbEntity
  8
0
100
AcDbLine
 62
9
  6
CONTINUOUS
 10
1014.5515762769
 20
217.0821507814
 11
1171.5515762769
 21
217.0821507814
  0
LINE
  5
263
100
AcDbEntity
  8
0
100
AcDbLine
 62
7
  6
CONTINUOUS
 10
1002.0515762769
 20
218.7107729601
 11
941.0515762769
 21
218.7107729601
  0
LINE
  5
264
100
AcDbEntity
  8
0
100
AcDbLine
 62
7
  6
CONTINUOUS
 10
939.0515762769
 20
243.709726961
 11
939.0515762769
 21
63.7118189591
  0
LINE
  5
265
100
AcDbEntity
  8
0
100
AcDbLine
 62
9
  6
CONTINUOUS
 10
941.0515762769
 20
88.7107729601
 11
941.0515762769
 21
218.7107729601
  0
LINE
  5
266
100
AcDbEntity
  8
0
100
AcDbLine
 62
9
  6
CONTINUOUS
 10
951.0515762769
 20
218.7107729601
 11
951.0515762769
 21
160.7107729601
  0
LINE
  5
267
100
AcDbEntity
  8
0
100
AcDbLine
 62
9
  6
CONTINUOUS
 10
951.0515762769
 20
146.7107729601
 11
951.0515762769
 21
88.7107729601
  0
LINE
  5
268
100
AcDbEntity
  8
0
100
AcDbLine
 62
7
  6
CONTINUOUS
 10
953.0515762769
 20
216.7107729601
 11
953.0515762769
 21
160.7107729601
  0
LINE
  5
269
100
AcDbEntity
  8
0
100
AcDbLine
 62
7
  6
CONTINUOUS
 10
953.0515762769
 20
146.7107729601
 11
953.0515762769
 21
90.7107729601
  0
LINE
  5
26A
100
AcDbEntity
  8
0
100
AcDbLine
 62
9
  6
CONTINUOUS
 10
955.0515762764
 20
88.7107729601
 11
955.0515762769
 21
120.7600521789
  0
LINE
  5
26B
100
AcDbEntity
  8
0
100
AcDbLine
 62
9
  6
CONTINUOUS
 10
955.0515762769
 20
148.7107729601
 11
955.051576277
 21
150.7107729601
  0
LINE
  5
26C
100
AcDbEntity
  8
0
100
AcDbLine
 62
9
  6
CONTINUOUS
 10
955.0515762764
 20
156.7107729601
 11
955.0515762766
 21
158.7107729601
  0
LINE
  5
26D
100
AcDbEntity
  8
0
100
AcDbLine
 62
9
  6
CONTINUOUS
 10
955.0515762769
 20
186.6614937412
 11
955.051576277
 21
218.7107729601
  0
LINE
  5
26E
100
AcDbEntity
  8
0
100
AcDbLine
 62
9
  6
CONTINUOUS
 10
956.0515762769
 20
121.8556320877
 11
956.0515762769
 21
148.7107729601
  0
LINE
  5
26F
100
AcDbEntity
  8
0
100
AcDbLine
 62
9
  6
CONTINUOUS
 10
956.0515762769
 20
158.7107729601
 11
956.0515762769
 21
185.5659138324
  0
LINE
  5
270
100
AcDbEntity
  8
0
100
AcDbLine
 62
7
  6
CONTINUOUS
 10
1191.5515762769
 20
243.7107729601
 11
1171.5515762769
 21
243.7107729601
  0
LINE
  5
271
100
AcDbEntity
  8
0
100
AcDbLine
 62
7
  6
CONTINUOUS
 10
774.0515762769
 20
245.906217533
 11
894.0515762769
 21
245.906217533
  0
LINE
  5
272
100
AcDbEntity
  8
0
100
AcDbLine
 62
7
  6
CONTINUOUS
 10
1005.0515762769
 20
251.2107729601
 11
1004.0515762769
 21
251.2107729601
  0
LINE
  5
273
100
AcDbEntity
  8
0
100
AcDbLine
 62
9
  6
CONTINUOUS
 10
1194.5515762769
 20
251.7107729601
 11
1171.5515762769
 21
251.7107729601
  0
LINE
  5
274
100
AcDbEntity
  8
0
100
AcDbLine
 62
7
  6
CONTINUOUS
 10
939.051582919
 20
243.7107795678
 11
919.0515843519
 21
263.7107810794
  0
LINE
  5
275
100
AcDbEntity
  8
0
100
AcDbLine
 62
9
  6
CONTINUOUS
 10
981.0515762496
 20
185.1539669564
 11
980.0515762769
 21
186.7399195157
  0
LINE
  5
276
100
AcDbEntity
  8
0
100
AcDbLine
 62
9
  6
CONTINUOUS
 10
976.0515762769
 20
121.8556320877
 11
976.0515762769
 21
148.7107729601
  0
LINE
  5
277
100
AcDbEntity
  8
0
100
AcDbLine
 62
9
  6
CONTINUOUS
 10
976.0515762769
 20
158.7107729601
 11
976.0515762769
 21
185.5659138324
  0
LINE
  5
278
100
AcDbEntity
  8
0
100
AcDbLine
 62
9
  6
CONTINUOUS
 10
981.0515762769
 20
122.2675790069
 11
981.0515762769
 21
147.0468902799
  0
LINE
  5
279
100
AcDbEntity
  8
0
100
AcDbLine
 62
9
  6
CONTINUOUS
 10
981.0515762769
 20
160.3746556402
 11
981.0515762769
 21
185.1539669132
  0
LINE
  5
27A
100
AcDbEntity
  8
02___PRT_ALL_AXES
100
AcDbLine
 62
7
  6
CONTINUOUS
 10
983.0515762769
 20
411.7107729601
 11
983.0515762769
 21
426.7107729601
  0
LINE
  5
27B
100
AcDbEntity
  8
02___PRT_ALL_AXES
100
AcDbLine
 62
7
  6
CONTINUOUS
 10
1196.5515762769
 20
256.7107729601
 11
1234.5515762769
 21
256.7107729601
  0
LINE
  5
27C
100
AcDbEntity
  8
3_ALL_AXES
100
AcDbLine
 62
7
  6
CONTINUOUS
 10
1014.5515762769
 20
258.7107729601
 11
1014.0515762769
 21
258.7107729601
  0
LINE
  5
27D
100
AcDbEntity
  8
02___PRT_ALL_AXES
100
AcDbLine
 62
7
  6
CONTINUOUS
 10
641.3358265601
 20
263.7107729601
 11
678.0515762769
 21
263.7107729601
  0
LINE
  5
27E
100
AcDbEntity
  8
02___PRT_ALL_AXES
100
AcDbLine
 62
7
  6
CONTINUOUS
 10
688.0515762769
 20
263.7107729601
 11
774.0515762769
 21
263.7107729601
  0
LINE
  5
27F
100
AcDbEntity
  8
02___PRT_ALL_AXES
100
AcDbLine
 62
7
  6
CONTINUOUS
 10
894.0515762769
 20
263.7107729601
 11
919.0515762325
 21
263.7107729601
  0
LINE
  5
280
100
AcDbEntity
  8
0
100
AcDbLine
 62
7
  6
CONTINUOUS
 10
1006.0515762769
 20
276.2107729601
 11
1014.0515762769
 21
276.2107729601
  0
LINE
  5
281
100
AcDbEntity
  8
0
100
AcDbLine
 62
9
  6
CONTINUOUS
 10
999.0515744379
 20
196.2088849303
 11
998.0515762769
 21
197.8544331946
  0
LINE
  5
282
100
AcDbEntity
  8
0
100
AcDbLine
 62
9
  6
CONTINUOUS
 10
999.0515762769
 20
111.2126640157
 11
999.0515762769
 21
146.9717132394
  0
LINE
  5
283
100
AcDbEntity
  8
0
100
AcDbLine
 62
9
  6
CONTINUOUS
 10
999.0515762769
 20
160.4498326807
 11
999.0515762769
 21
196.2088819044
  0
LINE
  5
284
100
AcDbEntity
  8
0
100
AcDbLine
 62
9
  6
CONTINUOUS
 10
1002.0515762769
 20
88.7107729601
 11
1002.0515762769
 21
102.3250919126
  0
LINE
  5
285
100
AcDbEntity
  8
0
100
AcDbLine
 62
9
  6
CONTINUOUS
 10
1002.0515762769
 20
148.7107729601
 11
1002.0515762769
 21
158.7107729601
  0
LINE
  5
286
100
AcDbEntity
  8
0
100
AcDbLine
 62
9
  6
CONTINUOUS
 10
1002.0515762769
 20
205.0964540075
 11
1002.0515762769
 21
218.7107729601
  0
LINE
  5
287
100
AcDbEntity
  8
0
100
AcDbLine
 62
7
  6
CONTINUOUS
 10
1004.0515762769
 20
56.210851695
 11
1004.0515762769
 21
251.2106942251
  0
LINE
  5
288
100
AcDbEntity
  8
0
100
AcDbLine
 62
7
  6
CONTINUOUS
 10
1005.0515762769
 20
31.4787221525
 11
1005.0515762769
 21
275.9428237676
  0
LINE
  5
289
100
AcDbEntity
  8
0
100
AcDbLine
 62
9
  6
CONTINUOUS
 10
1006.0515762769
 20
276.2107729601
 11
1006.0515762769
 21
31.2107729601
  0
LINE
  5
28A
100
AcDbEntity
  8
0
100
AcDbLine
 62
7
  6
CONTINUOUS
 10
1014.0515762769
 20
31.2108547269
 11
1014.0515762769
 21
276.2106911932
  0
LINE
  5
28B
100
AcDbEntity
  8
0
100
AcDbLine
 62
7
  6
CONTINUOUS
 10
1014.5515762769
 20
37.7107730036
 11
1014.5515762769
 21
328.7107729601
  0
LINE
  5
28C
100
AcDbEntity
  8
0
100
AcDbLine
 62
7
  6
CONTINUOUS
 10
1015.5515762769
 20
343.7107729601
 11
1015.5515762769
 21
363.7107729601
  0
LINE
  5
28D
100
AcDbEntity
  8
0
100
AcDbLine
 62
9
  6
CONTINUOUS
 10
1023.5515762769
 20
343.7107729601
 11
1023.5515762769
 21
366.7107729601
  0
LINE
  5
28E
100
AcDbEntity
  8
02___PRT_ALL_AXES
100
AcDbLine
 62
7
  6
CONTINUOUS
 10
1028.5515762769
 20
368.7107729601
 11
1028.5515762769
 21
406.7107729601
  0
LINE
  5
28F
100
AcDbEntity
  8
0
100
AcDbLine
 62
9
  6
CONTINUOUS
 10
1029.5515762769
 20
22.7107729601
 11
1029.5515763021
 21
343.7107729601
  0
LINE
  5
290
100
AcDbEntity
  8
0
100
AcDbLine
 62
9
  6
CONTINUOUS
 10
981.0515749652
 20
122.2675769265
 11
980.0515762769
 21
120.6816264044
  0
LINE
  5
291
100
AcDbEntity
  8
0
100
AcDbLine
 62
7
  6
CONTINUOUS
 10
774.0515762769
 20
305.7107729601
 11
894.0515762769
 21
305.7107729601
  0
LINE
  5
292
100
AcDbEntity
  8
02___PRT_ALL_AXES
100
AcDbLine
 62
7
  6
CONTINUOUS
 10
1040.5515762769
 20
347.7107729601
 11
1040.5515762769
 21
353.7107729601
  0
LINE
  5
293
100
AcDbEntity
  8
0
100
AcDbLine
 62
9
  6
CONTINUOUS
 10
999.0515762612
 20
111.2126639898
 11
998.0515762769
 21
109.5671127255
  0
LINE
  5
294
100
AcDbEntity
  8
0
100
AcDbLine
 62
7
  6
CONTINUOUS
 10
939.051582919
 20
63.7107663523
 11
919.0515843519
 21
43.7107648407
  0
LINE
  5
295
100
AcDbEntity
  8
02___PRT_ALL_AXES
100
AcDbLine
 62
7
  6
CONTINUOUS
 10
1196.5515762769
 20
330.7107729601
 11
1234.5515762769
 21
330.7107729601
  0
LINE
  5
296
100
AcDbEntity
  8
0
100
AcDbLine
 62
9
  6
CONTINUOUS
 10
1168.2797193415
 20
335.7107729601
 11
1194.5515762769
 21
335.7107729601
  0
LINE
  5
297
100
AcDbEntity
  8
0
100
AcDbLine
 62
9
  6
CONTINUOUS
 10
1156.5515762769
 20
343.4264557034
 11
1094.0868795627
 21
343.4264557034
  0
LINE
  5
298
100
AcDbEntity
  8
0
100
AcDbLine
 62
9
  6
CONTINUOUS
 10
1037.0162729911
 20
343.4264557034
 11
1029.5515763035
 21
343.4264620795
  0
LINE
  5
299
100
AcDbEntity
  8
0
100
AcDbLine
 62
7
  6
CONTINUOUS
 10
1191.5515762769
 20
343.7107729601
 11
1094.4825285599
 21
343.7107729601
  0
LINE
  5
29A
100
AcDbEntity
  8
0
100
AcDbLine
 62
7
  6
CONTINUOUS
 10
1036.6206239939
 20
343.7107729601
 11
1015.5515762769
 21
343.7107729601
  0
LINE
  5
29B
100
AcDbEntity
  8
0
100
AcDbLine
 62
9
  6
CONTINUOUS
 10
1040.5515762769
 20
347.7107729601
 11
1040.6111001709
 21
347.7107729601
  0
LINE
  5
29C
100
AcDbEntity
  8
0
100
AcDbLine
 62
9
  6
CONTINUOUS
 10
1090.4920523829
 20
347.7107729601
 11
1090.5515762769
 21
347.7107729601
  0
LINE
  5
29D
100
AcDbEntity
  8
0
100
AcDbLine
 62
7
  6
CONTINUOUS
 10
1115.5515762769
 20
353.7107729601
 11
1090.5515762769
 21
353.7107729601
  0
LINE
  5
29E
100
AcDbEntity
  8
0
100
AcDbLine
 62
7
  6
CONTINUOUS
 10
1040.5515762769
 20
353.7107729601
 11
1015.5515762769
 21
353.7107729601
  0
LINE
  5
29F
100
AcDbEntity
  8
02___PRT_ALL_AXES
100
AcDbLine
 62
7
  6
CONTINUOUS
 10
1040.5515762769
 20
353.7107729601
 11
1090.5515762769
 21
353.7107729601
  0
LINE
  5
2A0
100
AcDbEntity
  8
0
100
AcDbLine
 62
7
  6
CONTINUOUS
 10
1065.5515762769
 20
21.7107729601
 11
1065.5515762769
 21
49.9755330461
  0
LINE
  5
2A1
100
AcDbEntity
  8
0
100
AcDbLine
 62
9
  6
CONTINUOUS
 10
1015.5515762769
 20
363.7107729601
 11
1115.5515762769
 21
363.7107729601
  0
LINE
  5
2A2
100
AcDbEntity
  8
0
100
AcDbLine
 62
7
  6
CONTINUOUS
 10
1018.5515762769
 20
366.7107729601
 11
1112.5515762769
 21
366.7107729601
  0
LINE
  5
2A3
100
AcDbEntity
  8
0
100
AcDbLine
 62
9
  6
CONTINUOUS
 10
1028.5515762769
 20
368.7107729601
 11
1102.5515762769
 21
368.7107729601
  0
LINE
  5
2A4
100
AcDbEntity
  8
02___PRT_ALL_AXES
100
AcDbLine
 62
7
  6
CONTINUOUS
 10
1239.5515762769
 20
376.2107729601
 11
1254.5515762769
 21
376.2107729601
  0
LINE
  5
2A5
100
AcDbEntity
  8
02___PRT_ALL_AXES
100
AcDbLine
 62
7
  6
CONTINUOUS
 10
1090.5515762769
 20
347.7107729601
 11
1090.5515762769
 21
353.7107729601
  0
LINE
  5
2A6
100
AcDbEntity
  8
0
100
AcDbLine
 62
7
  6
CONTINUOUS
 10
1095.5515762769
 20
21.7107729601
 11
1095.5515762769
 21
49.9755330461
  0
LINE
  5
2A7
100
AcDbEntity
  8
02___PRT_ALL_AXES
100
AcDbLine
 62
7
  6
CONTINUOUS
 10
1102.5515762769
 20
368.7107729601
 11
1102.5515762769
 21
406.7107729601
  0
LINE
  5
2A8
100
AcDbEntity
  8
0
100
AcDbLine
 62
9
  6
CONTINUOUS
 10
1107.5515762769
 20
343.7107729601
 11
1107.5515762769
 21
366.7107729601
  0
LINE
  5
2A9
100
AcDbEntity
  8
0
100
AcDbLine
 62
7
  6
CONTINUOUS
 10
1115.5515762769
 20
343.7107729601
 11
1115.5515762769
 21
363.7107729601
  0
LINE
  5
2AA
100
AcDbEntity
  8
0
100
AcDbLine
 62
9
  6
CONTINUOUS
 10
1102.5515762769
 20
406.7107729601
 11
1028.5515762769
 21
406.7107729601
  0
LINE
  5
2AB
100
AcDbEntity
  8
0
100
AcDbLine
 62
7
  6
CONTINUOUS
 10
986.0515762769
 20
408.7107729601
 11
1145.0515762769
 21
408.7107729601
  0
LINE
  5
2AC
100
AcDbEntity
  8
0
100
AcDbLine
 62
9
  6
CONTINUOUS
 10
1148.0515762769
 20
411.7107729601
 11
983.0515762769
 21
411.7107729601
  0
LINE
  5
2AD
100
AcDbEntity
  8
02___PRT_ALL_AXES
100
AcDbLine
 62
7
  6
CONTINUOUS
 10
983.0519302903
 20
426.7107729601
 11
1148.0512222635
 21
426.7107729601
  0
LINE
  5
2AE
100
AcDbEntity
  8
02___PRT_ALL_AXES
100
AcDbLine
 62
7
  6
CONTINUOUS
 10
1148.0515762769
 20
411.7107729601
 11
1148.0515762769
 21
426.7107729601
  0
LINE
  5
2AF
100
AcDbEntity
  8
0
100
AcDbLine
 62
9
  6
CONTINUOUS
 10
1156.5515762769
 20
343.4264557034
 11
1156.5515762769
 21
22.7107729601
  0
LINE
  5
2B0
100
AcDbEntity
  8
0
100
AcDbLine
 62
7
  6
CONTINUOUS
 10
1171.5515762769
 20
325.78242677
 11
1171.5515762769
 21
53.8883878711
  0
LINE
  5
2B1
100
AcDbEntity
  8
0
100
AcDbLine
 62
9
  6
CONTINUOUS
 10
1175.5515762769
 20
173.7107729583
 11
1175.5515762769
 21
113.7107729601
  0
LINE
  5
2B2
100
AcDbEntity
  8
0
100
AcDbLine
 62
9
  6
CONTINUOUS
 10
1175.5515762769
 20
87.7107729583
 11
1175.5515762769
 21
54.7332939824
  0
LINE
  5
2B3
100
AcDbEntity
  8
0
100
AcDbLine
 62
7
  6
CONTINUOUS
 10
1181.5515762769
 20
343.7107729601
 11
1181.5515762769
 21
243.7107729601
  0
LINE
  5
2B4
100
AcDbEntity
  8
02___PRT_ALL_AXES
100
AcDbLine
 62
7
  6
CONTINUOUS
 10
1181.5515762769
 20
173.7106442279
 11
1181.5515762769
 21
113.7109016922
  0
LINE
  5
2B5
100
AcDbEntity
  8
02___PRT_ALL_AXES
100
AcDbLine
 62
7
  6
CONTINUOUS
 10
1181.5515762769
 20
87.7106442279
 11
1181.5515762769
 21
27.7109016922
  0
LINE
  5
2B6
100
AcDbEntity
  8
0
100
AcDbLine
 62
9
  6
CONTINUOUS
 10
1191.5515762769
 20
343.7107729601
 11
1191.5515762769
 21
243.7107729601
  0
LINE
  5
2B7
100
AcDbEntity
  8
0
100
AcDbLine
 62
7
  6
CONTINUOUS
 10
1194.5515762769
 20
340.7107729601
 11
1194.5515762769
 21
246.7107729601
  0
LINE
  5
2B8
100
AcDbEntity
  8
0
100
AcDbLine
 62
9
  6
CONTINUOUS
 10
1196.5515762769
 20
330.7107729601
 11
1196.5515762769
 21
256.7107729601
  0
LINE
  5
2B9
100
AcDbEntity
  8
0
100
AcDbLine
 62
9
  6
CONTINUOUS
 10
1234.5515762769
 20
256.7107729601
 11
1234.5515762769
 21
330.7107729601
  0
LINE
  5
2BA
100
AcDbEntity
  8
0
100
AcDbLine
 62
7
  6
CONTINUOUS
 10
1236.5515762769
 20
373.2107729601
 11
1236.5515762769
 21
214.2107729601
  0
LINE
  5
2BB
100
AcDbEntity
  8
0
100
AcDbLine
 62
9
  6
CONTINUOUS
 10
1239.5515762769
 20
211.2107729601
 11
1239.5515762769
 21
376.2107729601
  0
LINE
  5
2BC
100
AcDbEntity
  8
0
100
AcDbLine
 62
7
  6
CONTINUOUS
 10
1166.9655128034
 20
26.9150709264
 11
1166.9556816082
 21
26.9054690785
  0
LWPOLYLINE
  5
2BD
100
AcDbEntity
  8
0
100
AcDbPolyline
 62
7
  6
CONTINUOUS
 90
3
 70
0
 10
1166.9655141715
 20
26.9150712936
 10
1167.7514350442
 20
27.4388997325
 10
1168.9827540906
 20
27.7110757254
  0
LINE
  5
2BE
100
AcDbEntity
  8
02___PRT_ALL_AXES
100
AcDbLine
 62
7
  6
CONTINUOUS
 10
1254.5515762769
 20
376.2104189467
 11
1254.5515762769
 21
211.2111269734
  0
LINE
  5
2BF
100
AcDbEntity
  8
0
100
AcDbLine
 62
7
  6
CONTINUOUS
 10
311.5722304873
 20
21.7107729601
 11
284.5722304873
 21
21.7107729601
  0
LINE
  5
2C0
100
AcDbEntity
  8
0
100
AcDbLine
 62
7
  6
CONTINUOUS
 10
256.5722304873
 20
21.7107729601
 11
86.5722304873
 21
21.7107729601
  0
LINE
  5
2C1
100
AcDbEntity
  8
0
100
AcDbLine
 62
7
  6
CONTINUOUS
 10
48.5722304873
 20
21.7107729601
 11
21.5722304873
 21
21.7107729601
  0
LINE
  5
2C2
100
AcDbEntity
  8
0
100
AcDbLine
 62
3
  6
CONTINUOUS
 10
21.5722304873
 20
24.7107729601
 11
48.5722304873
 21
24.7107729601
  0
LINE
  5
2C3
100
AcDbEntity
  8
0
100
AcDbLine
 62
3
  6
CONTINUOUS
 10
284.5722304873
 20
24.7107729601
 11
311.5722304873
 21
24.7107729601
  0
LINE
  5
2C4
100
AcDbEntity
  8
0
100
AcDbLine
 62
9
  6
CONTINUOUS
 10
281.5722304873
 20
27.7107729601
 11
278.5722304873
 21
27.7107729601
  0
LINE
  5
2C5
100
AcDbEntity
  8
0
100
AcDbLine
 62
9
  6
CONTINUOUS
 10
51.5722304873
 20
27.7107729601
 11
54.5722304873
 21
27.7107729601
  0
LINE
  5
2C6
100
AcDbEntity
  8
0
100
AcDbLine
 62
9
  6
CONTINUOUS
 10
281.5722304873
 20
35.7107729601
 11
278.5722304873
 21
35.7107729601
  0
LINE
  5
2C7
100
AcDbEntity
  8
0
100
AcDbLine
 62
9
  6
CONTINUOUS
 10
51.5722304873
 20
35.7107729601
 11
54.5722304873
 21
35.7107729601
  0
LINE
  5
2C8
100
AcDbEntity
  8
0
100
AcDbLine
 62
7
  6
CONTINUOUS
 10
275.5722304873
 20
38.7107729601
 11
256.5722304873
 21
38.7107729601
  0
LINE
  5
2C9
100
AcDbEntity
  8
0
100
AcDbLine
 62
7
  6
CONTINUOUS
 10
86.5722304873
 20
38.7107729601
 11
57.5722304873
 21
38.7107729601
  0
LINE
  5
2CA
100
AcDbEntity
  8
0
100
AcDbLine
 62
3
  6
CONTINUOUS
 10
275.5722304873
 20
41.7107729601
 11
256.5722304873
 21
41.7107729601
  0
LINE
  5
2CB
100
AcDbEntity
  8
0
100
AcDbLine
 62
3
  6
CONTINUOUS
 10
86.5722304873
 20
41.7107729601
 11
57.5722304873
 21
41.7107729601
  0
LINE
  5
2CC
100
AcDbEntity
  8
0
100
AcDbLine
 62
7
  6
CONTINUOUS
 10
56.5722304873
 20
41.7107729601
 11
57.5722304873
 21
41.7107729601
  0
LINE
  5
2CD
100
AcDbEntity
  8
0
100
AcDbLine
 62
7
  6
CONTINUOUS
 10
275.5722304873
 20
41.7107729601
 11
276.5722304873
 21
41.7107729601
  0
LINE
  5
2CE
100
AcDbEntity
  8
0
100
AcDbLine
 62
7
  6
CONTINUOUS
 10
21.5722304873
 20
21.7107729601
 11
21.5722304873
 21
24.7107729601
  0
LINE
  5
2CF
100
AcDbEntity
  8
0
100
AcDbLine
 62
7
  6
CONTINUOUS
 10
56.5722304873
 20
53.7107729601
 11
81.9821988169
 21
53.7107729601
  0
LINE
  5
2D0
100
AcDbEntity
  8
0
100
AcDbLine
 62
7
  6
CONTINUOUS
 10
256.5722304873
 20
53.7107729601
 11
276.5722304873
 21
53.7107729601
  0
LINE
  5
2D1
100
AcDbEntity
  8
0
100
AcDbLine
 62
7
  6
CONTINUOUS
 10
35.5722304873
 20
217.0821507814
 11
35.5722304873
 21
153.7107729601
  0
LINE
  5
2D2
100
AcDbEntity
  8
0
100
AcDbLine
 62
9
  6
CONTINUOUS
 10
36.5722304873
 20
21.7107729601
 11
36.5722304873
 21
24.7107729601
  0
LINE
  5
2D3
100
AcDbEntity
  8
0
100
AcDbLine
 62
9
  6
CONTINUOUS
 10
48.5722304873
 20
24.7107729601
 11
48.5722304873
 21
21.7107729601
  0
LINE
  5
2D4
100
AcDbEntity
  8
0
100
AcDbLine
 62
9
  6
CONTINUOUS
 10
107.4834168196
 20
53.8883702291
 11
111.3934086455
 21
54.7333474709
  0
LINE
  5
2D5
100
AcDbEntity
  8
0
100
AcDbLine
 62
9
  6
CONTINUOUS
 10
50.5722304873
 20
217.0821507814
 11
50.5722304873
 21
153.7107729601
  0
LINE
  5
2D6
100
AcDbEntity
  8
0
100
AcDbLine
 62
3
  6
CONTINUOUS
 10
51.5722304873
 20
35.7107729601
 11
51.5722304873
 21
27.7107729601
  0
LINE
  5
2D7
100
AcDbEntity
  8
0
100
AcDbLine
 62
7
  6
CONTINUOUS
 10
54.5722304873
 20
35.7107729601
 11
54.5722304873
 21
27.7107729601
  0
LINE
  5
2D8
100
AcDbEntity
  8
0
100
AcDbLine
 62
7
  6
CONTINUOUS
 10
56.5722304873
 20
41.7107729601
 11
56.5722304873
 21
53.7107729601
  0
LINE
  5
2D9
100
AcDbEntity
  8
0
100
AcDbLine
 62
9
  6
CONTINUOUS
 10
57.5722304873
 20
41.7107729601
 11
57.5722304873
 21
38.7107729601
  0
LINE
  5
2DA
100
AcDbEntity
  8
0
100
AcDbLine
 62
7
  6
CONTINUOUS
 10
86.5722304873
 20
21.7107729601
 11
86.5722304873
 21
49.9755330461
  0
LINE
  5
2DB
100
AcDbEntity
  8
0
100
AcDbLine
 62
7
  6
CONTINUOUS
 10
111.0722304873
 20
353.7107729601
 11
111.0722304873
 21
344.3211400354
  0
LINE
  5
2DC
100
AcDbEntity
  8
02___PRT_ALL_AXES
100
AcDbLine
 62
7
  6
CONTINUOUS
 10
111.0722304873
 20
344.3211400354
 11
111.0722304873
 21
353.7107729601
  0
LINE
  5
2DD
100
AcDbEntity
  8
0
100
AcDbLine
 62
9
  6
CONTINUOUS
 10
50.5722304873
 20
153.7107729601
 11
35.5722304873
 21
153.7107729601
  0
LINE
  5
2DE
100
AcDbEntity
  8
0
100
AcDbLine
 62
9
  6
CONTINUOUS
 10
282.5722304873
 20
153.7107729601
 11
297.5722304873
 21
153.7107729601
  0
LINE
  5
2DF
100
AcDbEntity
  8
0
100
AcDbLine
 62
7
  6
CONTINUOUS
 10
126.0722304873
 20
335.7107729601
 11
126.0722304873
 21
331.0650066673
  0
LINE
  5
2E0
100
AcDbEntity
  8
0
100
AcDbLine
 62
7
  6
CONTINUOUS
 10
126.0722304873
 20
256.356539475
 11
126.0722304873
 21
251.7107729601
  0
LINE
  5
2E1
100
AcDbEntity
  8
0
100
AcDbLine
 62
9
  6
CONTINUOUS
 10
129.0722304873
 20
335.7107729601
 11
129.0722304873
 21
328.6047160203
  0
LINE
  5
2E2
100
AcDbEntity
  8
0
100
AcDbLine
 62
9
  6
CONTINUOUS
 10
129.0722304873
 20
258.8168289155
 11
129.0722304873
 21
251.7107729601
  0
LINE
  5
2E3
100
AcDbEntity
  8
0
100
AcDbLine
 62
9
  6
CONTINUOUS
 10
134.0722304873
 20
340.7107729601
 11
134.0722305068
 21
343.7107729601
  0
LINE
  5
2E4
100
AcDbEntity
  8
0
100
AcDbLine
 62
9
  6
CONTINUOUS
 10
134.0722304873
 20
246.7107729601
 11
134.0722304873
 21
243.7107729601
  0
LINE
  5
2E5
100
AcDbEntity
  8
0
100
AcDbLine
 62
7
  6
CONTINUOUS
 10
187.5722304873
 20
426.7107729601
 11
187.5722304873
 21
411.7107729601
  0
LINE
  5
2E6
100
AcDbEntity
  8
02___PRT_ALL_AXES
100
AcDbLine
 62
7
  6
CONTINUOUS
 10
187.5722304873
 20
411.7107729601
 11
187.5722304873
 21
426.7107729601
  0
LINE
  5
2E7
100
AcDbEntity
  8
0
100
AcDbLine
 62
9
  6
CONTINUOUS
 10
50.5722304873
 20
217.0821507814
 11
35.5722304873
 21
217.0821507814
  0
LINE
  5
2E8
100
AcDbEntity
  8
0
100
AcDbLine
 62
9
  6
CONTINUOUS
 10
282.5722304873
 20
224.0113996404
 11
297.5722304873
 21
224.0113996396
  0
LINE
  5
2E9
100
AcDbEntity
  8
0
100
AcDbLine
 62
7
  6
CONTINUOUS
 10
134.0722304873
 20
243.7107729601
 11
138.71799678
 21
243.7107729601
  0
LINE
  5
2EA
100
AcDbEntity
  8
0
100
AcDbLine
 62
7
  6
CONTINUOUS
 10
213.4264639724
 20
243.7107729601
 11
218.0722304873
 21
243.7107729601
  0
LINE
  5
2EB
100
AcDbEntity
  8
0
100
AcDbLine
 62
9
  6
CONTINUOUS
 10
218.0722304873
 20
246.7107729601
 11
218.0722304678
 21
243.7107729601
  0
LINE
  5
2EC
100
AcDbEntity
  8
0
100
AcDbLine
 62
9
  6
CONTINUOUS
 10
218.0722304873
 20
340.7107729601
 11
218.0722304873
 21
343.7107729601
  0
LINE
  5
2ED
100
AcDbEntity
  8
0
100
AcDbLine
 62
7
  6
CONTINUOUS
 10
220.0722304873
 20
363.7107729601
 11
220.0722304873
 21
363.349165319
  0
LINE
  5
2EE
100
AcDbEntity
  8
0
100
AcDbLine
 62
7
  6
CONTINUOUS
 10
220.0722304873
 20
343.7107729601
 11
220.0722304873
 21
346.8431137703
  0
LINE
  5
2EF
100
AcDbEntity
  8
0
100
AcDbLine
 62
9
  6
CONTINUOUS
 10
223.0722304873
 20
251.7107729601
 11
223.0722304873
 21
258.8168298998
  0
LINE
  5
2F0
100
AcDbEntity
  8
0
100
AcDbLine
 62
9
  6
CONTINUOUS
 10
223.0722304873
 20
328.6047170046
 11
223.0722304873
 21
335.7107729601
  0
LINE
  5
2F1
100
AcDbEntity
  8
0
100
AcDbLine
 62
9
  6
CONTINUOUS
 10
134.0722304873
 20
246.7107729601
 11
141.178287427
 21
246.7107729601
  0
LINE
  5
2F2
100
AcDbEntity
  8
0
100
AcDbLine
 62
9
  6
CONTINUOUS
 10
210.9661745318
 20
246.7107729601
 11
218.0722304873
 21
246.7107729601
  0
LINE
  5
2F3
100
AcDbEntity
  8
0
100
AcDbLine
 62
9
  6
CONTINUOUS
 10
129.0722304873
 20
251.7107729601
 11
126.0722304873
 21
251.7107729795
  0
LINE
  5
2F4
100
AcDbEntity
  8
0
100
AcDbLine
 62
9
  6
CONTINUOUS
 10
223.0722304873
 20
251.7107729601
 11
226.0722304873
 21
251.7107729601
  0
LINE
  5
2F5
100
AcDbEntity
  8
0
100
AcDbLine
 62
7
  6
CONTINUOUS
 10
226.0722304873
 20
251.7107729601
 11
226.0722304873
 21
256.3565392528
  0
LINE
  5
2F6
100
AcDbEntity
  8
0
100
AcDbLine
 62
7
  6
CONTINUOUS
 10
226.0722304873
 20
331.0650064451
 11
226.0722304873
 21
335.7107729601
  0
LINE
  5
2F7
100
AcDbEntity
  8
0
100
AcDbLine
 62
9
  6
CONTINUOUS
 10
228.0722304873
 20
366.7107729601
 11
228.0722304873
 21
357.5914887504
  0
LINE
  5
2F8
100
AcDbEntity
  8
0
100
AcDbLine
 62
7
  6
CONTINUOUS
 10
233.0722304873
 20
368.7107729601
 11
233.0722304873
 21
406.7107729601
  0
LINE
  5
2F9
100
AcDbEntity
  8
02___PRT_ALL_AXES
100
AcDbLine
 62
7
  6
CONTINUOUS
 10
233.0722304873
 20
368.7107729601
 11
233.0722304873
 21
406.7107729601
  0
LINE
  5
2FA
100
AcDbEntity
  8
0
100
AcDbLine
 62
7
  6
CONTINUOUS
 10
242.5722304873
 20
342.3062903693
 11
242.5722304873
 21
343.7107729601
  0
LINE
  5
2FB
100
AcDbEntity
  8
0
100
AcDbLine
 62
9
  6
CONTINUOUS
 10
250.5722304873
 20
328.9393412718
 11
250.5722304873
 21
343.7107729601
  0
LINE
  5
2FC
100
AcDbEntity
  8
0
100
AcDbLine
 62
7
  6
CONTINUOUS
 10
256.5722304873
 20
21.7107729601
 11
256.5722304873
 21
58.5214878488
  0
LINE
  5
2FD
100
AcDbEntity
  8
0
100
AcDbLine
 62
9
  6
CONTINUOUS
 10
275.5722304873
 20
41.7107729601
 11
275.5722304873
 21
38.7107729601
  0
LINE
  5
2FE
100
AcDbEntity
  8
0
100
AcDbLine
 62
7
  6
CONTINUOUS
 10
276.5722304873
 20
41.7107729601
 11
276.5722304873
 21
53.7107729601
  0
LINE
  5
2FF
100
AcDbEntity
  8
0
100
AcDbLine
 62
7
  6
CONTINUOUS
 10
278.5722304873
 20
27.7107729601
 11
278.5722304873
 21
35.7107729601
  0
LINE
  5
300
100
AcDbEntity
  8
0
100
AcDbLine
 62
3
  6
CONTINUOUS
 10
281.5722304873
 20
27.7107729601
 11
281.5722304873
 21
35.7107729601
  0
LINE
  5
301
100
AcDbEntity
  8
0
100
AcDbLine
 62
9
  6
CONTINUOUS
 10
282.5722304873
 20
153.7107729601
 11
282.5722304873
 21
224.0113996404
  0
LINE
  5
302
100
AcDbEntity
  8
0
100
AcDbLine
 62
9
  6
CONTINUOUS
 10
284.5722304873
 20
24.7107729601
 11
284.5722304873
 21
21.7107729601
  0
LINE
  5
303
100
AcDbEntity
  8
0
100
AcDbLine
 62
9
  6
CONTINUOUS
 10
289.5722304873
 20
269.0891103188
 11
289.5722304873
 21
343.7107729601
  0
LINE
  5
304
100
AcDbEntity
  8
0
100
AcDbLine
 62
9
  6
CONTINUOUS
 10
296.5722304873
 20
21.7107729601
 11
296.5722304873
 21
24.7107729601
  0
LINE
  5
305
100
AcDbEntity
  8
0
100
AcDbLine
 62
7
  6
CONTINUOUS
 10
297.5722304873
 20
153.7107729601
 11
297.5722304873
 21
343.7107729601
  0
LINE
  5
306
100
AcDbEntity
  8
0
100
AcDbLine
 62
7
  6
CONTINUOUS
 10
307.0722304873
 20
368.7107729601
 11
307.0722304873
 21
406.7107729601
  0
LINE
  5
307
100
AcDbEntity
  8
02___PRT_ALL_AXES
100
AcDbLine
 62
7
  6
CONTINUOUS
 10
307.0722304873
 20
368.7107729601
 11
307.0722304873
 21
406.7107729601
  0
LINE
  5
308
100
AcDbEntity
  8
0
100
AcDbLine
 62
9
  6
CONTINUOUS
 10
129.0722304873
 20
335.7107729601
 11
126.0722304873
 21
335.7107729601
  0
LINE
  5
309
100
AcDbEntity
  8
0
100
AcDbLine
 62
9
  6
CONTINUOUS
 10
223.0722304873
 20
335.7107729601
 11
226.0722304873
 21
335.7107729406
  0
LINE
  5
30A
100
AcDbEntity
  8
0
100
AcDbLine
 62
9
  6
CONTINUOUS
 10
218.0722304873
 20
340.7107729601
 11
210.9661735475
 21
340.7107729601
  0
LINE
  5
30B
100
AcDbEntity
  8
0
100
AcDbLine
 62
9
  6
CONTINUOUS
 10
141.1782864428
 20
340.7107729601
 11
134.0722304873
 21
340.7107729601
  0
LINE
  5
30C
100
AcDbEntity
  8
0
100
AcDbLine
 62
7
  6
CONTINUOUS
 10
320.0722304873
 20
343.7107729601
 11
241.5266319389
 21
343.7107729601
  0
LINE
  5
30D
100
AcDbEntity
  8
0
100
AcDbLine
 62
7
  6
CONTINUOUS
 10
227.0682393503
 20
343.7107729601
 11
220.0722304873
 21
343.7107729601
  0
LINE
  5
30E
100
AcDbEntity
  8
0
100
AcDbLine
 62
7
  6
CONTINUOUS
 10
218.0722304873
 20
343.7107729601
 11
213.4264641945
 21
343.7107729601
  0
LINE
  5
30F
100
AcDbEntity
  8
0
100
AcDbLine
 62
7
  6
CONTINUOUS
 10
138.7179970022
 20
343.7107729601
 11
134.0722304873
 21
343.7107729601
  0
LINE
  5
310
100
AcDbEntity
  8
0
100
AcDbLine
 62
7
  6
CONTINUOUS
 10
311.5722304873
 20
21.7107729601
 11
311.5722304873
 21
24.7107729601
  0
LINE
  5
311
100
AcDbEntity
  8
0
100
AcDbLine
 62
9
  6
CONTINUOUS
 10
312.0722304873
 20
343.7107729601
 11
312.0722304873
 21
366.7107729601
  0
LINE
  5
312
100
AcDbEntity
  8
0
100
AcDbLine
 62
7
  6
CONTINUOUS
 10
320.0722304873
 20
343.7107729601
 11
320.0722304873
 21
363.7107729601
  0
LINE
  5
313
100
AcDbEntity
  8
0
100
AcDbLine
 62
7
  6
CONTINUOUS
 10
320.0722304873
 20
353.7107729601
 11
232.6950202493
 21
353.7107729601
  0
LINE
  5
314
100
AcDbEntity
  8
02___PRT_ALL_AXES
100
AcDbLine
 62
7
  6
CONTINUOUS
 10
111.0722304873
 20
353.7107729601
 11
119.4494407252
 21
353.7107729601
  0
LINE
  5
315
100
AcDbEntity
  8
0
100
AcDbLine
 62
9
  6
CONTINUOUS
 10
220.0722304873
 20
363.7107729601
 11
320.0722304873
 21
363.7107729601
  0
LINE
  5
316
100
AcDbEntity
  8
0
100
AcDbLine
 62
7
  6
CONTINUOUS
 10
223.0722304873
 20
366.7107729601
 11
317.0722304873
 21
366.7107729601
  0
LINE
  5
317
100
AcDbEntity
  8
0
100
AcDbLine
 62
9
  6
CONTINUOUS
 10
233.0722304873
 20
368.7107729601
 11
307.0722304873
 21
368.7107729601
  0
LINE
  5
318
100
AcDbEntity
  8
0
100
AcDbLine
 62
7
  6
CONTINUOUS
 10
352.5722304873
 20
426.7107729601
 11
352.5722304873
 21
411.7107729601
  0
LINE
  5
319
100
AcDbEntity
  8
02___PRT_ALL_AXES
100
AcDbLine
 62
7
  6
CONTINUOUS
 10
352.5722304873
 20
411.7107729601
 11
352.5722304873
 21
426.7107729601
  0
LINE
  5
31A
100
AcDbEntity
  8
0
100
AcDbLine
 62
9
  6
CONTINUOUS
 10
242.9189794176
 20
66.3770799659
 11
239.3533372369
 21
64.5642423976
  0
LINE
  5
31B
100
AcDbEntity
  8
0
100
AcDbLine
 62
9
  6
CONTINUOUS
 10
307.0722304873
 20
406.7107729601
 11
233.0722304873
 21
406.7107729601
  0
LINE
  5
31C
100
AcDbEntity
  8
0
100
AcDbLine
 62
7
  6
CONTINUOUS
 10
349.5722304873
 20
408.7107729601
 11
190.5722304873
 21
408.7107729601
  0
LINE
  5
31D
100
AcDbEntity
  8
0
100
AcDbLine
 62
9
  6
CONTINUOUS
 10
352.5722304873
 20
411.7107729601
 11
187.5722304873
 21
411.7107729601
  0
LINE
  5
31E
100
AcDbEntity
  8
02___PRT_ALL_AXES
100
AcDbLine
 62
7
  6
CONTINUOUS
 10
187.5722304873
 20
426.7107729601
 11
352.5722304873
 21
426.7107729601
  0
LINE
  5
31F
100
AcDbEntity
  8
02___PRT_ALL_AXES
100
AcDbLine
 62
7
  6
CONTINUOUS
 10
-877.0918654531
 20
211.2111269734
 11
-877.0918654531
 21
376.2104189467
  0
LINE
  5
320
100
AcDbEntity
  8
0
100
AcDbLine
 62
9
  6
CONTINUOUS
 10
-862.0918654531
 20
376.2107729601
 11
-862.0918654531
 21
211.2107729601
  0
LINE
  5
321
100
AcDbEntity
  8
0
100
AcDbLine
 62
7
  6
CONTINUOUS
 10
-859.0918654531
 20
214.2107729601
 11
-859.0918654531
 21
373.2107729601
  0
LINE
  5
322
100
AcDbEntity
  8
0
100
AcDbLine
 62
9
  6
CONTINUOUS
 10
-857.0918654531
 20
330.7107729601
 11
-857.0918654531
 21
256.7107729601
  0
LINE
  5
323
100
AcDbEntity
  8
0
100
AcDbLine
 62
7
  6
CONTINUOUS
 10
-789.5058019797
 20
26.9150709264
 11
-789.4959707844
 21
26.9054690785
  0
LINE
  5
324
100
AcDbEntity
  8
0
100
AcDbLine
 62
9
  6
CONTINUOUS
 10
-819.0918654531
 20
256.7107729601
 11
-819.0918654531
 21
330.7107729601
  0
LINE
  5
325
100
AcDbEntity
  8
0
100
AcDbLine
 62
7
  6
CONTINUOUS
 10
-817.0918654531
 20
246.7107729601
 11
-817.0918654531
 21
340.7107729601
  0
LINE
  5
326
100
AcDbEntity
  8
0
100
AcDbLine
 62
9
  6
CONTINUOUS
 10
-814.0918654531
 20
243.7107729601
 11
-814.0918654531
 21
343.7107729601
  0
LINE
  5
327
100
AcDbEntity
  8
02___PRT_ALL_AXES
100
AcDbLine
 62
7
  6
CONTINUOUS
 10
-804.0918654531
 20
27.7109016922
 11
-804.0918654531
 21
87.7106442279
  0
LINE
  5
328
100
AcDbEntity
  8
02___PRT_ALL_AXES
100
AcDbLine
 62
7
  6
CONTINUOUS
 10
-804.0918654531
 20
113.7109016922
 11
-804.0918654531
 21
173.7106442279
  0
LINE
  5
329
100
AcDbEntity
  8
0
100
AcDbLine
 62
7
  6
CONTINUOUS
 10
-804.0918654531
 20
243.7107729601
 11
-804.0918654531
 21
343.7107729601
  0
LINE
  5
32A
100
AcDbEntity
  8
0
100
AcDbLine
 62
9
  6
CONTINUOUS
 10
-798.0918654531
 20
64.5642528357
 11
-798.0918654531
 21
87.7107729601
  0
LINE
  5
32B
100
AcDbEntity
  8
0
100
AcDbLine
 62
9
  6
CONTINUOUS
 10
-798.0918654531
 20
113.7107729618
 11
-798.0918654531
 21
173.7107729601
  0
LINE
  5
32C
100
AcDbEntity
  8
0
100
AcDbLine
 62
7
  6
CONTINUOUS
 10
-794.0918654531
 20
66.3770799841
 11
-794.0918654531
 21
323.5892586252
  0
LWPOLYLINE
  5
32D
100
AcDbEntity
  8
0
100
AcDbPolyline
 62
7
  6
CONTINUOUS
 90
3
 70
0
 10
-791.5230432669
 20
27.7110757254
 10
-790.2917242205
 20
27.4388997325
 10
-789.5058033478
 20
26.9150712936
  0
LINE
  5
32E
100
AcDbEntity
  8
0
100
AcDbLine
 62
9
  6
CONTINUOUS
 10
-779.0918654531
 20
22.7107729601
 11
-779.0918654531
 21
342.9757728508
  0
LINE
  5
32F
100
AcDbEntity
  8
02___PRT_ALL_AXES
100
AcDbLine
 62
7
  6
CONTINUOUS
 10
-770.5918654531
 20
411.7107729601
 11
-770.5918654531
 21
426.7107729601
  0
LINE
  5
330
100
AcDbEntity
  8
0
100
AcDbLine
 62
7
  6
CONTINUOUS
 10
-329.0918654531
 20
21.7107729601
 11
-514.0918654531
 21
21.7107729601
  0
LINE
  5
331
100
AcDbEntity
  8
0
100
AcDbLine
 62
7
  6
CONTINUOUS
 10
-688.0918654531
 20
21.7107729601
 11
-718.0918654531
 21
21.7107729601
  0
LINE
  5
332
100
AcDbEntity
  8
0
100
AcDbLine
 62
7
  6
CONTINUOUS
 10
-779.0918654531
 20
22.7107729601
 11
-718.0918654531
 21
22.7107729601
  0
LINE
  5
333
100
AcDbEntity
  8
0
100
AcDbLine
 62
7
  6
CONTINUOUS
 10
-688.0918654531
 20
22.7107729601
 11
-652.0918654531
 21
22.7107729601
  0
LINE
  5
334
100
AcDbEntity
  8
0
100
AcDbLine
 62
3
  6
CONTINUOUS
 10
-329.0918654531
 20
24.7107729601
 11
-514.0918654531
 21
24.7107729601
  0
LINE
  5
335
100
AcDbEntity
  8
0
100
AcDbLine
 62
7
  6
CONTINUOUS
 10
-738.0918654531
 20
343.7107729601
 11
-738.0918654531
 21
363.7107729601
  0
LINE
  5
336
100
AcDbEntity
  8
0
100
AcDbLine
 62
9
  6
CONTINUOUS
 10
-730.0918654531
 20
343.7107729601
 11
-730.0918654531
 21
366.7107729601
  0
LINE
  5
337
100
AcDbEntity
  8
0
100
AcDbLine
 62
7
  6
CONTINUOUS
 10
-791.5487377778
 20
27.7107729601
 11
-791.5230326791
 21
27.7110847255
  0
LINE
  5
338
100
AcDbEntity
  8
02___PRT_ALL_AXES
100
AcDbLine
 62
7
  6
CONTINUOUS
 10
-804.0918654531
 20
27.7107729601
 11
-791.54872715
 21
27.7107729601
  0
LINE
  5
339
100
AcDbEntity
  8
0
100
AcDbLine
 62
9
  6
CONTINUOUS
 10
-329.0918654531
 20
27.7107729601
 11
-514.0918654531
 21
27.7107729601
  0
LINE
  5
33A
100
AcDbEntity
  8
0
100
AcDbLine
 62
7
  6
CONTINUOUS
 10
-628.5918654531
 20
31.2107729601
 11
-636.5918654531
 21
31.2107729601
  0
LINE
  5
33B
100
AcDbEntity
  8
0
100
AcDbLine
 62
9
  6
CONTINUOUS
 10
-329.0918654531
 20
35.7107729601
 11
-514.0918654531
 21
35.7107729601
  0
LINE
  5
33C
100
AcDbEntity
  8
0
100
AcDbLine
 62
7
  6
CONTINUOUS
 10
-509.5918654531
 20
41.7107729601
 11
-333.5918654531
 21
41.7107729601
  0
LINE
  5
33D
100
AcDbEntity
  8
0
100
AcDbLine
 62
3
  6
CONTINUOUS
 10
-329.0918654531
 20
41.7107729601
 11
-333.5918654531
 21
41.7107729601
  0
LINE
  5
33E
100
AcDbEntity
  8
0
100
AcDbLine
 62
3
  6
CONTINUOUS
 10
-509.5918654531
 20
41.7107729601
 11
-514.0918654531
 21
41.7107729601
  0
LINE
  5
33F
100
AcDbEntity
  8
02___PRT_ALL_AXES
100
AcDbLine
 62
7
  6
CONTINUOUS
 10
-263.8761157363
 20
43.7107729601
 11
-300.5918654531
 21
43.7107729601
  0
LINE
  5
340
100
AcDbEntity
  8
02___PRT_ALL_AXES
100
AcDbLine
 62
7
  6
CONTINUOUS
 10
-310.5918654531
 20
43.7107729601
 11
-333.5918654531
 21
43.7107729601
  0
LINE
  5
341
100
AcDbEntity
  8
02___PRT_ALL_AXES
100
AcDbLine
 62
7
  6
CONTINUOUS
 10
-509.5918654531
 20
43.7107729601
 11
-541.5918654088
 21
43.7107729601
  0
LINE
  5
342
100
AcDbEntity
  8
3_ALL_AXES
100
AcDbLine
 62
7
  6
CONTINUOUS
 10
-637.0918654531
 20
48.7107729601
 11
-636.5918654531
 21
48.7107729601
  0
LINE
  5
343
100
AcDbEntity
  8
02___PRT_ALL_AXES
100
AcDbLine
 62
7
  6
CONTINUOUS
 10
-725.0918654531
 20
368.7107729601
 11
-725.0918654531
 21
406.7107729601
  0
LINE
  5
344
100
AcDbEntity
  8
0
100
AcDbLine
 62
7
  6
CONTINUOUS
 10
-718.0918654531
 20
21.7107729601
 11
-718.0918654531
 21
58.5214878488
  0
LINE
  5
345
100
AcDbEntity
  8
0
100
AcDbLine
 62
7
  6
CONTINUOUS
 10
-715.5918654531
 20
269.0891103188
 11
-715.5918654531
 21
343.7107729601
  0
LINE
  5
346
100
AcDbEntity
  8
0
100
AcDbLine
 62
9
  6
CONTINUOUS
 10
-707.5918654531
 20
224.0113996404
 11
-707.5918654531
 21
343.7107729601
  0
LINE
  5
347
100
AcDbEntity
  8
0
100
AcDbLine
 62
7
  6
CONTINUOUS
 10
-509.5918654531
 20
53.7107729601
 11
-333.5918654531
 21
53.7107729601
  0
LINE
  5
348
100
AcDbEntity
  8
0
100
AcDbLine
 62
7
  6
CONTINUOUS
 10
-627.5918654531
 20
56.2107729601
 11
-626.5918654531
 21
56.2107729601
  0
LINE
  5
349
100
AcDbEntity
  8
0
100
AcDbLine
 62
7
  6
CONTINUOUS
 10
-718.0918654531
 20
58.5214878488
 11
-688.0918654531
 21
58.5214878488
  0
LINE
  5
34A
100
AcDbEntity
  8
0
100
AcDbLine
 62
7
  6
CONTINUOUS
 10
-688.0918654531
 20
21.7107729601
 11
-688.0918654531
 21
58.5214878488
  0
LINE
  5
34B
100
AcDbEntity
  8
02___PRT_ALL_AXES
100
AcDbLine
 62
7
  6
CONTINUOUS
 10
-798.0918654531
 20
87.7107729601
 11
-804.0918654531
 21
87.7107729601
  0
LINE
  5
34C
100
AcDbEntity
  8
0
100
AcDbLine
 62
7
  6
CONTINUOUS
 10
-624.5918654531
 20
88.7107729601
 11
-563.5918654531
 21
88.7107729601
  0
LINE
  5
34D
100
AcDbEntity
  8
0
100
AcDbLine
 62
9
  6
CONTINUOUS
 10
-575.5918654531
 20
90.7107729601
 11
-626.5918654531
 21
90.7107729602
  0
LINE
  5
34E
100
AcDbEntity
  8
0
100
AcDbLine
 62
9
  6
CONTINUOUS
 10
-668.5918654531
 20
224.0113996404
 11
-668.5918654531
 21
343.7107729601
  0
LINE
  5
34F
100
AcDbEntity
  8
0
100
AcDbLine
 62
7
  6
CONTINUOUS
 10
-660.5918654531
 20
269.0891103188
 11
-660.5918654531
 21
343.7107729601
  0
LINE
  5
350
100
AcDbEntity
  8
0
100
AcDbLine
 62
9
  6
CONTINUOUS
 10
-626.5918654531
 20
102.3250919126
 11
-624.5918654531
 21
102.3250919126
  0
LINE
  5
351
100
AcDbEntity
  8
02___PRT_ALL_AXES
100
AcDbLine
 62
7
  6
CONTINUOUS
 10
-804.0918654531
 20
113.7107729601
 11
-798.0918654531
 21
113.7107729601
  0
LINE
  5
352
100
AcDbEntity
  8
0
100
AcDbLine
 62
9
  6
CONTINUOUS
 10
-575.5918654531
 20
120.7600521789
 11
-577.5918654531
 21
120.7600521789
  0
LINE
  5
353
100
AcDbEntity
  8
0
100
AcDbLine
 62
9
  6
CONTINUOUS
 10
-578.5918654531
 20
121.8556320877
 11
-598.5918654531
 21
121.8556320877
  0
LINE
  5
354
100
AcDbEntity
  8
0
100
AcDbLine
 62
9
  6
CONTINUOUS
 10
-578.5918654531
 20
123.6759258518
 11
-598.5918654531
 21
123.6759258518
  0
LINE
  5
355
100
AcDbEntity
  8
0
100
AcDbLine
 62
9
  6
CONTINUOUS
 10
-561.5918654531
 20
123.7107729601
 11
-575.5918654531
 21
123.7107729601
  0
LINE
  5
356
100
AcDbEntity
  8
0
100
AcDbLine
 62
7
  6
CONTINUOUS
 10
-561.5918720953
 20
63.7107663523
 11
-541.5918735281
 21
43.7107648407
  0
LINE
  5
357
100
AcDbEntity
  8
0
100
AcDbLine
 62
9
  6
CONTINUOUS
 10
-621.5918636142
 20
111.2126609898
 11
-620.5918654531
 21
109.5671127255
  0
LINE
  5
358
100
AcDbEntity
  8
0
100
AcDbLine
 62
9
  6
CONTINUOUS
 10
-652.0918654531
 20
22.7107729601
 11
-652.091865479
 21
343.7107729601
  0
LINE
  5
359
100
AcDbEntity
  8
02___PRT_ALL_AXES
100
AcDbLine
 62
7
  6
CONTINUOUS
 10
-651.0918654531
 20
368.7107729601
 11
-651.0918654531
 21
406.7107729601
  0
LINE
  5
35A
100
AcDbEntity
  8
0
100
AcDbLine
 62
9
  6
CONTINUOUS
 10
-646.0918654531
 20
343.7107729601
 11
-646.0918654531
 21
366.7107729601
  0
LINE
  5
35B
100
AcDbEntity
  8
0
100
AcDbLine
 62
7
  6
CONTINUOUS
 10
-638.0918654531
 20
343.7107729601
 11
-638.0918654531
 21
363.7107729601
  0
LINE
  5
35C
100
AcDbEntity
  8
0
100
AcDbLine
 62
7
  6
CONTINUOUS
 10
-637.0918654531
 20
328.7107729601
 11
-637.0918654531
 21
37.7107730036
  0
LINE
  5
35D
100
AcDbEntity
  8
0
100
AcDbLine
 62
7
  6
CONTINUOUS
 10
-636.5918654531
 20
31.2108547269
 11
-636.5918654531
 21
276.2106911932
  0
LINE
  5
35E
100
AcDbEntity
  8
0
100
AcDbLine
 62
9
  6
CONTINUOUS
 10
-575.5918654531
 20
146.71077296
 11
-573.5918654531
 21
146.7107729599
  0
LINE
  5
35F
100
AcDbEntity
  8
0
100
AcDbLine
 62
9
  6
CONTINUOUS
 10
-598.5918654531
 20
147.1107729601
 11
-578.5918654531
 21
147.1107729601
  0
LINE
  5
360
100
AcDbEntity
  8
0
100
AcDbLine
 62
7
  6
CONTINUOUS
 10
-624.5918654531
 20
148.7107729601
 11
-577.5918654531
 21
148.7107729601
  0
LINE
  5
361
100
AcDbEntity
  8
0
100
AcDbLine
 62
9
  6
CONTINUOUS
 10
-577.5918654531
 20
150.7107729601
 11
-626.5918654531
 21
150.7107729602
  0
LINE
  5
362
100
AcDbEntity
  8
0
100
AcDbLine
 62
9
  6
CONTINUOUS
 10
-603.5918654259
 20
122.2675789637
 11
-602.5918654531
 21
120.6816264044
  0
LINE
  5
363
100
AcDbEntity
  8
0
100
AcDbLine
 62
9
  6
CONTINUOUS
 10
-628.5918654531
 20
31.2107729601
 11
-628.5918654531
 21
276.2107729601
  0
LINE
  5
364
100
AcDbEntity
  8
0
100
AcDbLine
 62
7
  6
CONTINUOUS
 10
-627.5918654531
 20
275.9428237676
 11
-627.5918654531
 21
31.4787221525
  0
LINE
  5
365
100
AcDbEntity
  8
0
100
AcDbLine
 62
7
  6
CONTINUOUS
 10
-626.5918654531
 20
251.2106942251
 11
-626.5918654531
 21
56.210851695
  0
LINE
  5
366
100
AcDbEntity
  8
0
100
AcDbLine
 62
9
  6
CONTINUOUS
 10
-624.5918654531
 20
88.7107729601
 11
-624.5918654531
 21
102.3250919126
  0
LINE
  5
367
100
AcDbEntity
  8
0
100
AcDbLine
 62
9
  6
CONTINUOUS
 10
-624.5918654531
 20
148.7107729601
 11
-624.5918654531
 21
158.7107729601
  0
LINE
  5
368
100
AcDbEntity
  8
0
100
AcDbLine
 62
9
  6
CONTINUOUS
 10
-624.5918654531
 20
205.0964540075
 11
-624.5918654531
 21
218.7107729601
  0
LINE
  5
369
100
AcDbEntity
  8
0
100
AcDbLine
 62
9
  6
CONTINUOUS
 10
-621.5918654531
 20
196.2088819044
 11
-621.5918654531
 21
160.4498326807
  0
LINE
  5
36A
100
AcDbEntity
  8
0
100
AcDbLine
 62
9
  6
CONTINUOUS
 10
-621.5918654531
 20
146.9717132394
 11
-621.5918654531
 21
111.2126640157
  0
LINE
  5
36B
100
AcDbEntity
  8
02___PRT_ALL_AXES
100
AcDbLine
 62
7
  6
CONTINUOUS
 10
-605.5918654531
 20
411.7107729601
 11
-605.5918654531
 21
426.7107729601
  0
LINE
  5
36C
100
AcDbEntity
  8
0
100
AcDbLine
 62
9
  6
CONTINUOUS
 10
-603.5918654531
 20
185.1539669132
 11
-603.5918654531
 21
160.3746556402
  0
LINE
  5
36D
100
AcDbEntity
  8
0
100
AcDbLine
 62
9
  6
CONTINUOUS
 10
-603.5918654531
 20
147.0468902799
 11
-603.5918654531
 21
122.2675790069
  0
LINE
  5
36E
100
AcDbEntity
  8
0
100
AcDbLine
 62
9
  6
CONTINUOUS
 10
-637.0918654531
 20
153.7107729601
 11
-794.0918654531
 21
153.7107729601
  0
LINE
  5
36F
100
AcDbEntity
  8
0
100
AcDbLine
 62
9
  6
CONTINUOUS
 10
-626.5918654531
 20
156.7107729605
 11
-577.5918654531
 21
156.7107729601
  0
LINE
  5
370
100
AcDbEntity
  8
0
100
AcDbLine
 62
7
  6
CONTINUOUS
 10
-624.5918654531
 20
158.7107729601
 11
-577.5918654531
 21
158.7107729601
  0
LINE
  5
371
100
AcDbEntity
  8
0
100
AcDbLine
 62
9
  6
CONTINUOUS
 10
-578.5918654531
 20
160.3107729601
 11
-598.5918654531
 21
160.3107729601
  0
LINE
  5
372
100
AcDbEntity
  8
0
100
AcDbLine
 62
9
  6
CONTINUOUS
 10
-573.5918654531
 20
160.71077296
 11
-575.5918654531
 21
160.71077296
  0
LINE
  5
373
100
AcDbEntity
  8
02___PRT_ALL_AXES
100
AcDbLine
 62
7
  6
CONTINUOUS
 10
-798.0918654531
 20
173.7107729601
 11
-804.0918654531
 21
173.7107729601
  0
LINE
  5
374
100
AcDbEntity
  8
0
100
AcDbLine
 62
9
  6
CONTINUOUS
 10
-598.5918654531
 20
121.8556320877
 11
-598.5918654531
 21
148.7107729601
  0
LINE
  5
375
100
AcDbEntity
  8
0
100
AcDbLine
 62
9
  6
CONTINUOUS
 10
-598.5918654531
 20
158.7107729601
 11
-598.5918654531
 21
185.5659138324
  0
LINE
  5
376
100
AcDbEntity
  8
0
100
AcDbLine
 62
9
  6
CONTINUOUS
 10
-578.5918654531
 20
121.8556320877
 11
-578.5918654531
 21
148.7107729601
  0
LINE
  5
377
100
AcDbEntity
  8
0
100
AcDbLine
 62
9
  6
CONTINUOUS
 10
-578.5918654531
 20
158.7107729601
 11
-578.5918654531
 21
185.5659138324
  0
LINE
  5
378
100
AcDbEntity
  8
0
100
AcDbLine
 62
9
  6
CONTINUOUS
 10
-621.5918654374
 20
196.2088819303
 11
-620.5918654531
 21
197.8544331946
  0
LINE
  5
379
100
AcDbEntity
  8
0
100
AcDbLine
 62
9
  6
CONTINUOUS
 10
-561.5918654531
 20
183.7107729601
 11
-575.5918654531
 21
183.7107729601
  0
LINE
  5
37A
100
AcDbEntity
  8
0
100
AcDbLine
 62
9
  6
CONTINUOUS
 10
-598.5918654531
 20
183.7456200683
 11
-578.5918654531
 21
183.7456200683
  0
LINE
  5
37B
100
AcDbEntity
  8
0
100
AcDbLine
 62
9
  6
CONTINUOUS
 10
-598.5918654531
 20
185.5659138324
 11
-578.5918654531
 21
185.5659138324
  0
LINE
  5
37C
100
AcDbEntity
  8
0
100
AcDbLine
 62
9
  6
CONTINUOUS
 10
-575.5918654531
 20
186.6614937412
 11
-577.5918654531
 21
186.6614937412
  0
LINE
  5
37D
100
AcDbEntity
  8
0
100
AcDbLine
 62
9
  6
CONTINUOUS
 10
-577.5918654532
 20
158.7107729601
 11
-577.5918654532
 21
156.7107729601
  0
LINE
  5
37E
100
AcDbEntity
  8
0
100
AcDbLine
 62
9
  6
CONTINUOUS
 10
-577.5918654527
 20
150.7107729601
 11
-577.5918654528
 21
148.7107729601
  0
LINE
  5
37F
100
AcDbEntity
  8
0
100
AcDbLine
 62
9
  6
CONTINUOUS
 10
-577.5918654532
 20
88.7107729601
 11
-577.5918654531
 21
120.7600521789
  0
LINE
  5
380
100
AcDbEntity
  8
0
100
AcDbLine
 62
9
  6
CONTINUOUS
 10
-577.5918654531
 20
186.6614937412
 11
-577.5918654527
 21
218.7107729601
  0
LINE
  5
381
100
AcDbEntity
  8
0
100
AcDbLine
 62
7
  6
CONTINUOUS
 10
-575.5918654531
 20
90.7107729601
 11
-575.5918654531
 21
146.7107729601
  0
LINE
  5
382
100
AcDbEntity
  8
0
100
AcDbLine
 62
7
  6
CONTINUOUS
 10
-575.5918654531
 20
160.7107729601
 11
-575.5918654531
 21
216.7107729601
  0
LINE
  5
383
100
AcDbEntity
  8
0
100
AcDbLine
 62
9
  6
CONTINUOUS
 10
-573.5918654531
 20
88.7107729601
 11
-573.5918654531
 21
146.7107729601
  0
LINE
  5
384
100
AcDbEntity
  8
0
100
AcDbLine
 62
9
  6
CONTINUOUS
 10
-573.5918654531
 20
160.7107729601
 11
-573.5918654531
 21
218.7107729601
  0
LINE
  5
385
100
AcDbEntity
  8
0
100
AcDbLine
 62
9
  6
CONTINUOUS
 10
-563.5918654531
 20
218.7107729601
 11
-563.5918654531
 21
88.7107729601
  0
LINE
  5
386
100
AcDbEntity
  8
0
100
AcDbLine
 62
7
  6
CONTINUOUS
 10
-561.5918654531
 20
63.7118189591
 11
-561.5918654531
 21
243.709726961
  0
LINE
  5
387
100
AcDbEntity
  8
0
100
AcDbLine
 62
9
  6
CONTINUOUS
 10
-603.5918641414
 20
185.1539689936
 11
-602.5918654531
 21
186.7399195157
  0
LINE
  5
388
100
AcDbEntity
  8
0
100
AcDbLine
 62
7
  6
CONTINUOUS
 10
-561.5918720953
 20
243.7107795678
 11
-541.5918735281
 21
263.7107810794
  0
LINE
  5
389
100
AcDbEntity
  8
0
100
AcDbLine
 62
9
  6
CONTINUOUS
 10
-626.5918654531
 20
205.0964540075
 11
-624.5918654531
 21
205.0964540075
  0
LINE
  5
38A
100
AcDbEntity
  8
02___PRT_ALL_AXES
100
AcDbLine
 62
7
  6
CONTINUOUS
 10
-862.0918654531
 20
211.2107729601
 11
-877.0918654531
 21
211.2107729601
  0
LINE
  5
38B
100
AcDbEntity
  8
0
100
AcDbLine
 62
9
  6
CONTINUOUS
 10
-626.5918654531
 20
216.7107729605
 11
-575.5918654531
 21
216.7107729601
  0
LINE
  5
38C
100
AcDbEntity
  8
0
100
AcDbLine
 62
7
  6
CONTINUOUS
 10
-624.5918654531
 20
218.7107729601
 11
-563.5918654531
 21
218.7107729601
  0
LINE
  5
38D
100
AcDbEntity
  8
3_ALL_AXES
100
AcDbLine
 62
7
  6
CONTINUOUS
 10
-573.5918654531
 20
218.7107729601
 11
-563.5918654531
 21
218.7107729601
  0
LINE
  5
38E
100
AcDbEntity
  8
0
100
AcDbLine
 62
9
  6
CONTINUOUS
 10
-637.0918654531
 20
224.0113996404
 11
-668.5918654531
 21
224.0113996404
  0
LINE
  5
38F
100
AcDbEntity
  8
0
100
AcDbLine
 62
9
  6
CONTINUOUS
 10
-707.5918654531
 20
224.0113996404
 11
-794.0918654531
 21
224.0113996404
  0
LINE
  5
390
100
AcDbEntity
  8
0
100
AcDbLine
 62
7
  6
CONTINUOUS
 10
-541.5918655067
 20
43.7107729601
 11
-541.5918655067
 21
263.7107729601
  0
LINE
  5
391
100
AcDbEntity
  8
0
100
AcDbLine
 62
7
  6
CONTINUOUS
 10
-814.0918654531
 20
243.7107729601
 11
-794.0918654531
 21
243.7107729601
  0
LINE
  5
392
100
AcDbEntity
  8
0
100
AcDbLine
 62
7
  6
CONTINUOUS
 10
-396.5918654531
 20
245.906217533
 11
-516.5918654531
 21
245.906217533
  0
LINE
  5
393
100
AcDbEntity
  8
0
100
AcDbLine
 62
7
  6
CONTINUOUS
 10
-627.5918654531
 20
251.2107729601
 11
-626.5918654531
 21
251.2107729601
  0
LINE
  5
394
100
AcDbEntity
  8
0
100
AcDbLine
 62
9
  6
CONTINUOUS
 10
-817.0918654531
 20
251.7107729601
 11
-794.0918654531
 21
251.7107729601
  0
LINE
  5
395
100
AcDbEntity
  8
0
100
AcDbLine
 62
7
  6
CONTINUOUS
 10
-516.5918654531
 20
245.906217533
 11
-516.5918654531
 21
305.7107729601
  0
LINE
  5
396
100
AcDbEntity
  8
0
100
AcDbLine
 62
7
  6
CONTINUOUS
 10
-514.0918654531
 20
21.7107729601
 11
-514.0918654531
 21
24.7107729601
  0
LINE
  5
397
100
AcDbEntity
  8
0
100
AcDbLine
 62
3
  6
CONTINUOUS
 10
-514.0918654531
 20
24.7107729601
 11
-514.0918654531
 21
41.7107729601
  0
LINE
  5
398
100
AcDbEntity
  8
0
100
AcDbLine
 62
7
  6
CONTINUOUS
 10
-509.5918654531
 20
41.7107729601
 11
-509.5918654531
 21
53.7107729601
  0
LINE
  5
399
100
AcDbEntity
  8
02___PRT_ALL_AXES
100
AcDbLine
 62
7
  6
CONTINUOUS
 10
-819.0918654531
 20
256.7107729601
 11
-857.0918654531
 21
256.7107729601
  0
LINE
  5
39A
100
AcDbEntity
  8
3_ALL_AXES
100
AcDbLine
 62
7
  6
CONTINUOUS
 10
-637.0918654531
 20
258.7107729601
 11
-636.5918654531
 21
258.7107729601
  0
LINE
  5
39B
100
AcDbEntity
  8
02___PRT_ALL_AXES
100
AcDbLine
 62
7
  6
CONTINUOUS
 10
-263.8761157363
 20
263.7107729601
 11
-300.5918654531
 21
263.7107729601
  0
LINE
  5
39C
100
AcDbEntity
  8
02___PRT_ALL_AXES
100
AcDbLine
 62
7
  6
CONTINUOUS
 10
-310.5918654531
 20
263.7107729601
 11
-396.5918654531
 21
263.7107729601
  0
LINE
  5
39D
100
AcDbEntity
  8
02___PRT_ALL_AXES
100
AcDbLine
 62
7
  6
CONTINUOUS
 10
-516.5918654531
 20
263.7107729601
 11
-541.5918654088
 21
263.7107729601
  0
LINE
  5
39E
100
AcDbEntity
  8
0
100
AcDbLine
 62
7
  6
CONTINUOUS
 10
-628.5918654531
 20
276.2107729601
 11
-636.5918654531
 21
276.2107729601
  0
LINE
  5
39F
100
AcDbEntity
  8
0
100
AcDbLine
 62
9
  6
CONTINUOUS
 10
-499.0918654531
 20
21.7107729601
 11
-499.0918654531
 21
24.7107729601
  0
LINE
  5
3A0
100
AcDbEntity
  8
0
100
AcDbLine
 62
7
  6
CONTINUOUS
 10
-516.5918654531
 20
305.7107729601
 11
-396.5918654531
 21
305.7107729601
  0
LINE
  5
3A1
100
AcDbEntity
  8
02___PRT_ALL_AXES
100
AcDbLine
 62
7
  6
CONTINUOUS
 10
-819.0918654531
 20
330.7107729601
 11
-857.0918654531
 21
330.7107729601
  0
LINE
  5
3A2
100
AcDbEntity
  8
0
100
AcDbLine
 62
9
  6
CONTINUOUS
 10
-789.7465628362
 20
335.7107729601
 11
-817.0918654531
 21
335.7107729601
  0
LINE
  5
3A3
100
AcDbEntity
  8
0
100
AcDbLine
 62
9
  6
CONTINUOUS
 10
-779.0918654531
 20
342.9757728508
 11
-715.5918654531
 21
342.9757820068
  0
LINE
  5
3A4
100
AcDbEntity
  8
0
100
AcDbLine
 62
9
  6
CONTINUOUS
 10
-660.5918654531
 20
342.9757899373
 11
-652.0918654835
 21
342.9757911629
  0
LINE
  5
3A5
100
AcDbEntity
  8
0
100
AcDbLine
 62
7
  6
CONTINUOUS
 10
-638.0918654531
 20
343.7107729601
 11
-814.0918654531
 21
343.7107729601
  0
LINE
  5
3A6
100
AcDbEntity
  8
0
100
AcDbLine
 62
7
  6
CONTINUOUS
 10
-738.0918654531
 20
353.7107729601
 11
-638.0918654531
 21
353.7107729601
  0
LINE
  5
3A7
100
AcDbEntity
  8
0
100
AcDbLine
 62
9
  6
CONTINUOUS
 10
-738.0918654531
 20
363.7107729601
 11
-638.0918654531
 21
363.7107729601
  0
LINE
  5
3A8
100
AcDbEntity
  8
0
100
AcDbLine
 62
7
  6
CONTINUOUS
 10
-735.0918654531
 20
366.7107729601
 11
-641.0918654531
 21
366.7107729601
  0
LINE
  5
3A9
100
AcDbEntity
  8
0
100
AcDbLine
 62
9
  6
CONTINUOUS
 10
-725.0918654531
 20
368.7107729601
 11
-651.0918654531
 21
368.7107729601
  0
LINE
  5
3AA
100
AcDbEntity
  8
02___PRT_ALL_AXES
100
AcDbLine
 62
7
  6
CONTINUOUS
 10
-862.0918654531
 20
376.2107729601
 11
-877.0918654531
 21
376.2107729601
  0
LINE
  5
3AB
100
AcDbEntity
  8
0
100
AcDbLine
 62
7
  6
CONTINUOUS
 10
-396.5918654531
 20
245.906217533
 11
-396.5918654531
 21
305.7107729601
  0
LINE
  5
3AC
100
AcDbEntity
  8
0
100
AcDbLine
 62
9
  6
CONTINUOUS
 10
-651.0918654531
 20
406.7107729601
 11
-725.0918654531
 21
406.7107729601
  0
LINE
  5
3AD
100
AcDbEntity
  8
0
100
AcDbLine
 62
7
  6
CONTINUOUS
 10
-767.5918654531
 20
408.7107729601
 11
-608.5918654531
 21
408.7107729601
  0
LINE
  5
3AE
100
AcDbEntity
  8
0
100
AcDbLine
 62
9
  6
CONTINUOUS
 10
-605.5918654531
 20
411.7107729601
 11
-770.5918654531
 21
411.7107729601
  0
LINE
  5
3AF
100
AcDbEntity
  8
02___PRT_ALL_AXES
100
AcDbLine
 62
7
  6
CONTINUOUS
 10
-770.5915114397
 20
426.7107729601
 11
-605.5922194665
 21
426.7107729601
  0
LINE
  5
3B0
100
AcDbEntity
  8
0
100
AcDbLine
 62
7
  6
CONTINUOUS
 10
-300.5918654531
 20
253.7107729601
 11
-310.5918654531
 21
263.7107729601
  0
LINE
  5
3B1
100
AcDbEntity
  8
0
100
AcDbLine
 62
9
  6
CONTINUOUS
 10
-344.0918654531
 20
21.7107729601
 11
-344.0918654531
 21
24.7107729601
  0
LINE
  5
3B2
100
AcDbEntity
  8
0
100
AcDbLine
 62
7
  6
CONTINUOUS
 10
-333.5918654531
 20
41.7107729601
 11
-333.5918654531
 21
53.7107729601
  0
LINE
  5
3B3
100
AcDbEntity
  8
0
100
AcDbLine
 62
7
  6
CONTINUOUS
 10
-329.0918654531
 20
21.7107729601
 11
-329.0918654531
 21
24.7107729601
  0
LINE
  5
3B4
100
AcDbEntity
  8
0
100
AcDbLine
 62
3
  6
CONTINUOUS
 10
-329.0918654531
 20
24.7107729601
 11
-329.0918654531
 21
41.7107729601
  0
LINE
  5
3B5
100
AcDbEntity
  8
0
100
AcDbLine
 62
7
  6
CONTINUOUS
 10
-310.5918654531
 20
43.7107729601
 11
-310.5918654531
 21
263.7107729601
  0
LINE
  5
3B6
100
AcDbEntity
  8
0
100
AcDbLine
 62
7
  6
CONTINUOUS
 10
-300.5918654531
 20
43.7120621915
 11
-300.5918654531
 21
263.7094837286
  0
LINE
  5
3B7
100
AcDbEntity
  8
0
100
AcDbLine
 62
7
  6
CONTINUOUS
 10
-241.4497280674
 20
249.5686548613
 11
-249.7339786768
 21
257.8529071375
  0
LINE
  5
3B8
100
AcDbEntity
  8
0
100
AcDbLine
 62
9
  6
CONTINUOUS
 10
-263.8761157352
 20
43.7107729603
 11
-263.8761157352
 21
263.7107729598
  0
LINE
  5
3B9
100
AcDbEntity
  8
0
100
AcDbLine
 62
9
  6
CONTINUOUS
 10
-249.7339786743
 20
49.5686387853
 11
-249.7339786743
 21
257.8529071348
  0
LINE
  5
3BA
100
AcDbEntity
  8
0
100
AcDbLine
 62
7
  6
CONTINUOUS
 10
-300.5918654531
 20
53.7107729601
 11
-310.5918654531
 21
43.7107729601
  0
LINE
  5
3BB
100
AcDbEntity
  8
0
100
AcDbLine
 62
9
  6
CONTINUOUS
 10
-241.449728068
 20
249.5686548619
 11
-241.449728068
 21
57.8528910582
  0
LINE
  5
3BC
100
AcDbEntity
  8
0
100
AcDbLine
 62
7
  6
CONTINUOUS
 10
-235.5918654531
 20
235.4265138454
 11
-235.5918654531
 21
71.9950320747
  0
LINE
  5
3BD
100
AcDbEntity
  8
0
100
AcDbLine
 62
7
  6
CONTINUOUS
 10
-241.4497280674
 20
57.8528910588
 11
-249.7339786768
 21
49.5686387826
  0
LINE
  5
3BE
100
AcDbEntity
  8
0
100
AcDbLine
 62
7
  6
CONTINUOUS
 10
1815.0982192506
 20
21.7107729601
 11
1645.0982192506
 21
21.7107729601
  0
LINE
  5
3BF
100
AcDbEntity
  8
0
100
AcDbLine
 62
7
  6
CONTINUOUS
 10
1590.0982192506
 20
21.7107729601
 11
1617.0982192506
 21
21.7107729601
  0
LINE
  5
3C0
100
AcDbEntity
  8
0
100
AcDbLine
 62
7
  6
CONTINUOUS
 10
1853.0982192506
 20
21.7107729601
 11
1880.0982192506
 21
21.7107729601
  0
LINE
  5
3C1
100
AcDbEntity
  8
0
100
AcDbLine
 62
3
  6
CONTINUOUS
 10
1590.0982192506
 20
24.7107729601
 11
1617.0982192506
 21
24.7107729601
  0
LINE
  5
3C2
100
AcDbEntity
  8
0
100
AcDbLine
 62
3
  6
CONTINUOUS
 10
1853.0982192506
 20
24.7107729601
 11
1880.0982192506
 21
24.7107729601
  0
LINE
  5
3C3
100
AcDbEntity
  8
0
100
AcDbLine
 62
9
  6
CONTINUOUS
 10
1850.0982192506
 20
27.7107729601
 11
1847.0982192506
 21
27.7107729601
  0
LINE
  5
3C4
100
AcDbEntity
  8
0
100
AcDbLine
 62
9
  6
CONTINUOUS
 10
1620.0982192506
 20
27.7107729601
 11
1623.0982192506
 21
27.7107729601
  0
LINE
  5
3C5
100
AcDbEntity
  8
0
100
AcDbLine
 62
9
  6
CONTINUOUS
 10
1850.0982192506
 20
35.7107729601
 11
1847.0982192506
 21
35.7107729601
  0
LINE
  5
3C6
100
AcDbEntity
  8
0
100
AcDbLine
 62
9
  6
CONTINUOUS
 10
1620.0982192506
 20
35.7107729601
 11
1623.0982192506
 21
35.7107729601
  0
LINE
  5
3C7
100
AcDbEntity
  8
0
100
AcDbLine
 62
7
  6
CONTINUOUS
 10
1626.0982192506
 20
38.7107729601
 11
1844.0982192506
 21
38.7107729601
  0
LINE
  5
3C8
100
AcDbEntity
  8
0
100
AcDbLine
 62
7
  6
CONTINUOUS
 10
1625.0982192506
 20
41.7107729601
 11
1626.0982192506
 21
41.7107729601
  0
LINE
  5
3C9
100
AcDbEntity
  8
0
100
AcDbLine
 62
3
  6
CONTINUOUS
 10
1626.0982192506
 20
41.7107729601
 11
1844.0982192506
 21
41.7107729601
  0
LINE
  5
3CA
100
AcDbEntity
  8
0
100
AcDbLine
 62
7
  6
CONTINUOUS
 10
1844.0982192506
 20
41.7107729601
 11
1845.0982192506
 21
41.7107729601
  0
LINE
  5
3CB
100
AcDbEntity
  8
0
100
AcDbLine
 62
7
  6
CONTINUOUS
 10
1549.0982192506
 20
426.7107729601
 11
1549.0982192506
 21
411.7107729601
  0
LINE
  5
3CC
100
AcDbEntity
  8
02___PRT_ALL_AXES
100
AcDbLine
 62
7
  6
CONTINUOUS
 10
1549.0982192506
 20
411.7107729601
 11
1549.0982192506
 21
426.7107729601
  0
LINE
  5
3CD
100
AcDbEntity
  8
0
100
AcDbLine
 62
7
  6
CONTINUOUS
 10
1625.0982192506
 20
53.7107729601
 11
1689.272462301
 21
53.7107729601
  0
LINE
  5
3CE
100
AcDbEntity
  8
0
100
AcDbLine
 62
7
  6
CONTINUOUS
 10
1780.9239762002
 20
53.7107729601
 11
1845.0982192506
 21
53.7107729601
  0
LINE
  5
3CF
100
AcDbEntity
  8
0
100
AcDbLine
 62
7
  6
CONTINUOUS
 10
1581.5982192506
 20
343.7107729601
 11
1581.5982192506
 21
363.7107729601
  0
LINE
  5
3D0
100
AcDbEntity
  8
0
100
AcDbLine
 62
9
  6
CONTINUOUS
 10
1589.5982192506
 20
343.7107729601
 11
1589.5982192506
 21
366.7107729601
  0
LINE
  5
3D1
100
AcDbEntity
  8
0
100
AcDbLine
 62
7
  6
CONTINUOUS
 10
1590.0982192506
 20
21.7107729601
 11
1590.0982192506
 21
24.7107729601
  0
LINE
  5
3D2
100
AcDbEntity
  8
0
100
AcDbLine
 62
7
  6
CONTINUOUS
 10
1594.5982192506
 20
368.7107729601
 11
1594.5982192506
 21
406.7107729601
  0
LINE
  5
3D3
100
AcDbEntity
  8
02___PRT_ALL_AXES
100
AcDbLine
 62
7
  6
CONTINUOUS
 10
1594.5982192506
 20
368.7107729601
 11
1594.5982192506
 21
406.7107729601
  0
LINE
  5
3D4
100
AcDbEntity
  8
0
100
AcDbLine
 62
7
  6
CONTINUOUS
 10
1604.0982192506
 20
153.7107729601
 11
1604.0982192506
 21
343.7107729601
  0
LINE
  5
3D5
100
AcDbEntity
  8
0
100
AcDbLine
 62
9
  6
CONTINUOUS
 10
1605.0982192506
 20
21.7107729601
 11
1605.0982192506
 21
24.7107729601
  0
LINE
  5
3D6
100
AcDbEntity
  8
0
100
AcDbLine
 62
9
  6
CONTINUOUS
 10
1612.0982192506
 20
269.0891103188
 11
1612.0982192506
 21
343.7107729601
  0
LINE
  5
3D7
100
AcDbEntity
  8
0
100
AcDbLine
 62
9
  6
CONTINUOUS
 10
1617.0982192506
 20
24.7107729601
 11
1617.0982192506
 21
21.7107729601
  0
LINE
  5
3D8
100
AcDbEntity
  8
0
100
AcDbLine
 62
9
  6
CONTINUOUS
 10
1619.0982192506
 20
224.0113996404
 11
1619.0982192506
 21
193.0604424347
  0
LINE
  5
3D9
100
AcDbEntity
  8
0
100
AcDbLine
 62
3
  6
CONTINUOUS
 10
1620.0982192506
 20
27.7107729601
 11
1620.0982192506
 21
35.7107729601
  0
LINE
  5
3DA
100
AcDbEntity
  8
0
100
AcDbLine
 62
7
  6
CONTINUOUS
 10
1623.0982192506
 20
27.7107729601
 11
1623.0982192506
 21
35.7107729601
  0
LINE
  5
3DB
100
AcDbEntity
  8
0
100
AcDbLine
 62
7
  6
CONTINUOUS
 10
1625.0982192506
 20
41.7107729601
 11
1625.0982192506
 21
53.7107729601
  0
LINE
  5
3DC
100
AcDbEntity
  8
0
100
AcDbLine
 62
9
  6
CONTINUOUS
 10
1626.0982192506
 20
41.7107729601
 11
1626.0982192506
 21
38.7107729601
  0
LINE
  5
3DD
100
AcDbEntity
  8
0
100
AcDbLine
 62
7
  6
CONTINUOUS
 10
1645.0982192506
 20
21.7107729601
 11
1645.0982192506
 21
38.7107729601
  0
LINE
  5
3DE
100
AcDbEntity
  8
0
100
AcDbLine
 62
7
  6
CONTINUOUS
 10
1645.0982192506
 20
53.7107729601
 11
1645.0982192506
 21
58.5214878488
  0
LINE
  5
3DF
100
AcDbEntity
  8
0
100
AcDbLine
 62
9
  6
CONTINUOUS
 10
1612.6799453252
 20
153.7107729601
 11
1604.0982192506
 21
153.7107729601
  0
LINE
  5
3E0
100
AcDbEntity
  8
0
100
AcDbLine
 62
9
  6
CONTINUOUS
 10
1857.516493176
 20
153.7107729601
 11
1866.0982192506
 21
153.7107729601
  0
LINE
  5
3E1
100
AcDbEntity
  8
0
100
AcDbLine
 62
9
  6
CONTINUOUS
 10
1651.0982192506
 20
324.5350287034
 11
1651.0982192506
 21
343.7107729601
  0
LINE
  5
3E2
100
AcDbEntity
  8
0
100
AcDbLine
 62
7
  6
CONTINUOUS
 10
1659.0982192506
 20
330.7119151031
 11
1659.0982192506
 21
343.7107729601
  0
LINE
  5
3E3
100
AcDbEntity
  8
0
100
AcDbLine
 62
7
  6
CONTINUOUS
 10
1668.5982192506
 20
368.7107729601
 11
1668.5982192506
 21
406.7107729601
  0
LINE
  5
3E4
100
AcDbEntity
  8
02___PRT_ALL_AXES
100
AcDbLine
 62
7
  6
CONTINUOUS
 10
1668.5982192506
 20
368.7107729601
 11
1668.5982192506
 21
406.7107729601
  0
LINE
  5
3E5
100
AcDbEntity
  8
0
100
AcDbLine
 62
9
  6
CONTINUOUS
 10
1673.5982192506
 20
343.7107729601
 11
1673.5982192506
 21
366.7107729601
  0
LINE
  5
3E6
100
AcDbEntity
  8
0
100
AcDbLine
 62
7
  6
CONTINUOUS
 10
1675.0982192506
 20
245.906217533
 11
1675.0982192506
 21
305.7107729601
  0
LINE
  5
3E7
100
AcDbEntity
  8
0
100
AcDbLine
 62
7
  6
CONTINUOUS
 10
1681.5982192506
 20
343.7107729601
 11
1681.5982192506
 21
363.7107729601
  0
LINE
  5
3E8
100
AcDbEntity
  8
0
100
AcDbLine
 62
7
  6
CONTINUOUS
 10
1714.0982192506
 20
426.7107729601
 11
1714.0982192506
 21
411.7107729601
  0
LINE
  5
3E9
100
AcDbEntity
  8
02___PRT_ALL_AXES
100
AcDbLine
 62
7
  6
CONTINUOUS
 10
1714.0982192506
 20
411.7107729601
 11
1714.0982192506
 21
426.7107729601
  0
LINE
  5
3EA
100
AcDbEntity
  8
0
100
AcDbLine
 62
9
  6
CONTINUOUS
 10
1851.0982192506
 20
217.0821507814
 11
1866.0982192506
 21
217.0821507814
  0
LINE
  5
3EB
100
AcDbEntity
  8
0
100
AcDbLine
 62
9
  6
CONTINUOUS
 10
1619.0982192506
 20
224.0113996404
 11
1604.0982192506
 21
224.0113996404
  0
LINE
  5
3EC
100
AcDbEntity
  8
0
100
AcDbLine
 62
7
  6
CONTINUOUS
 10
1740.5982192506
 20
353.7107729601
 11
1740.5982192506
 21
347.7107729601
  0
LINE
  5
3ED
100
AcDbEntity
  8
02___PRT_ALL_AXES
100
AcDbLine
 62
7
  6
CONTINUOUS
 10
1740.5982192506
 20
347.7107729601
 11
1740.5982192506
 21
353.7107729601
  0
LINE
  5
3EE
100
AcDbEntity
  8
0
100
AcDbLine
 62
7
  6
CONTINUOUS
 10
1790.5982192506
 20
353.7107729601
 11
1790.5982192506
 21
338.262801052
  0
LINE
  5
3EF
100
AcDbEntity
  8
02___PRT_ALL_AXES
100
AcDbLine
 62
7
  6
CONTINUOUS
 10
1790.5982192506
 20
338.262801052
 11
1790.5982192506
 21
353.7107729601
  0
LINE
  5
3F0
100
AcDbEntity
  8
0
100
AcDbLine
 62
7
  6
CONTINUOUS
 10
1795.0982192506
 20
245.906217533
 11
1795.0982192506
 21
305.7107729601
  0
LINE
  5
3F1
100
AcDbEntity
  8
0
100
AcDbLine
 62
7
  6
CONTINUOUS
 10
1675.0982192506
 20
305.7107729601
 11
1795.0982192506
 21
305.7107729601
  0
LINE
  5
3F2
100
AcDbEntity
  8
0
100
AcDbLine
 62
7
  6
CONTINUOUS
 10
1815.0982192506
 20
21.7107729601
 11
1815.0982192506
 21
38.7107729601
  0
LINE
  5
3F3
100
AcDbEntity
  8
0
100
AcDbLine
 62
9
  6
CONTINUOUS
 10
1766.6423799506
 20
328.7107729601
 11
1685.1580695645
 21
328.7107729601
  0
LINE
  5
3F4
100
AcDbEntity
  8
0
100
AcDbLine
 62
7
  6
CONTINUOUS
 10
1767.5982156783
 20
343.7107729601
 11
1683.5982251549
 21
343.7107729601
  0
LINE
  5
3F5
100
AcDbEntity
  8
0
100
AcDbLine
 62
7
  6
CONTINUOUS
 10
1681.5982192506
 20
343.7107729601
 11
1581.5982192506
 21
343.7107729601
  0
LINE
  5
3F6
100
AcDbEntity
  8
0
100
AcDbLine
 62
9
  6
CONTINUOUS
 10
1740.5982192506
 20
347.7107729601
 11
1767.3223571816
 21
347.7107729601
  0
LINE
  5
3F7
100
AcDbEntity
  8
0
100
AcDbLine
 62
9
  6
CONTINUOUS
 10
1844.0982192506
 20
41.7107729601
 11
1844.0982192506
 21
38.7107729601
  0
LINE
  5
3F8
100
AcDbEntity
  8
0
100
AcDbLine
 62
7
  6
CONTINUOUS
 10
1845.0982192506
 20
41.7107729601
 11
1845.0982192506
 21
53.7107729601
  0
LINE
  5
3F9
100
AcDbEntity
  8
0
100
AcDbLine
 62
7
  6
CONTINUOUS
 10
1847.0982192506
 20
35.7107729601
 11
1847.0982192506
 21
27.7107729601
  0
LINE
  5
3FA
100
AcDbEntity
  8
0
100
AcDbLine
 62
3
  6
CONTINUOUS
 10
1850.0982192506
 20
35.7107729601
 11
1850.0982192506
 21
27.7107729601
  0
LINE
  5
3FB
100
AcDbEntity
  8
0
100
AcDbLine
 62
9
  6
CONTINUOUS
 10
1851.0982192506
 20
193.0604424347
 11
1851.0982192506
 21
217.0821507814
  0
LINE
  5
3FC
100
AcDbEntity
  8
0
100
AcDbLine
 62
9
  6
CONTINUOUS
 10
1853.0982192506
 20
24.7107729601
 11
1853.0982192506
 21
21.7107729601
  0
LINE
  5
3FD
100
AcDbEntity
  8
0
100
AcDbLine
 62
7
  6
CONTINUOUS
 10
1681.5982192506
 20
353.7107729601
 11
1581.5982192506
 21
353.7107729601
  0
LINE
  5
3FE
100
AcDbEntity
  8
02___PRT_ALL_AXES
100
AcDbLine
 62
7
  6
CONTINUOUS
 10
1740.5982192506
 20
353.7107729601
 11
1790.5982192506
 21
353.7107729601
  0
LINE
  5
3FF
100
AcDbEntity
  8
0
100
AcDbLine
 62
9
  6
CONTINUOUS
 10
1581.5982192506
 20
363.7107729601
 11
1681.5982192506
 21
363.7107729601
  0
LINE
  5
400
100
AcDbEntity
  8
0
100
AcDbLine
 62
9
  6
CONTINUOUS
 10
1865.0982192506
 20
21.7107729601
 11
1865.0982192506
 21
24.7107729601
  0
LINE
  5
401
100
AcDbEntity
  8
0
100
AcDbLine
 62
7
  6
CONTINUOUS
 10
1866.0982192506
 20
153.7107729601
 11
1866.0982192506
 21
217.0821507814
  0
LINE
  5
402
100
AcDbEntity
  8
0
100
AcDbLine
 62
7
  6
CONTINUOUS
 10
1584.5982192506
 20
366.7107729601
 11
1678.5982192506
 21
366.7107729601
  0
LINE
  5
403
100
AcDbEntity
  8
0
100
AcDbLine
 62
9
  6
CONTINUOUS
 10
1594.5982192506
 20
368.7107729601
 11
1668.5982192506
 21
368.7107729601
  0
LINE
  5
404
100
AcDbEntity
  8
0
100
AcDbLine
 62
7
  6
CONTINUOUS
 10
1880.0982192506
 20
21.7107729601
 11
1880.0982192506
 21
24.7107729601
  0
LINE
  5
405
100
AcDbEntity
  8
0
100
AcDbLine
 62
9
  6
CONTINUOUS
 10
1668.5982192506
 20
406.7107729601
 11
1594.5982192506
 21
406.7107729601
  0
LINE
  5
406
100
AcDbEntity
  8
0
100
AcDbLine
 62
7
  6
CONTINUOUS
 10
1711.0982192506
 20
408.7107729601
 11
1552.0982192506
 21
408.7107729601
  0
LINE
  5
407
100
AcDbEntity
  8
0
100
AcDbLine
 62
9
  6
CONTINUOUS
 10
1714.0982192506
 20
411.7107729601
 11
1549.0982192506
 21
411.7107729601
  0
LINE
  5
408
100
AcDbEntity
  8
02___PRT_ALL_AXES
100
AcDbLine
 62
7
  6
CONTINUOUS
 10
1549.0982192506
 20
426.7107729601
 11
1714.0982192506
 21
426.7107729601
  0
LINE
  5
409
100
AcDbEntity
  8
0
100
AcDbLine
 62
7
  6
CONTINUOUS
 10
613.0515762769
 20
-419.5492928821
 11
613.0515762769
 21
-256.1177968034
  0
LINE
  5
40A
100
AcDbEntity
  8
0
100
AcDbLine
 62
9
  6
CONTINUOUS
 10
618.9094392304
 20
-433.6914270834
 11
618.9094392304
 21
-241.9756626024
  0
LINE
  5
40B
100
AcDbEntity
  8
0
100
AcDbLine
 62
9
  6
CONTINUOUS
 10
627.1936895241
 20
-233.6914106419
 11
627.1936895241
 21
-441.9756790439
  0
LINE
  5
40C
100
AcDbEntity
  8
0
100
AcDbLine
 62
9
  6
CONTINUOUS
 10
641.3358265706
 20
-227.8335448429
 11
641.3358265706
 21
-447.8335448429
  0
LINE
  5
40D
100
AcDbEntity
  8
0
100
AcDbLine
 62
7
  6
CONTINUOUS
 10
618.9094392304
 20
-433.6914270834
 11
627.1936895241
 21
-441.9756790439
  0
LINE
  5
40E
100
AcDbEntity
  8
0
100
AcDbLine
 62
7
  6
CONTINUOUS
 10
618.9094392304
 20
-241.9756626024
 11
627.1936895241
 21
-233.6914106419
  0
LINE
  5
40F
100
AcDbEntity
  8
0
100
AcDbLine
 62
7
  6
CONTINUOUS
 10
678.0515762769
 20
-437.8335448429
 11
688.0515762769
 21
-447.8335448429
  0
LINE
  5
410
100
AcDbEntity
  8
0
100
AcDbLine
 62
7
  6
CONTINUOUS
 10
678.0515762769
 20
-227.8335448429
 11
678.0515762769
 21
-447.8335448429
  0
LINE
  5
411
100
AcDbEntity
  8
0
100
AcDbLine
 62
7
  6
CONTINUOUS
 10
688.0515762769
 20
-227.8335448429
 11
688.0515762769
 21
-447.8335448429
  0
LINE
  5
412
100
AcDbEntity
  8
0
100
AcDbLine
 62
3
  6
CONTINUOUS
 10
706.5515762769
 20
-207.8335448429
 11
706.5515762769
 21
-227.8335448429
  0
LINE
  5
413
100
AcDbEntity
  8
0
100
AcDbLine
 62
3
  6
CONTINUOUS
 10
706.5515762769
 20
-447.8335448429
 11
706.5515762769
 21
-467.8335448429
  0
LINE
  5
414
100
AcDbEntity
  8
0
100
AcDbLine
 62
7
  6
CONTINUOUS
 10
678.0515762769
 20
-237.8335448429
 11
688.0515762769
 21
-227.8335448429
  0
LINE
  5
415
100
AcDbEntity
  8
02___PRT_ALL_AXES
100
AcDbLine
 62
3
  6
CONTINUOUS
 10
723.0515762769
 20
-469.3335448429
 11
723.0515762769
 21
-466.3335448429
  0
LINE
  5
416
100
AcDbEntity
  8
02___PRT_ALL_AXES
100
AcDbLine
 62
3
  6
CONTINUOUS
 10
723.0515762769
 20
-209.3335448429
 11
723.0515762769
 21
-206.3335448429
  0
LINE
  5
417
100
AcDbEntity
  8
02___PRT_ALL_AXES
100
AcDbLine
 62
3
  6
CONTINUOUS
 10
735.0515762769
 20
-206.3335448429
 11
735.0515762769
 21
-209.3335448429
  0
LINE
  5
418
100
AcDbEntity
  8
02___PRT_ALL_AXES
100
AcDbLine
 62
3
  6
CONTINUOUS
 10
735.0515762769
 20
-466.3335448429
 11
735.0515762769
 21
-469.3335448429
  0
LINE
  5
419
100
AcDbEntity
  8
0
100
AcDbLine
 62
3
  6
CONTINUOUS
 10
721.5515762769
 20
-482.8335448429
 11
876.5515762769
 21
-482.8335448429
  0
LINE
  5
41A
100
AcDbEntity
  8
0
100
AcDbLine
 62
7
  6
CONTINUOUS
 10
774.0515762769
 20
-277.8335448429
 11
774.0515762769
 21
-397.8335448429
  0
LINE
  5
41B
100
AcDbEntity
  8
0
100
AcDbLine
 62
7
  6
CONTINUOUS
 10
1156.5515762769
 20
-468.8335448429
 11
1029.5515762769
 21
-468.8335448429
  0
LINE
  5
41C
100
AcDbEntity
  8
0
100
AcDbLine
 62
7
  6
CONTINUOUS
 10
1014.0515762769
 20
-460.3335448429
 11
1006.0515762769
 21
-460.3335448429
  0
LINE
  5
41D
100
AcDbEntity
  8
0
100
AcDbLine
 62
9
  6
CONTINUOUS
 10
706.5515762769
 20
-455.8335448429
 11
891.5515762769
 21
-455.8335448429
  0
LINE
  5
41E
100
AcDbEntity
  8
0
100
AcDbLine
 62
3
  6
CONTINUOUS
 10
706.5515762769
 20
-452.8335448429
 11
891.5515762769
 21
-452.8335448429
  0
LINE
  5
41F
100
AcDbEntity
  8
0
100
AcDbLine
 62
7
  6
CONTINUOUS
 10
641.3358265706
 20
-447.8335448429
 11
678.0515762769
 21
-447.8335448429
  0
LINE
  5
420
100
AcDbEntity
  8
02___PRT_ALL_AXES
100
AcDbLine
 62
7
  6
CONTINUOUS
 10
641.3358265706
 20
-447.8335448429
 11
678.0515762769
 21
-447.8335448429
  0
LINE
  5
421
100
AcDbEntity
  8
02___PRT_ALL_AXES
100
AcDbLine
 62
7
  6
CONTINUOUS
 10
688.0515762769
 20
-447.8335448429
 11
919.0515762769
 21
-447.8335448429
  0
LINE
  5
422
100
AcDbEntity
  8
0
100
AcDbLine
 62
7
  6
CONTINUOUS
 10
688.0515762769
 20
-447.8335448429
 11
919.0515762769
 21
-447.8335448429
  0
LINE
  5
423
100
AcDbEntity
  8
3_ALL_AXES
100
AcDbLine
 62
7
  6
CONTINUOUS
 10
1014.0515762769
 20
-442.8335448429
 11
1014.5515762769
 21
-442.8335448429
  0
LINE
  5
424
100
AcDbEntity
  8
0
100
AcDbLine
 62
7
  6
CONTINUOUS
 10
1005.0515762769
 20
-435.3335448429
 11
1004.0515762769
 21
-435.3335448429
  0
LINE
  5
425
100
AcDbEntity
  8
0
100
AcDbLine
 62
7
  6
CONTINUOUS
 10
1254.5515762769
 20
-410.8335448429
 11
1239.5515762769
 21
-410.8335448429
  0
LINE
  5
426
100
AcDbEntity
  8
02___PRT_ALL_AXES
100
AcDbLine
 62
7
  6
CONTINUOUS
 10
1239.5515762769
 20
-410.8335448429
 11
1254.5515762769
 21
-410.8335448429
  0
LINE
  5
427
100
AcDbEntity
  8
02___PRT_ALL_AXES
100
AcDbLine
 62
3
  6
CONTINUOUS
 10
863.0515762769
 20
-469.3335448429
 11
863.0515762769
 21
-466.3335448429
  0
LINE
  5
428
100
AcDbEntity
  8
02___PRT_ALL_AXES
100
AcDbLine
 62
3
  6
CONTINUOUS
 10
863.0515762769
 20
-209.3335448429
 11
863.0515762769
 21
-206.3335448429
  0
LINE
  5
429
100
AcDbEntity
  8
0
100
AcDbLine
 62
7
  6
CONTINUOUS
 10
1002.0515762769
 20
-402.8335448429
 11
941.0515762769
 21
-402.8335448429
  0
LINE
  5
42A
100
AcDbEntity
  8
3_ALL_AXES
100
AcDbLine
 62
7
  6
CONTINUOUS
 10
951.0515762769
 20
-402.8335448429
 11
941.0515762769
 21
-402.8335448429
  0
LINE
  5
42B
100
AcDbEntity
  8
0
100
AcDbLine
 62
9
  6
CONTINUOUS
 10
1004.0515762769
 20
-400.8335448434
 11
953.0515762769
 21
-400.8335448429
  0
LINE
  5
42C
100
AcDbEntity
  8
0
100
AcDbLine
 62
7
  6
CONTINUOUS
 10
774.0515762769
 20
-397.8335448429
 11
894.0515762769
 21
-397.8335448429
  0
LINE
  5
42D
100
AcDbEntity
  8
0
100
AcDbLine
 62
7
  6
CONTINUOUS
 10
1181.5515762769
 20
-393.3335448429
 11
1175.5515762769
 21
-393.3335448429
  0
LINE
  5
42E
100
AcDbEntity
  8
0
100
AcDbLine
 62
9
  6
CONTINUOUS
 10
1004.0515762769
 20
-390.76499312
 11
1002.0515762769
 21
-390.76499312
  0
LINE
  5
42F
100
AcDbEntity
  8
02___PRT_ALL_AXES
100
AcDbLine
 62
3
  6
CONTINUOUS
 10
875.0515762769
 20
-206.3335448429
 11
875.0515762769
 21
-209.3335448429
  0
LINE
  5
430
100
AcDbEntity
  8
02___PRT_ALL_AXES
100
AcDbLine
 62
3
  6
CONTINUOUS
 10
875.0515762769
 20
-466.3335448429
 11
875.0515762769
 21
-469.3335448429
  0
LINE
  5
431
100
AcDbEntity
  8
0
100
AcDbLine
 62
9
  6
CONTINUOUS
 10
1036.6206239942
 20
-370.3335448434
 11
1040.6111001715
 21
-370.0576827838
  0
LINE
  5
432
100
AcDbEntity
  8
0
100
AcDbLine
 62
7
  6
CONTINUOUS
 10
1191.5515762769
 20
-378.3335448429
 11
1168.2797193415
 21
-378.3335448429
  0
LINE
  5
433
100
AcDbEntity
  8
0
100
AcDbLine
 62
9
  6
CONTINUOUS
 10
953.0515762769
 20
-373.1464320089
 11
955.0515762769
 21
-373.1464320089
  0
LINE
  5
434
100
AcDbEntity
  8
0
100
AcDbLine
 62
9
  6
CONTINUOUS
 10
1156.5515762769
 20
-372.4473659811
 11
1094.0868795627
 21
-372.4473659811
  0
LINE
  5
435
100
AcDbEntity
  8
0
100
AcDbLine
 62
9
  6
CONTINUOUS
 10
1037.0162729911
 20
-372.447365981
 11
1029.5515763035
 21
-372.4473427074
  0
LINE
  5
436
100
AcDbEntity
  8
0
100
AcDbLine
 62
9
  6
CONTINUOUS
 10
976.0515762769
 20
-372.1264012419
 11
956.0515762769
 21
-372.1264012419
  0
LINE
  5
437
100
AcDbEntity
  8
0
100
AcDbLine
 62
9
  6
CONTINUOUS
 10
1194.5515762769
 20
-370.3335448429
 11
1094.4825285599
 21
-370.3335448429
  0
LINE
  5
438
100
AcDbEntity
  8
0
100
AcDbLine
 62
9
  6
CONTINUOUS
 10
1036.6206239939
 20
-370.3335448429
 11
1029.5515762769
 21
-370.3335412706
  0
LINE
  5
439
100
AcDbEntity
  8
0
100
AcDbLine
 62
9
  6
CONTINUOUS
 10
976.0515762769
 20
-370.1668094477
 11
956.0515762769
 21
-370.1668094477
  0
LINE
  5
43A
100
AcDbEntity
  8
0
100
AcDbLine
 62
9
  6
CONTINUOUS
 10
939.0515762769
 20
-367.8335448429
 11
953.0515762769
 21
-367.8335448429
  0
LINE
  5
43B
100
AcDbEntity
  8
0
100
AcDbLine
 62
7
  6
CONTINUOUS
 10
1196.5515762769
 20
-365.3335448429
 11
1234.5515762769
 21
-365.3335448429
  0
LINE
  5
43C
100
AcDbEntity
  8
02___PRT_ALL_AXES
100
AcDbLine
 62
7
  6
CONTINUOUS
 10
1196.5515762769
 20
-365.3335448429
 11
1234.5515762769
 21
-365.3335448429
  0
LINE
  5
43D
100
AcDbEntity
  8
0
100
AcDbLine
 62
3
  6
CONTINUOUS
 10
891.5515762769
 20
-207.8335448429
 11
891.5515762769
 21
-227.8335448429
  0
LINE
  5
43E
100
AcDbEntity
  8
0
100
AcDbLine
 62
3
  6
CONTINUOUS
 10
891.5515762769
 20
-447.8335448429
 11
891.5515762769
 21
-467.8335448429
  0
LINE
  5
43F
100
AcDbEntity
  8
0
100
AcDbLine
 62
7
  6
CONTINUOUS
 10
894.0515762769
 20
-397.8335448429
 11
894.0515762769
 21
-277.8335448429
  0
LINE
  5
440
100
AcDbEntity
  8
0
100
AcDbLine
 62
9
  6
CONTINUOUS
 10
951.0515762769
 20
-352.3335448429
 11
953.0515762769
 21
-352.3335448429
  0
LINE
  5
441
100
AcDbEntity
  8
0
100
AcDbLine
 62
9
  6
CONTINUOUS
 10
956.0515762769
 20
-351.5049734144
 11
976.0515762769
 21
-351.5049734144
  0
LINE
  5
442
100
AcDbEntity
  8
0
100
AcDbLine
 62
7
  6
CONTINUOUS
 10
1002.0515762769
 20
-350.3335448429
 11
955.0515762769
 21
-350.3335448429
  0
LINE
  5
443
100
AcDbEntity
  8
0
100
AcDbLine
 62
9
  6
CONTINUOUS
 10
1004.0515762769
 20
-348.3335448434
 11
955.0515762769
 21
-348.3335448429
  0
LINE
  5
444
100
AcDbEntity
  8
0
100
AcDbLine
 62
9
  6
CONTINUOUS
 10
1094.4825285597
 20
-370.3335448432
 11
1090.4920523825
 21
-370.0576827793
  0
LINE
  5
445
100
AcDbEntity
  8
0
100
AcDbLine
 62
7
  6
CONTINUOUS
 10
919.0515762769
 20
-227.8335448429
 11
919.0515762769
 21
-447.8335448429
  0
LINE
  5
446
100
AcDbEntity
  8
0
100
AcDbLine
 62
9
  6
CONTINUOUS
 10
955.0515762769
 20
-327.3335448429
 11
1004.0515762769
 21
-327.333544843
  0
LINE
  5
447
100
AcDbEntity
  8
0
100
AcDbLine
 62
7
  6
CONTINUOUS
 10
1002.0515762769
 20
-325.3335448429
 11
955.0515762769
 21
-325.3335448429
  0
LINE
  5
448
100
AcDbEntity
  8
0
100
AcDbLine
 62
9
  6
CONTINUOUS
 10
976.0515762769
 20
-324.1621162715
 11
956.0515762769
 21
-324.1621162715
  0
LINE
  5
449
100
AcDbEntity
  8
0
100
AcDbLine
 62
9
  6
CONTINUOUS
 10
953.0515762769
 20
-323.3335448429
 11
951.0515762769
 21
-323.3335448428
  0
LINE
  5
44A
100
AcDbEntity
  8
0
100
AcDbLine
 62
7
  6
CONTINUOUS
 10
939.0515762769
 20
-247.833544843
 11
939.0515762769
 21
-427.8335448429
  0
LINE
  5
44B
100
AcDbEntity
  8
0
100
AcDbLine
 62
9
  6
CONTINUOUS
 10
941.0515762769
 20
-402.8335448429
 11
941.0515762769
 21
-272.8335448429
  0
LINE
  5
44C
100
AcDbEntity
  8
0
100
AcDbLine
 62
9
  6
CONTINUOUS
 10
951.0515762769
 20
-272.8335448429
 11
951.0515762769
 21
-323.3335448429
  0
LINE
  5
44D
100
AcDbEntity
  8
0
100
AcDbLine
 62
9
  6
CONTINUOUS
 10
951.0515762769
 20
-352.3335448429
 11
951.0515762769
 21
-402.8335448429
  0
LINE
  5
44E
100
AcDbEntity
  8
0
100
AcDbLine
 62
7
  6
CONTINUOUS
 10
953.0515762769
 20
-274.8335448429
 11
953.0515762769
 21
-323.3335448429
  0
LINE
  5
44F
100
AcDbEntity
  8
0
100
AcDbLine
 62
7
  6
CONTINUOUS
 10
953.0515762769
 20
-352.3335448429
 11
953.0515762769
 21
-400.8335448429
  0
LINE
  5
450
100
AcDbEntity
  8
0
100
AcDbLine
 62
9
  6
CONTINUOUS
 10
955.0515762769
 20
-350.3335448429
 11
955.051576277
 21
-348.3335448429
  0
LINE
  5
451
100
AcDbEntity
  8
0
100
AcDbLine
 62
9
  6
CONTINUOUS
 10
955.0515762764
 20
-327.3335448429
 11
955.0515762766
 21
-325.3335448429
  0
LINE
  5
452
100
AcDbEntity
  8
0
100
AcDbLine
 62
9
  6
CONTINUOUS
 10
955.051576277
 20
-272.8335448429
 11
955.0515762769
 21
-302.5206576769
  0
LINE
  5
453
100
AcDbEntity
  8
0
100
AcDbLine
 62
9
  6
CONTINUOUS
 10
955.0515762769
 20
-373.1464320089
 11
955.0515762764
 21
-402.8335448429
  0
LINE
  5
454
100
AcDbEntity
  8
0
100
AcDbLine
 62
9
  6
CONTINUOUS
 10
956.0515762769
 20
-303.540688444
 11
956.0515762769
 21
-325.3335448429
  0
LINE
  5
455
100
AcDbEntity
  8
0
100
AcDbLine
 62
9
  6
CONTINUOUS
 10
956.0515762769
 20
-350.3335448429
 11
956.0515762769
 21
-372.1264012419
  0
LINE
  5
456
100
AcDbEntity
  8
0
100
AcDbLine
 62
7
  6
CONTINUOUS
 10
958.515677892
 20
-334.8813541046
 11
958.515677892
 21
-340.7857355812
  0
LINE
  5
457
100
AcDbEntity
  8
0
100
AcDbLine
 62
9
  6
CONTINUOUS
 10
939.0515762769
 20
-307.8335448429
 11
953.0515762769
 21
-307.8335448429
  0
LINE
  5
458
100
AcDbEntity
  8
0
100
AcDbLine
 62
9
  6
CONTINUOUS
 10
956.0515762769
 20
-305.5002802382
 11
976.0515762769
 21
-305.5002802382
  0
LINE
  5
459
100
AcDbEntity
  8
0
100
AcDbLine
 62
9
  6
CONTINUOUS
 10
956.0515762769
 20
-303.540688444
 11
976.0515762769
 21
-303.540688444
  0
LINE
  5
45A
100
AcDbEntity
  8
0
100
AcDbLine
 62
9
  6
CONTINUOUS
 10
953.0515762769
 20
-302.5206576769
 11
955.0515762769
 21
-302.5206576769
  0
LINE
  5
45B
100
AcDbEntity
  8
0
100
AcDbLine
 62
7
  6
CONTINUOUS
 10
1196.5515762769
 20
-291.3335448429
 11
1234.5515762769
 21
-291.3335448429
  0
LINE
  5
45C
100
AcDbEntity
  8
02___PRT_ALL_AXES
100
AcDbLine
 62
7
  6
CONTINUOUS
 10
1196.5515762769
 20
-291.3335448429
 11
1234.5515762769
 21
-291.3335448429
  0
LINE
  5
45D
100
AcDbEntity
  8
0
100
AcDbLine
 62
9
  6
CONTINUOUS
 10
976.0515762769
 20
-303.540688444
 11
976.0515762769
 21
-325.3335448429
  0
LINE
  5
45E
100
AcDbEntity
  8
0
100
AcDbLine
 62
9
  6
CONTINUOUS
 10
976.0515762769
 20
-350.3335448429
 11
976.0515762769
 21
-372.1264012419
  0
LINE
  5
45F
100
AcDbEntity
  8
0
100
AcDbLine
 62
9
  6
CONTINUOUS
 10
981.0515762769
 20
-371.5204981093
 11
981.0515762769
 21
-351.6373018232
  0
LINE
  5
460
100
AcDbEntity
  8
0
100
AcDbLine
 62
9
  6
CONTINUOUS
 10
981.0515762769
 20
-324.0297878627
 11
981.0515762769
 21
-304.1465915766
  0
LINE
  5
461
100
AcDbEntity
  8
0
100
AcDbLine
 62
9
  6
CONTINUOUS
 10
1114.1689103451
 20
-286.3335474603
 11
1105.3908120431
 21
-286.3335478013
  0
LINE
  5
462
100
AcDbEntity
  8
0
100
AcDbLine
 62
9
  6
CONTINUOUS
 10
1194.5515762769
 20
-286.3335448429
 11
1129.4322903685
 21
-286.3335468674
  0
LINE
  5
463
100
AcDbEntity
  8
0
100
AcDbLine
 62
7
  6
CONTINUOUS
 10
1023.5515762769
 20
-284.3335448429
 11
1028.1973425696
 21
-284.3335448429
  0
LINE
  5
464
100
AcDbEntity
  8
0
100
AcDbLine
 62
7
  6
CONTINUOUS
 10
1102.905809762
 20
-284.3335448429
 11
1107.5515762769
 21
-284.3335448429
  0
LINE
  5
465
100
AcDbEntity
  8
0
100
AcDbLine
 62
9
  6
CONTINUOUS
 10
1156.5515762769
 20
-282.983951347
 11
1132.1313431389
 21
-282.9839589842
  0
LINE
  5
466
100
AcDbEntity
  8
0
100
AcDbLine
 62
9
  6
CONTINUOUS
 10
1117.5366086957
 20
-282.9839635485
 11
1111.9135898259
 21
-282.983965307
  0
LINE
  5
467
100
AcDbEntity
  8
0
100
AcDbLine
 62
9
  6
CONTINUOUS
 10
1023.5515762769
 20
-281.3335448429
 11
1030.6576332166
 21
-281.3335448429
  0
LINE
  5
468
100
AcDbEntity
  8
0
100
AcDbLine
 62
9
  6
CONTINUOUS
 10
1100.4455203214
 20
-281.3335448429
 11
1107.5515762769
 21
-281.3335448429
  0
LINE
  5
469
100
AcDbEntity
  8
0
100
AcDbLine
 62
7
  6
CONTINUOUS
 10
1167.2062736599
 20
-278.3335448429
 11
1191.5515762769
 21
-278.3335448429
  0
LINE
  5
46A
100
AcDbEntity
  8
0
100
AcDbLine
 62
7
  6
CONTINUOUS
 10
894.0515762769
 20
-277.8335448429
 11
774.0515762769
 21
-277.8335448429
  0
LINE
  5
46B
100
AcDbEntity
  8
0
100
AcDbLine
 62
9
  6
CONTINUOUS
 10
1018.5515762769
 20
-276.3335448429
 11
1015.5515762769
 21
-276.3335448234
  0
LINE
  5
46C
100
AcDbEntity
  8
0
100
AcDbLine
 62
9
  6
CONTINUOUS
 10
1112.5515762769
 20
-276.3335448429
 11
1115.5515762769
 21
-276.3335448429
  0
LINE
  5
46D
100
AcDbEntity
  8
0
100
AcDbLine
 62
9
  6
CONTINUOUS
 10
953.0515762769
 20
-274.8335448429
 11
993.7278163077
 21
-274.8335448429
  0
LINE
  5
46E
100
AcDbEntity
  8
0
100
AcDbLine
 62
7
  6
CONTINUOUS
 10
992.632245156
 20
-272.8335448429
 11
941.0515762769
 21
-272.8335448429
  0
LINE
  5
46F
100
AcDbEntity
  8
0
100
AcDbLine
 62
9
  6
CONTINUOUS
 10
981.0515762736
 20
-304.146591571
 11
980.0515762769
 21
-302.4474667585
  0
LINE
  5
470
100
AcDbEntity
  8
0
100
AcDbLine
 62
9
  6
CONTINUOUS
 10
999.0515762769
 20
-382.055049154
 11
999.0515762769
 21
-351.7930256929
  0
LINE
  5
471
100
AcDbEntity
  8
0
100
AcDbLine
 62
9
  6
CONTINUOUS
 10
999.0515762769
 20
-323.8740639929
 11
999.0515762769
 21
-293.6120405319
  0
LINE
  5
472
100
AcDbEntity
  8
0
100
AcDbLine
 62
9
  6
CONTINUOUS
 10
1002.0515762769
 20
-325.3335448429
 11
1002.0515762769
 21
-350.3335448429
  0
LINE
  5
473
100
AcDbEntity
  8
0
100
AcDbLine
 62
9
  6
CONTINUOUS
 10
1002.0515762769
 20
-390.76499312
 11
1002.0515762769
 21
-402.8335448429
  0
LINE
  5
474
100
AcDbEntity
  8
0
100
AcDbLine
 62
7
  6
CONTINUOUS
 10
1004.0515762769
 20
-435.3335448429
 11
1004.0515762769
 21
-289.1707714391
  0
LINE
  5
475
100
AcDbEntity
  8
0
100
AcDbLine
 62
7
  6
CONTINUOUS
 10
1005.0515762769
 20
-460.065514062
 11
1005.0515762769
 21
-290.3909303851
  0
LINE
  5
476
100
AcDbEntity
  8
0
100
AcDbLine
 62
9
  6
CONTINUOUS
 10
1006.0515762769
 20
-291.4280602757
 11
1006.0515762769
 21
-460.3335448429
  0
LINE
  5
477
100
AcDbEntity
  8
0
100
AcDbLine
 62
9
  6
CONTINUOUS
 10
981.051575076
 20
-371.5205001499
 11
980.0515762769
 21
-373.2196229273
  0
LINE
  5
478
100
AcDbEntity
  8
0
100
AcDbLine
 62
7
  6
CONTINUOUS
 10
1181.5515762769
 20
-263.3335448429
 11
1175.5515762769
 21
-263.3335448429
  0
LINE
  5
479
100
AcDbEntity
  8
0
100
AcDbLine
 62
7
  6
CONTINUOUS
 10
1254.5515762769
 20
-245.8335448429
 11
1239.5515762769
 21
-245.8335448429
  0
LINE
  5
47A
100
AcDbEntity
  8
02___PRT_ALL_AXES
100
AcDbLine
 62
7
  6
CONTINUOUS
 10
1239.5515762769
 20
-245.8335448429
 11
1254.5515762769
 21
-245.8335448429
  0
LINE
  5
47B
100
AcDbEntity
  8
0
100
AcDbLine
 62
7
  6
CONTINUOUS
 10
939.0515829021
 20
-247.8335382182
 11
919.0515843743
 21
-227.833536746
  0
LINE
  5
47C
100
AcDbEntity
  8
0
100
AcDbLine
 62
9
  6
CONTINUOUS
 10
999.0515743791
 20
-293.6120372826
 11
998.0515762769
 21
-291.8997583791
  0
LINE
  5
47D
100
AcDbEntity
  8
0
100
AcDbLine
 62
7
  6
CONTINUOUS
 10
1014.0515762769
 20
-273.3316385141
 11
1014.0515762769
 21
-283.6911340802
  0
LINE
  5
47E
100
AcDbEntity
  8
0
100
AcDbLine
 62
7
  6
CONTINUOUS
 10
1014.0515762769
 20
-298.7283744421
 11
1014.0515762769
 21
-460.3335448429
  0
LINE
  5
47F
100
AcDbEntity
  8
0
100
AcDbLine
 62
7
  6
CONTINUOUS
 10
1014.5515762769
 20
-453.8335448429
 11
1014.5515762769
 21
-299.043473878
  0
LINE
  5
480
100
AcDbEntity
  8
0
100
AcDbLine
 62
7
  6
CONTINUOUS
 10
1014.5515762769
 20
-284.3284575523
 11
1014.5515762769
 21
-272.7055305718
  0
LINE
  5
481
100
AcDbEntity
  8
0
100
AcDbLine
 62
7
  6
CONTINUOUS
 10
1015.5515762769
 20
-192.3335448429
 11
1015.5515762769
 21
-196.9793111357
  0
LINE
  5
482
100
AcDbEntity
  8
0
100
AcDbLine
 62
7
  6
CONTINUOUS
 10
1015.5515762769
 20
-271.687778328
 11
1015.5515762769
 21
-276.3335448429
  0
LINE
  5
483
100
AcDbEntity
  8
0
100
AcDbLine
 62
9
  6
CONTINUOUS
 10
1018.5515762769
 20
-192.3335448429
 11
1018.5515762769
 21
-199.4396017827
  0
LINE
  5
484
100
AcDbEntity
  8
0
100
AcDbLine
 62
9
  6
CONTINUOUS
 10
1018.5515762769
 20
-269.2274888875
 11
1018.5515762769
 21
-276.3335448429
  0
LINE
  5
485
100
AcDbEntity
  8
0
100
AcDbLine
 62
9
  6
CONTINUOUS
 10
1023.5515762769
 20
-187.3335448429
 11
1023.5515762964
 21
-184.3335448429
  0
LINE
  5
486
100
AcDbEntity
  8
0
100
AcDbLine
 62
9
  6
CONTINUOUS
 10
1023.5515762769
 20
-281.3335448429
 11
1023.5515762769
 21
-284.3335448429
  0
LINE
  5
487
100
AcDbEntity
  8
0
100
AcDbLine
 62
9
  6
CONTINUOUS
 10
1029.5515762769
 20
-468.8335448429
 11
1029.5515762769
 21
-308.5007816946
  0
LINE
  5
488
100
AcDbEntity
  8
0
100
AcDbLine
 62
9
  6
CONTINUOUS
 10
999.0515762754
 20
-382.0550491565
 11
998.0515762769
 21
-383.7673313067
  0
LINE
  5
489
100
AcDbEntity
  8
0
100
AcDbLine
 62
7
  6
CONTINUOUS
 10
939.0515829023
 20
-427.8335514675
 11
919.0515843746
 21
-447.8335529396
  0
LINE
  5
48A
100
AcDbEntity
  8
0
100
AcDbLine
 62
7
  6
CONTINUOUS
 10
641.3358265706
 20
-227.8335448429
 11
678.0515762769
 21
-227.8335448429
  0
LINE
  5
48B
100
AcDbEntity
  8
02___PRT_ALL_AXES
100
AcDbLine
 62
7
  6
CONTINUOUS
 10
641.3358265706
 20
-227.8335448429
 11
678.0515762769
 21
-227.8335448429
  0
LINE
  5
48C
100
AcDbEntity
  8
0
100
AcDbLine
 62
7
  6
CONTINUOUS
 10
688.0515762769
 20
-227.8335448429
 11
919.0515762769
 21
-227.8335448429
  0
LINE
  5
48D
100
AcDbEntity
  8
02___PRT_ALL_AXES
100
AcDbLine
 62
7
  6
CONTINUOUS
 10
688.0515762769
 20
-227.8335448429
 11
919.0515762769
 21
-227.8335448429
  0
LINE
  5
48E
100
AcDbEntity
  8
0
100
AcDbLine
 62
3
  6
CONTINUOUS
 10
706.5515762769
 20
-222.8335448429
 11
891.5515762769
 21
-222.8335448429
  0
LINE
  5
48F
100
AcDbEntity
  8
0
100
AcDbLine
 62
9
  6
CONTINUOUS
 10
706.5515762769
 20
-219.8335448429
 11
891.5515762769
 21
-219.8335448429
  0
LINE
  5
490
100
AcDbEntity
  8
0
100
AcDbLine
 62
7
  6
CONTINUOUS
 10
1143.3238451504
 20
-206.8335448429
 11
1156.5515762769
 21
-206.8335448429
  0
LINE
  5
491
100
AcDbEntity
  8
0
100
AcDbLine
 62
3
  6
CONTINUOUS
 10
721.5515762769
 20
-192.8335448429
 11
876.5515762769
 21
-192.8335448429
  0
LINE
  5
492
100
AcDbEntity
  8
0
100
AcDbLine
 62
9
  6
CONTINUOUS
 10
1018.5515762769
 20
-192.3335448429
 11
1015.5515762769
 21
-192.3335448429
  0
LINE
  5
493
100
AcDbEntity
  8
0
100
AcDbLine
 62
9
  6
CONTINUOUS
 10
1112.5515762769
 20
-192.3335448429
 11
1115.5515762769
 21
-192.3335448624
  0
LINE
  5
494
100
AcDbEntity
  8
0
100
AcDbLine
 62
9
  6
CONTINUOUS
 10
1107.5515762769
 20
-187.3335448429
 11
1100.4455193371
 21
-187.3335448429
  0
LINE
  5
495
100
AcDbEntity
  8
0
100
AcDbLine
 62
9
  6
CONTINUOUS
 10
1030.6576322324
 20
-187.3335448429
 11
1023.5515762769
 21
-187.3335448429
  0
LINE
  5
496
100
AcDbEntity
  8
0
100
AcDbLine
 62
7
  6
CONTINUOUS
 10
1107.5515762769
 20
-184.3335448429
 11
1102.9058099841
 21
-184.3335448429
  0
LINE
  5
497
100
AcDbEntity
  8
0
100
AcDbLine
 62
7
  6
CONTINUOUS
 10
1028.1973427918
 20
-184.3335448429
 11
1023.5515762769
 21
-184.3335448429
  0
LINE
  5
498
100
AcDbEntity
  8
0
100
AcDbLine
 62
9
  6
CONTINUOUS
 10
1107.5515762769
 20
-187.3335448429
 11
1107.5515762769
 21
-184.3335448429
  0
LINE
  5
499
100
AcDbEntity
  8
0
100
AcDbLine
 62
9
  6
CONTINUOUS
 10
1107.5515762769
 20
-281.3335448429
 11
1107.5515762574
 21
-284.3335448429
  0
LINE
  5
49A
100
AcDbEntity
  8
0
100
AcDbLine
 62
9
  6
CONTINUOUS
 10
1112.5515762769
 20
-276.3335448429
 11
1112.5515762769
 21
-269.2274879032
  0
LINE
  5
49B
100
AcDbEntity
  8
0
100
AcDbLine
 62
9
  6
CONTINUOUS
 10
1112.5515762769
 20
-199.4396007984
 11
1112.5515762769
 21
-192.3335448429
  0
LINE
  5
49C
100
AcDbEntity
  8
0
100
AcDbLine
 62
7
  6
CONTINUOUS
 10
1115.5515762769
 20
-276.3335448429
 11
1115.5515762769
 21
-271.6877785502
  0
LINE
  5
49D
100
AcDbEntity
  8
0
100
AcDbLine
 62
7
  6
CONTINUOUS
 10
1115.5515762769
 20
-196.9793113579
 11
1115.5515762769
 21
-192.3335448429
  0
LINE
  5
49E
100
AcDbEntity
  8
0
100
AcDbLine
 62
9
  6
CONTINUOUS
 10
1156.5515762769
 20
-206.8335448429
 11
1156.5515762769
 21
-282.983951347
  0
LINE
  5
49F
100
AcDbEntity
  8
0
100
AcDbLine
 62
9
  6
CONTINUOUS
 10
1156.5515762769
 20
-372.4473659811
 11
1156.5515762769
 21
-468.8335448429
  0
LINE
  5
4A0
100
AcDbEntity
  8
0
100
AcDbLine
 62
7
  6
CONTINUOUS
 10
1171.5515762769
 20
-453.8335448429
 11
1171.5515762769
 21
-378.3335448429
  0
LINE
  5
4A1
100
AcDbEntity
  8
0
100
AcDbLine
 62
7
  6
CONTINUOUS
 10
1171.5515762769
 20
-278.3335448429
 11
1171.5515762769
 21
-221.8335448429
  0
LINE
  5
4A2
100
AcDbEntity
  8
0
100
AcDbLine
 62
9
  6
CONTINUOUS
 10
1175.5515762769
 20
-263.3335448429
 11
1175.5515762769
 21
-278.3335448429
  0
LINE
  5
4A3
100
AcDbEntity
  8
0
100
AcDbLine
 62
9
  6
CONTINUOUS
 10
1175.5515762769
 20
-378.3335448429
 11
1175.5515762769
 21
-393.3335448429
  0
LINE
  5
4A4
100
AcDbEntity
  8
02___PRT_ALL_AXES
100
AcDbLine
 62
7
  6
CONTINUOUS
 10
1181.5515762769
 20
-263.3335448429
 11
1181.5515762769
 21
-278.3335448429
  0
LINE
  5
4A5
100
AcDbEntity
  8
0
100
AcDbLine
 62
7
  6
CONTINUOUS
 10
1181.5515762769
 20
-278.3335448429
 11
1181.5515762769
 21
-378.3335448429
  0
LINE
  5
4A6
100
AcDbEntity
  8
02___PRT_ALL_AXES
100
AcDbLine
 62
7
  6
CONTINUOUS
 10
1181.5515762769
 20
-378.3335448429
 11
1181.5515762769
 21
-393.3335448429
  0
LINE
  5
4A7
100
AcDbEntity
  8
0
100
AcDbLine
 62
9
  6
CONTINUOUS
 10
1191.5515762769
 20
-278.3335448429
 11
1191.5515762769
 21
-378.3335448429
  0
LINE
  5
4A8
100
AcDbEntity
  8
0
100
AcDbLine
 62
7
  6
CONTINUOUS
 10
1194.5515762769
 20
-281.3335448429
 11
1194.5515762769
 21
-375.3335448429
  0
LINE
  5
4A9
100
AcDbEntity
  8
0
100
AcDbLine
 62
9
  6
CONTINUOUS
 10
1196.5515762769
 20
-291.3335448429
 11
1196.5515762769
 21
-365.3335448429
  0
LINE
  5
4AA
100
AcDbEntity
  8
0
100
AcDbLine
 62
9
  6
CONTINUOUS
 10
1234.5515762769
 20
-365.3335448429
 11
1234.5515762769
 21
-291.3335448429
  0
LINE
  5
4AB
100
AcDbEntity
  8
0
100
AcDbLine
 62
7
  6
CONTINUOUS
 10
1236.5515762769
 20
-407.8335448429
 11
1236.5515762769
 21
-248.8335448429
  0
LINE
  5
4AC
100
AcDbEntity
  8
0
100
AcDbLine
 62
9
  6
CONTINUOUS
 10
1239.5515762769
 20
-410.8335448429
 11
1239.5515762769
 21
-245.8335448429
  0
LINE
  5
4AD
100
AcDbEntity
  8
02___PRT_ALL_AXES
100
AcDbLine
 62
7
  6
CONTINUOUS
 10
1254.5515762769
 20
-245.8335448429
 11
1254.5515762769
 21
-410.8335448429
  0
ARC
  5
4AE
100
AcDbEntity
  8
0
100
AcDbCircle
 62
7
  6
CONTINUOUS
 10
633.0515762769
 20
71.9950249205
 40
20.0
100
AcDbArc
 50
179.9999985716
 51
224.9999928613
  0
ARC
  5
4AF
100
AcDbEntity
  8
0
100
AcDbCircle
 62
7
  6
CONTINUOUS
 10
641.3358265706
 20
63.7107729601
 40
20.0
100
AcDbArc
 50
224.9999941405
 51
270.0
  0
ARC
  5
4B0
100
AcDbEntity
  8
0
100
AcDbCircle
 62
7
  6
CONTINUOUS
 10
633.0515762769
 20
235.4265209996
 40
20.0
100
AcDbArc
 50
135.0000071387
 51
180.0000014284
  0
ARC
  5
4B1
100
AcDbEntity
  8
0
100
AcDbCircle
 62
7
  6
CONTINUOUS
 10
641.3358265706
 20
243.7107729601
 40
20.0
100
AcDbArc
 50
90.0
 51
135.0000058595
  0
ARC
  5
4B2
100
AcDbEntity
  8
0
100
AcDbCircle
 62
9
  6
CONTINUOUS
 10
976.0829543838
 20
-46.1364411161
 40
193.2472166236
100
AcDbArc
 50
88.5266931948
 51
90.0093032807
  0
ARC
  5
4B3
100
AcDbEntity
  8
0
100
AcDbCircle
 62
7
  6
CONTINUOUS
 10
1029.5515762769
 20
37.7107729601
 40
15.0
100
AcDbArc
 50
179.9999999031
 51
270.0
  0
ARC
  5
4B4
100
AcDbEntity
  8
0
100
AcDbCircle
 62
7
  6
CONTINUOUS
 10
1006.0515762769
 20
33.2107729601
 40
2.0
100
AcDbArc
 50
240.0
 51
270.0
  0
ARC
  5
4B5
100
AcDbEntity
  8
0
100
AcDbCircle
 62
9
  6
CONTINUOUS
 10
955.0515762769
 20
146.7107729601
 40
4.0
100
AcDbArc
 50
90.0
 51
180.0
  0
ARC
  5
4B6
100
AcDbEntity
  8
0
100
AcDbCircle
 62
9
  6
CONTINUOUS
 10
955.0515762769
 20
160.7107729601
 40
4.0
100
AcDbArc
 50
180.0
 51
270.0
  0
ARC
  5
4B7
100
AcDbEntity
  8
0
100
AcDbCircle
 62
7
  6
CONTINUOUS
 10
941.0515762769
 20
91.7107729601
 40
3.0
100
AcDbArc
 50
228.1896851042
 51
270.0
  0
ARC
  5
4B8
100
AcDbEntity
  8
0
100
AcDbCircle
 62
7
  6
CONTINUOUS
 10
1002.0515762769
 20
160.7107729601
 40
2.0
100
AcDbArc
 50
270.0
 51
360.0
  0
ARC
  5
4B9
100
AcDbEntity
  8
0
100
AcDbCircle
 62
7
  6
CONTINUOUS
 10
951.0515762769
 20
90.7107729601
 40
2.0
100
AcDbArc
 50
270.0
 51
360.0
  0
ARC
  5
4BA
100
AcDbEntity
  8
0
100
AcDbCircle
 62
7
  6
CONTINUOUS
 10
955.0515762769
 20
160.7107729601
 40
2.0
100
AcDbArc
 50
180.0
 51
270.0
  0
ARC
  5
4BB
100
AcDbEntity
  8
0
100
AcDbCircle
 62
7
  6
CONTINUOUS
 10
1002.0515762769
 20
146.7107729601
 40
2.0
100
AcDbArc
 50
0.0
 51
90.0
  0
ARC
  5
4BC
100
AcDbEntity
  8
0
100
AcDbCircle
 62
7
  6
CONTINUOUS
 10
955.0515762769
 20
146.7107729601
 40
2.0
100
AcDbArc
 50
90.0
 51
180.0
  0
ARC
  5
4BD
100
AcDbEntity
  8
0
100
AcDbCircle
 62
7
  6
CONTINUOUS
 10
1002.0515762769
 20
86.7107729601
 40
2.0
100
AcDbArc
 50
0.0
 51
90.0
  0
ARC
  5
4BE
100
AcDbEntity
  8
0
100
AcDbCircle
 62
7
  6
CONTINUOUS
 10
1156.5515762769
 20
37.7107729601
 40
15.0
100
AcDbArc
 50
270.0
 51
313.9022452007
  0
ARC
  5
4BF
100
AcDbEntity
  8
0
100
AcDbCircle
 62
7
  6
CONTINUOUS
 10
1175.5515762769
 20
91.7107848771
 40
4.0000013401
100
AcDbArc
 50
179.9999999278
 51
270.0
  0
ARC
  5
4C0
100
AcDbEntity
  8
0
100
AcDbCircle
 62
7
  6
CONTINUOUS
 10
1175.5515762769
 20
177.7107848771
 40
4.0000013401
100
AcDbArc
 50
180.0008326261
 51
270.0
  0
ARC
  5
4C1
100
AcDbEntity
  8
0
100
AcDbCircle
 62
7
  6
CONTINUOUS
 10
1175.5515762769
 20
109.710761043
 40
4.0000013401
100
AcDbArc
 50
90.0
 51
179.9991673739
  0
ARC
  5
4C2
100
AcDbEntity
  8
0
100
AcDbCircle
 62
7
  6
CONTINUOUS
 10
941.0515762769
 20
215.7107729601
 40
3.0
100
AcDbArc
 50
90.0
 51
131.8103148958
  0
ARC
  5
4C3
100
AcDbEntity
  8
0
100
AcDbCircle
 62
7
  6
CONTINUOUS
 10
951.0515762769
 20
216.7107729601
 40
2.0
100
AcDbArc
 50
0.0
 51
90.0
  0
ARC
  5
4C4
100
AcDbEntity
  8
0
100
AcDbCircle
 62
7
  6
CONTINUOUS
 10
1006.0515762769
 20
274.2107729601
 40
2.0
100
AcDbArc
 50
90.0
 51
120.0
  0
ARC
  5
4C5
100
AcDbEntity
  8
0
100
AcDbCircle
 62
7
  6
CONTINUOUS
 10
1002.0515762769
 20
220.7107729601
 40
2.0
100
AcDbArc
 50
270.0
 51
360.0
  0
ARC
  5
4C6
100
AcDbEntity
  8
0
100
AcDbCircle
 62
9
  6
CONTINUOUS
 10
976.1858240261
 20
345.5065369368
 40
185.1958126346
100
AcDbArc
 50
269.9584665009
 51
271.5055370236
  0
ARC
  5
4C7
100
AcDbEntity
  8
0
100
AcDbCircle
 62
7
  6
CONTINUOUS
 10
1029.5515762769
 20
328.7107729601
 40
15.0
100
AcDbArc
 50
89.9874885102
 51
180.0
  0
ARC
  5
4C8
100
AcDbEntity
  8
0
100
AcDbCircle
 62
7
  6
CONTINUOUS
 10
1036.5515762769
 20
347.7107729601
 40
4.0
100
AcDbArc
 50
270.9808877879
 51
360.0
  0
ARC
  5
4C9
100
AcDbEntity
  8
0
100
AcDbCircle
 62
7
  6
CONTINUOUS
 10
1018.5515762769
 20
363.7107729601
 40
3.0
100
AcDbArc
 50
90.0
 51
180.0
  0
ARC
  5
4CA
100
AcDbEntity
  8
0
100
AcDbCircle
 62
7
  6
CONTINUOUS
 10
986.0515762769
 20
411.7107729601
 40
3.0
100
AcDbArc
 50
180.0
 51
270.0
  0
ARC
  5
4CB
100
AcDbEntity
  8
0
100
AcDbCircle
 62
7
  6
CONTINUOUS
 10
1026.5515762769
 20
368.7107729601
 40
2.0
100
AcDbArc
 50
270.0000053674
 51
360.0
  0
ARC
  5
4CC
100
AcDbEntity
  8
0
100
AcDbCircle
 62
7
  6
CONTINUOUS
 10
1026.5515762769
 20
406.7107729601
 40
2.0
100
AcDbArc
 50
0.0
 51
89.9999954091
  0
ARC
  5
4CD
100
AcDbEntity
  8
0
100
AcDbCircle
 62
7
  6
CONTINUOUS
 10
1191.5515762769
 20
246.7107729601
 40
3.0
100
AcDbArc
 50
270.0
 51
360.0
  0
ARC
  5
4CE
100
AcDbEntity
  8
0
100
AcDbCircle
 62
7
  6
CONTINUOUS
 10
1196.5515762769
 20
254.7107729601
 40
2.0
100
AcDbArc
 50
90.0
 51
179.9999946325
  0
ARC
  5
4CF
100
AcDbEntity
  8
0
100
AcDbCircle
 62
7
  6
CONTINUOUS
 10
1094.5515762769
 20
347.7107729601
 40
4.0
100
AcDbArc
 50
180.0
 51
269.0191122122
  0
ARC
  5
4D0
100
AcDbEntity
  8
0
100
AcDbCircle
 62
7
  6
CONTINUOUS
 10
1112.5515762769
 20
363.7107729601
 40
3.0
100
AcDbArc
 50
0.0
 51
90.0
  0
ARC
  5
4D1
100
AcDbEntity
  8
0
100
AcDbCircle
 62
7
  6
CONTINUOUS
 10
1145.0515762769
 20
411.7107729601
 40
3.0
100
AcDbArc
 50
270.0
 51
360.0
  0
ARC
  5
4D2
100
AcDbEntity
  8
0
100
AcDbCircle
 62
7
  6
CONTINUOUS
 10
1191.5515762769
 20
340.7107729601
 40
3.0
100
AcDbArc
 50
0.0
 51
90.0
  0
ARC
  5
4D3
100
AcDbEntity
  8
0
100
AcDbCircle
 62
7
  6
CONTINUOUS
 10
1104.5515762769
 20
368.7107729601
 40
2.0
100
AcDbArc
 50
180.0
 51
269.9999946326
  0
ARC
  5
4D4
100
AcDbEntity
  8
0
100
AcDbCircle
 62
7
  6
CONTINUOUS
 10
1104.5515762769
 20
406.7107729601
 40
2.0
100
AcDbArc
 50
90.0000045909
 51
180.0
  0
ARC
  5
4D5
100
AcDbEntity
  8
0
100
AcDbCircle
 62
7
  6
CONTINUOUS
 10
1196.5515762769
 20
332.7107729601
 40
2.0
100
AcDbArc
 50
180.0000053675
 51
270.0
  0
ARC
  5
4D6
100
AcDbEntity
  8
0
100
AcDbCircle
 62
9
  6
CONTINUOUS
 10
1023.5388777585
 20
8165.0347806955
 40
8018.1004596874
100
AcDbArc
 50
269.6963926229
 51
269.8250182553
  0
ARC
  5
4D7
100
AcDbEntity
  8
0
100
AcDbCircle
 62
9
  6
CONTINUOUS
 10
1760.9576595403
 20
1371.9564221096
 40
1473.0837394006
100
AcDbArc
 50
238.0325288977
 51
238.8541453456
  0
ARC
  5
4D8
100
AcDbEntity
  8
0
100
AcDbCircle
 62
9
  6
CONTINUOUS
 10
1760.9576595381
 20
-1064.534876186
 40
1473.0837393965
100
AcDbArc
 50
121.1458546544
 51
121.9674711023
  0
ARC
  5
4D9
100
AcDbEntity
  8
0
100
AcDbCircle
 62
9
  6
CONTINUOUS
 10
1675.7406477133
 20
-919.7985610741
 40
1307.0618551323
100
AcDbArc
 50
121.2305346673
 51
122.1578842491
  0
ARC
  5
4DA
100
AcDbEntity
  8
0
100
AcDbCircle
 62
9
  6
CONTINUOUS
 10
1675.7406477118
 20
1227.2201069918
 40
1307.0618551296
100
AcDbArc
 50
237.8421157509
 51
238.7694653327
  0
ARC
  5
4DB
100
AcDbEntity
  8
0
100
AcDbCircle
 62
7
  6
CONTINUOUS
 10
1239.5515762769
 20
214.2107729601
 40
3.0
100
AcDbArc
 50
180.0
 51
270.0
  0
ARC
  5
4DC
100
AcDbEntity
  8
0
100
AcDbCircle
 62
7
  6
CONTINUOUS
 10
1239.5515762769
 20
373.2107729601
 40
3.0
100
AcDbArc
 50
90.0
 51
180.0
  0
ARC
  5
4DD
100
AcDbEntity
  8
0
100
AcDbCircle
 62
7
  6
CONTINUOUS
 10
1234.5515762769
 20
254.7107729601
 40
2.0
100
AcDbArc
 50
0.0000045909
 51
90.0
  0
ARC
  5
4DE
100
AcDbEntity
  8
0
100
AcDbCircle
 62
7
  6
CONTINUOUS
 10
1234.5515762769
 20
332.7107729601
 40
2.0
100
AcDbArc
 50
270.0
 51
359.9999954091
  0
ARC
  5
4DF
100
AcDbEntity
  8
0
100
AcDbCircle
 62
7
  6
CONTINUOUS
 10
166.5722304873
 20
153.7107729601
 40
131.0
100
AcDbArc
 50
180.0
 51
360.0
  0
ARC
  5
4E0
100
AcDbEntity
  8
0
100
AcDbCircle
 62
7
  6
CONTINUOUS
 10
166.5722304873
 20
217.0821507814
 40
131.0
100
AcDbArc
 50
105.321064236
 51
109.2940519179
  0
ARC
  5
4E1
100
AcDbEntity
  8
0
100
AcDbCircle
 62
7
  6
CONTINUOUS
 10
166.5722304873
 20
217.0821507814
 40
131.0
100
AcDbArc
 50
119.1793285043
 51
180.0
  0
ARC
  5
4E2
100
AcDbEntity
  8
0
100
AcDbCircle
 62
9
  6
CONTINUOUS
 10
166.5722304873
 20
153.7107729601
 40
116.0
100
AcDbArc
 50
180.0
 51
239.3770324135
  0
ARC
  5
4E3
100
AcDbEntity
  8
0
100
AcDbCircle
 62
9
  6
CONTINUOUS
 10
166.5722304873
 20
217.0821507814
 40
116.0
100
AcDbArc
 50
128.1108637626
 51
180.0
  0
ARC
  5
4E4
100
AcDbEntity
  8
0
100
AcDbCircle
 62
9
  6
CONTINUOUS
 10
166.5722304873
 20
153.7107729601
 40
116.0
100
AcDbArc
 50
311.159818515
 51
360.0
  0
ARC
  5
4E5
100
AcDbEntity
  8
0
100
AcDbCircle
 62
9
  6
CONTINUOUS
 10
125.222959701
 20
57.7299820269
 40
18.1507393783
100
AcDbArc
 50
180.0606365746
 51
192.2190322436
  0
ARC
  5
4E6
100
AcDbEntity
  8
0
100
AcDbCircle
 62
7
  6
CONTINUOUS
 10
48.5722304873
 20
27.7107729601
 40
6.0
100
AcDbArc
 50
270.0
 51
360.0
  0
ARC
  5
4E7
100
AcDbEntity
  8
0
100
AcDbCircle
 62
3
  6
CONTINUOUS
 10
57.5722304873
 20
35.7107729601
 40
6.0
100
AcDbArc
 50
90.0
 51
180.0
  0
ARC
  5
4E8
100
AcDbEntity
  8
0
100
AcDbCircle
 62
7
  6
CONTINUOUS
 10
57.5722304873
 20
35.7107729601
 40
3.0
100
AcDbArc
 50
90.0
 51
180.0
  0
ARC
  5
4E9
100
AcDbEntity
  8
0
100
AcDbCircle
 62
3
  6
CONTINUOUS
 10
48.5722304873
 20
27.7107729601
 40
3.0
100
AcDbArc
 50
270.0
 51
360.0
  0
ARC
  5
4EA
100
AcDbEntity
  8
0
100
AcDbCircle
 62
7
  6
CONTINUOUS
 10
166.5722304873
 20
224.0113996404
 40
131.0
100
AcDbArc
 50
0.0
 51
48.3017188796
  0
ARC
  5
4EB
100
AcDbEntity
  8
0
100
AcDbCircle
 62
7
  6
CONTINUOUS
 10
166.5722304873
 20
224.0113996404
 40
131.0
100
AcDbArc
 50
61.3561105104
 51
65.1251107555
  0
ARC
  5
4EC
100
AcDbEntity
  8
0
100
AcDbCircle
 62
9
  6
CONTINUOUS
 10
166.5722304873
 20
224.0113996404
 40
116.0
100
AcDbArc
 50
0.0
 51
37.5232782868
  0
CIRCLE
  5
4ED
100
AcDbEntity
  8
02___PRT_ALL_AXES
100
AcDbCircle
 62
7
  6
CONTINUOUS
 10
176.0722304873
 20
293.7107729601
 40
82.5
  0
CIRCLE
  5
4EE
100
AcDbEntity
  8
0
100
AcDbCircle
 62
7
  6
CONTINUOUS
 10
176.0722304873
 20
293.7107729601
 40
30.0
  0
ARC
  5
4EF
100
AcDbEntity
  8
02___PRT_ALL_AXES
100
AcDbCircle
 62
7
  6
CONTINUOUS
 10
133.2922702255
 20
250.9308126983
 40
9.0
100
AcDbArc
 50
308.6206297916
 51
141.3793702084
  0
ARC
  5
4F0
100
AcDbEntity
  8
02___PRT_ALL_AXES
100
AcDbCircle
 62
7
  6
CONTINUOUS
 10
133.2922702255
 20
336.4907332218
 40
9.0
100
AcDbArc
 50
218.6206297916
 51
51.3793702084
  0
ARC
  5
4F1
100
AcDbEntity
  8
02___PRT_ALL_AXES
100
AcDbCircle
 62
7
  6
CONTINUOUS
 10
131.8780566631
 20
249.5165991359
 40
9.0
100
AcDbArc
 50
128.6206297916
 51
321.3793702084
  0
ARC
  5
4F2
100
AcDbEntity
  8
02___PRT_ALL_AXES
100
AcDbCircle
 62
7
  6
CONTINUOUS
 10
131.8780566631
 20
337.9049467842
 40
9.0
100
AcDbArc
 50
38.6206297916
 51
231.3793702084
  0
ARC
  5
4F3
100
AcDbEntity
  8
0
100
AcDbCircle
 62
7
  6
CONTINUOUS
 10
134.0722304873
 20
335.7107729601
 40
8.0
100
AcDbArc
 50
90.0
 51
180.0
  0
ARC
  5
4F4
100
AcDbEntity
  8
0
100
AcDbCircle
 62
7
  6
CONTINUOUS
 10
134.0722304873
 20
251.7107729601
 40
8.0
100
AcDbArc
 50
180.0
 51
270.0
  0
ARC
  5
4F5
100
AcDbEntity
  8
0
100
AcDbCircle
 62
9
  6
CONTINUOUS
 10
134.0722304873
 20
335.7107729601
 40
5.0
100
AcDbArc
 50
90.0
 51
180.0
  0
ARC
  5
4F6
100
AcDbEntity
  8
0
100
AcDbCircle
 62
9
  6
CONTINUOUS
 10
134.0722304873
 20
251.7107729601
 40
5.0
100
AcDbArc
 50
180.0
 51
270.0
  0
ARC
  5
4F7
100
AcDbEntity
  8
0
100
AcDbCircle
 62
7
  6
CONTINUOUS
 10
190.5722304873
 20
411.7107729601
 40
3.0
100
AcDbArc
 50
180.0
 51
270.0
  0
ARC
  5
4F8
100
AcDbEntity
  8
0
100
AcDbCircle
 62
7
  6
CONTINUOUS
 10
284.5722304873
 20
27.7107729601
 40
6.0
100
AcDbArc
 50
180.0
 51
270.0
  0
ARC
  5
4F9
100
AcDbEntity
  8
0
100
AcDbCircle
 62
3
  6
CONTINUOUS
 10
275.5722304873
 20
35.7107729601
 40
6.0
100
AcDbArc
 50
0.0
 51
90.0
  0
ARC
  5
4FA
100
AcDbEntity
  8
0
100
AcDbCircle
 62
7
  6
CONTINUOUS
 10
275.5722304873
 20
35.7107729601
 40
3.0
100
AcDbArc
 50
0.0
 51
90.0
  0
ARC
  5
4FB
100
AcDbEntity
  8
0
100
AcDbCircle
 62
3
  6
CONTINUOUS
 10
284.5722304873
 20
27.7107729601
 40
3.0
100
AcDbArc
 50
180.0
 51
270.0
  0
ARC
  5
4FC
100
AcDbEntity
  8
02___PRT_ALL_AXES
100
AcDbCircle
 62
7
  6
CONTINUOUS
 10
218.8521907491
 20
336.4907332218
 40
9.0
100
AcDbArc
 50
128.6206297916
 51
321.3793702084
  0
ARC
  5
4FD
100
AcDbEntity
  8
02___PRT_ALL_AXES
100
AcDbCircle
 62
7
  6
CONTINUOUS
 10
218.8521907491
 20
250.9308126983
 40
9.0
100
AcDbArc
 50
38.6206297916
 51
231.3793702084
  0
ARC
  5
4FE
100
AcDbEntity
  8
02___PRT_ALL_AXES
100
AcDbCircle
 62
7
  6
CONTINUOUS
 10
220.2664043114
 20
337.9049467842
 40
9.0
100
AcDbArc
 50
308.6206297916
 51
141.3793702084
  0
ARC
  5
4FF
100
AcDbEntity
  8
02___PRT_ALL_AXES
100
AcDbCircle
 62
7
  6
CONTINUOUS
 10
220.2664043114
 20
249.5165991359
 40
9.0
100
AcDbArc
 50
218.6206297916
 51
51.3793702084
  0
ARC
  5
500
100
AcDbEntity
  8
0
100
AcDbCircle
 62
7
  6
CONTINUOUS
 10
218.0722304873
 20
251.7107729601
 40
8.0
100
AcDbArc
 50
270.0
 51
360.0
  0
ARC
  5
501
100
AcDbEntity
  8
0
100
AcDbCircle
 62
7
  6
CONTINUOUS
 10
218.0722304873
 20
335.7107729601
 40
8.0
100
AcDbArc
 50
0.0
 51
90.0
  0
ARC
  5
502
100
AcDbEntity
  8
0
100
AcDbCircle
 62
9
  6
CONTINUOUS
 10
218.0722304873
 20
335.7107729601
 40
5.0
100
AcDbArc
 50
0.0
 51
90.0
  0
ARC
  5
503
100
AcDbEntity
  8
0
100
AcDbCircle
 62
9
  6
CONTINUOUS
 10
218.0722304873
 20
251.7107729601
 40
5.0
100
AcDbArc
 50
270.0
 51
360.0
  0
ARC
  5
504
100
AcDbEntity
  8
0
100
AcDbCircle
 62
7
  6
CONTINUOUS
 10
349.5722304873
 20
411.7107729601
 40
3.0
100
AcDbArc
 50
270.0
 51
360.0
  0
ARC
  5
505
100
AcDbEntity
  8
0
100
AcDbCircle
 62
7
  6
CONTINUOUS
 10
317.0722304873
 20
363.7107729601
 40
3.0
100
AcDbArc
 50
0.0
 51
90.0
  0
ARC
  5
506
100
AcDbEntity
  8
0
100
AcDbCircle
 62
7
  6
CONTINUOUS
 10
223.0722304873
 20
363.7107729601
 40
3.0
100
AcDbArc
 50
90.0
 51
180.0
  0
ARC
  5
507
100
AcDbEntity
  8
0
100
AcDbCircle
 62
7
  6
CONTINUOUS
 10
231.0722304873
 20
406.7107729601
 40
2.0
100
AcDbArc
 50
0.0
 51
90.0
  0
ARC
  5
508
100
AcDbEntity
  8
0
100
AcDbCircle
 62
7
  6
CONTINUOUS
 10
309.0722304873
 20
406.7107729601
 40
2.0
100
AcDbArc
 50
90.0
 51
180.0
  0
ARC
  5
509
100
AcDbEntity
  8
0
100
AcDbCircle
 62
7
  6
CONTINUOUS
 10
231.0722304873
 20
368.7107729601
 40
2.0
100
AcDbArc
 50
270.0
 51
360.0
  0
ARC
  5
50A
100
AcDbEntity
  8
0
100
AcDbCircle
 62
7
  6
CONTINUOUS
 10
309.0722304873
 20
368.7107729601
 40
2.0
100
AcDbArc
 50
180.0
 51
270.0
  0
ARC
  5
50B
100
AcDbEntity
  8
0
100
AcDbCircle
 62
9
  6
CONTINUOUS
 10
-1383.4979487168
 20
-1064.53487619
 40
1473.0837394013
100
AcDbArc
 50
58.0325288977
 51
58.8541453456
  0
ARC
  5
50C
100
AcDbEntity
  8
0
100
AcDbCircle
 62
9
  6
CONTINUOUS
 10
-1383.4979487134
 20
1371.9564221046
 40
1473.0837393948
100
AcDbArc
 50
301.1458546544
 51
301.9674711023
  0
ARC
  5
50D
100
AcDbEntity
  8
0
100
AcDbCircle
 62
9
  6
CONTINUOUS
 10
-1298.2809368875
 20
1227.2201069909
 40
1307.0618551285
100
AcDbArc
 50
301.2305346673
 51
302.1578842491
  0
ARC
  5
50E
100
AcDbEntity
  8
0
100
AcDbCircle
 62
9
  6
CONTINUOUS
 10
-1298.280936886
 20
-919.7985610684
 40
1307.0618551257
100
AcDbArc
 50
57.8421157509
 51
58.7694653327
  0
ARC
  5
50F
100
AcDbEntity
  8
0
100
AcDbCircle
 62
7
  6
CONTINUOUS
 10
-862.0918654531
 20
214.2107729601
 40
3.0
100
AcDbArc
 50
270.0
 51
360.0
  0
ARC
  5
510
100
AcDbEntity
  8
0
100
AcDbCircle
 62
7
  6
CONTINUOUS
 10
-862.0918654531
 20
373.2107729601
 40
3.0
100
AcDbArc
 50
0.0
 51
90.0
  0
ARC
  5
511
100
AcDbEntity
  8
0
100
AcDbCircle
 62
7
  6
CONTINUOUS
 10
-857.0918654531
 20
254.7107729601
 40
2.0
100
AcDbArc
 50
90.0
 51
179.9999954091
  0
ARC
  5
512
100
AcDbEntity
  8
0
100
AcDbCircle
 62
7
  6
CONTINUOUS
 10
-857.0918654531
 20
332.7107729601
 40
2.0
100
AcDbArc
 50
180.0000045909
 51
270.0
  0
ARC
  5
513
100
AcDbEntity
  8
0
100
AcDbCircle
 62
9
  6
CONTINUOUS
 10
-646.0791669347
 20
-7857.613234773
 40
8018.100459685
100
AcDbArc
 50
89.6963926229
 51
89.8250182553
  0
ARC
  5
514
100
AcDbEntity
  8
0
100
AcDbCircle
 62
7
  6
CONTINUOUS
 10
-779.0918654531
 20
37.7107729601
 40
15.0
100
AcDbArc
 50
226.0977547993
 51
270.0
  0
ARC
  5
515
100
AcDbEntity
  8
0
100
AcDbCircle
 62
7
  6
CONTINUOUS
 10
-798.0918654531
 20
91.7107848771
 40
4.0000013401
100
AcDbArc
 50
270.0
 51
0.0000000722
  0
ARC
  5
516
100
AcDbEntity
  8
0
100
AcDbCircle
 62
7
  6
CONTINUOUS
 10
-798.0918654531
 20
177.7107848771
 40
4.0000013401
100
AcDbArc
 50
270.0
 51
359.9991673739
  0
ARC
  5
517
100
AcDbEntity
  8
0
100
AcDbCircle
 62
7
  6
CONTINUOUS
 10
-798.0918654531
 20
109.710761043
 40
4.0000013401
100
AcDbArc
 50
0.0008326261
 51
90.0
  0
ARC
  5
518
100
AcDbEntity
  8
0
100
AcDbCircle
 62
9
  6
CONTINUOUS
 10
-598.7261132023
 20
-38.0849910168
 40
185.1958126347
100
AcDbArc
 50
89.9584665009
 51
91.5055370236
  0
ARC
  5
519
100
AcDbEntity
  8
0
100
AcDbCircle
 62
7
  6
CONTINUOUS
 10
-652.0918654531
 20
37.7107729601
 40
15.0
100
AcDbArc
 50
270.0
 51
0.0000000969
  0
ARC
  5
51A
100
AcDbEntity
  8
0
100
AcDbCircle
 62
7
  6
CONTINUOUS
 10
-628.5918654531
 20
33.2107729601
 40
2.0
100
AcDbArc
 50
270.0
 51
300.0
  0
ARC
  5
51B
100
AcDbEntity
  8
0
100
AcDbCircle
 62
9
  6
CONTINUOUS
 10
-577.5918654531
 20
146.7107729601
 40
4.0
100
AcDbArc
 50
0.0
 51
90.0
  0
ARC
  5
51C
100
AcDbEntity
  8
0
100
AcDbCircle
 62
9
  6
CONTINUOUS
 10
-577.5918654531
 20
160.7107729601
 40
4.0
100
AcDbArc
 50
270.0
 51
360.0
  0
ARC
  5
51D
100
AcDbEntity
  8
0
100
AcDbCircle
 62
7
  6
CONTINUOUS
 10
-563.5918654531
 20
91.7107729601
 40
3.0
100
AcDbArc
 50
270.0
 51
311.8103148958
  0
ARC
  5
51E
100
AcDbEntity
  8
0
100
AcDbCircle
 62
7
  6
CONTINUOUS
 10
-577.5918654531
 20
146.7107729601
 40
2.0
100
AcDbArc
 50
0.0
 51
90.0
  0
ARC
  5
51F
100
AcDbEntity
  8
0
100
AcDbCircle
 62
7
  6
CONTINUOUS
 10
-624.5918654531
 20
160.7107729601
 40
2.0
100
AcDbArc
 50
180.0
 51
270.0
  0
ARC
  5
520
100
AcDbEntity
  8
0
100
AcDbCircle
 62
7
  6
CONTINUOUS
 10
-577.5918654531
 20
160.7107729601
 40
2.0
100
AcDbArc
 50
270.0
 51
360.0
  0
ARC
  5
521
100
AcDbEntity
  8
0
100
AcDbCircle
 62
7
  6
CONTINUOUS
 10
-624.5918654531
 20
86.7107729601
 40
2.0
100
AcDbArc
 50
90.0
 51
180.0
  0
ARC
  5
522
100
AcDbEntity
  8
0
100
AcDbCircle
 62
7
  6
CONTINUOUS
 10
-573.5918654531
 20
90.7107729601
 40
2.0
100
AcDbArc
 50
180.0
 51
270.0
  0
ARC
  5
523
100
AcDbEntity
  8
0
100
AcDbCircle
 62
7
  6
CONTINUOUS
 10
-624.5918654531
 20
146.7107729601
 40
2.0
100
AcDbArc
 50
90.0
 51
180.0
  0
ARC
  5
524
100
AcDbEntity
  8
0
100
AcDbCircle
 62
7
  6
CONTINUOUS
 10
-814.0918654531
 20
246.7107729601
 40
3.0
100
AcDbArc
 50
180.0
 51
270.0
  0
ARC
  5
525
100
AcDbEntity
  8
0
100
AcDbCircle
 62
7
  6
CONTINUOUS
 10
-819.0918654531
 20
254.7107729601
 40
2.0
100
AcDbArc
 50
0.0000053675
 51
90.0
  0
ARC
  5
526
100
AcDbEntity
  8
0
100
AcDbCircle
 62
7
  6
CONTINUOUS
 10
-814.0918654531
 20
340.7107729601
 40
3.0
100
AcDbArc
 50
90.0
 51
180.0
  0
ARC
  5
527
100
AcDbEntity
  8
0
100
AcDbCircle
 62
7
  6
CONTINUOUS
 10
-735.0918654531
 20
363.7107729601
 40
3.0
100
AcDbArc
 50
90.0
 51
180.0
  0
ARC
  5
528
100
AcDbEntity
  8
0
100
AcDbCircle
 62
7
  6
CONTINUOUS
 10
-767.5918654531
 20
411.7107729601
 40
3.0
100
AcDbArc
 50
180.0
 51
270.0
  0
ARC
  5
529
100
AcDbEntity
  8
0
100
AcDbCircle
 62
7
  6
CONTINUOUS
 10
-819.0918654531
 20
332.7107729601
 40
2.0
100
AcDbArc
 50
270.0
 51
359.9999946325
  0
ARC
  5
52A
100
AcDbEntity
  8
0
100
AcDbCircle
 62
7
  6
CONTINUOUS
 10
-727.0918654531
 20
368.7107729601
 40
2.0
100
AcDbArc
 50
270.0000053675
 51
360.0
  0
ARC
  5
52B
100
AcDbEntity
  8
0
100
AcDbCircle
 62
7
  6
CONTINUOUS
 10
-727.0918654531
 20
406.7107729601
 40
2.0
100
AcDbArc
 50
0.0
 51
89.9999954091
  0
ARC
  5
52C
100
AcDbEntity
  8
0
100
AcDbCircle
 62
7
  6
CONTINUOUS
 10
-563.5918654531
 20
215.7107729601
 40
3.0
100
AcDbArc
 50
48.1896851042
 51
90.0
  0
ARC
  5
52D
100
AcDbEntity
  8
0
100
AcDbCircle
 62
7
  6
CONTINUOUS
 10
-628.5918654531
 20
274.2107729601
 40
2.0
100
AcDbArc
 50
60.0
 51
90.0
  0
ARC
  5
52E
100
AcDbEntity
  8
0
100
AcDbCircle
 62
7
  6
CONTINUOUS
 10
-624.5918654531
 20
220.7107729601
 40
2.0
100
AcDbArc
 50
180.0
 51
270.0
  0
ARC
  5
52F
100
AcDbEntity
  8
0
100
AcDbCircle
 62
7
  6
CONTINUOUS
 10
-573.5918654531
 20
216.7107729601
 40
2.0
100
AcDbArc
 50
90.0
 51
180.0
  0
ARC
  5
530
100
AcDbEntity
  8
0
100
AcDbCircle
 62
9
  6
CONTINUOUS
 10
-598.6232435601
 20
353.5579870368
 40
193.2472166242
100
AcDbArc
 50
268.5266931948
 51
270.0093032807
  0
ARC
  5
531
100
AcDbEntity
  8
0
100
AcDbCircle
 62
7
  6
CONTINUOUS
 10
-652.0918654531
 20
328.7107729601
 40
15.0
100
AcDbArc
 50
0.0
 51
90.0123170388
  0
ARC
  5
532
100
AcDbEntity
  8
0
100
AcDbCircle
 62
7
  6
CONTINUOUS
 10
-641.0918654531
 20
363.7107729601
 40
3.0
100
AcDbArc
 50
0.0
 51
90.0
  0
ARC
  5
533
100
AcDbEntity
  8
0
100
AcDbCircle
 62
7
  6
CONTINUOUS
 10
-608.5918654531
 20
411.7107729601
 40
3.0
100
AcDbArc
 50
270.0
 51
360.0
  0
ARC
  5
534
100
AcDbEntity
  8
0
100
AcDbCircle
 62
7
  6
CONTINUOUS
 10
-649.0918654531
 20
368.7107729601
 40
2.0
100
AcDbArc
 50
180.0
 51
269.9999946325
  0
ARC
  5
535
100
AcDbEntity
  8
0
100
AcDbCircle
 62
7
  6
CONTINUOUS
 10
-649.0918654531
 20
406.7107729601
 40
2.0
100
AcDbArc
 50
90.0000045909
 51
180.0
  0
ARC
  5
536
100
AcDbEntity
  8
0
100
AcDbCircle
 62
7
  6
CONTINUOUS
 10
-255.5918654531
 20
71.9950249205
 40
20.0
100
AcDbArc
 50
315.0000071387
 51
0.0000014284
  0
ARC
  5
537
100
AcDbEntity
  8
0
100
AcDbCircle
 62
7
  6
CONTINUOUS
 10
-263.8761157468
 20
63.7107729601
 40
20.0
100
AcDbArc
 50
270.0
 51
315.0000058595
  0
ARC
  5
538
100
AcDbEntity
  8
0
100
AcDbCircle
 62
7
  6
CONTINUOUS
 10
-255.5918654531
 20
235.4265209996
 40
20.0
100
AcDbArc
 50
359.9999985716
 51
44.9999928613
  0
ARC
  5
539
100
AcDbEntity
  8
0
100
AcDbCircle
 62
7
  6
CONTINUOUS
 10
-263.8761157468
 20
243.7107729601
 40
20.0
100
AcDbArc
 50
44.9999941405
 51
90.0
  0
ARC
  5
53A
100
AcDbEntity
  8
0
100
AcDbCircle
 62
7
  6
CONTINUOUS
 10
1617.0982192506
 20
27.7107729601
 40
6.0
100
AcDbArc
 50
270.0
 51
360.0
  0
ARC
  5
53B
100
AcDbEntity
  8
0
100
AcDbCircle
 62
3
  6
CONTINUOUS
 10
1626.0982192506
 20
35.7107729601
 40
6.0
100
AcDbArc
 50
90.0
 51
180.0
  0
ARC
  5
53C
100
AcDbEntity
  8
3_ALL_AXES
100
AcDbCircle
 62
7
  6
CONTINUOUS
 10
1633.4714706744
 20
195.8059505202
 40
5.0
100
AcDbArc
 50
65.7994315019
 51
251.9547783298
  0
ARC
  5
53D
100
AcDbEntity
  8
3_ALL_AXES
100
AcDbCircle
 62
7
  6
CONTINUOUS
 10
1693.0030416904
 20
52.0840243838
 40
5.0
100
AcDbArc
 50
155.3873078491
 51
160.98892659
  0
ARC
  5
53E
100
AcDbEntity
  8
3_ALL_AXES
100
AcDbCircle
 62
7
  6
CONTINUOUS
 10
1633.4714706744
 20
111.6155953999
 40
5.0
100
AcDbArc
 50
108.0481895756
 51
294.6548369788
  0
ARC
  5
53F
100
AcDbEntity
  8
0
100
AcDbCircle
 62
7
  6
CONTINUOUS
 10
1626.0982192506
 20
35.7107729601
 40
3.0
100
AcDbArc
 50
90.0
 51
180.0
  0
ARC
  5
540
100
AcDbEntity
  8
0
100
AcDbCircle
 62
3
  6
CONTINUOUS
 10
1617.0982192506
 20
27.7107729601
 40
3.0
100
AcDbArc
 50
270.0
 51
360.0
  0
ARC
  5
541
100
AcDbEntity
  8
02___PRT_ALL_AXES
100
AcDbCircle
 62
7
  6
CONTINUOUS
 10
1681.4040454264
 20
337.9049467842
 40
9.0
100
AcDbArc
 50
139.5170048281
 51
172.807063436
  0
ARC
  5
542
100
AcDbEntity
  8
02___PRT_ALL_AXES
100
AcDbCircle
 62
7
  6
CONTINUOUS
 10
1681.4040454264
 20
337.9049467842
 40
9.0
100
AcDbArc
 50
40.3624973954
 51
88.7554523105
  0
ARC
  5
543
100
AcDbEntity
  8
0
100
AcDbCircle
 62
7
  6
CONTINUOUS
 10
1683.5982192506
 20
335.7107729601
 40
8.0
100
AcDbArc
 50
89.9999577138
 51
114.7521756993
  0
ARC
  5
544
100
AcDbEntity
  8
0
100
AcDbCircle
 62
7
  6
CONTINUOUS
 10
1552.0982192506
 20
411.7107729601
 40
3.0
100
AcDbArc
 50
180.0
 51
270.0
  0
ARC
  5
545
100
AcDbEntity
  8
0
100
AcDbCircle
 62
7
  6
CONTINUOUS
 10
1678.5982192506
 20
363.7107729601
 40
3.0
100
AcDbArc
 50
0.0
 51
90.0
  0
ARC
  5
546
100
AcDbEntity
  8
0
100
AcDbCircle
 62
7
  6
CONTINUOUS
 10
1584.5982192506
 20
363.7107729601
 40
3.0
100
AcDbArc
 50
90.0
 51
180.0
  0
ARC
  5
547
100
AcDbEntity
  8
0
100
AcDbCircle
 62
7
  6
CONTINUOUS
 10
1592.5982192506
 20
406.7107729601
 40
2.0
100
AcDbArc
 50
0.0
 51
90.0
  0
ARC
  5
548
100
AcDbEntity
  8
0
100
AcDbCircle
 62
7
  6
CONTINUOUS
 10
1670.5982192506
 20
406.7107729601
 40
2.0
100
AcDbArc
 50
90.0
 51
180.0
  0
ARC
  5
549
100
AcDbEntity
  8
0
100
AcDbCircle
 62
7
  6
CONTINUOUS
 10
1592.5982192506
 20
368.7107729601
 40
2.0
100
AcDbArc
 50
270.0
 51
360.0
  0
ARC
  5
54A
100
AcDbEntity
  8
0
100
AcDbCircle
 62
7
  6
CONTINUOUS
 10
1670.5982192506
 20
368.7107729601
 40
2.0
100
AcDbArc
 50
180.0
 51
270.0
  0
ARC
  5
54B
100
AcDbEntity
  8
3_ALL_AXES
100
AcDbCircle
 62
7
  6
CONTINUOUS
 10
1777.1933968108
 20
52.0840243838
 40
5.0
100
AcDbArc
 50
19.01107341
 51
24.6126921509
  0
ARC
  5
54C
100
AcDbEntity
  8
0
100
AcDbCircle
 62
7
  6
CONTINUOUS
 10
1735.0982192506
 20
153.7107729601
 40
131.0
100
AcDbArc
 50
241.4629418648
 51
298.5373724403
  0
ARC
  5
54D
100
AcDbEntity
  8
0
100
AcDbCircle
 62
7
  6
CONTINUOUS
 10
1735.0982192506
 20
153.7107729601
 40
131.0
100
AcDbArc
 50
310.1809711007
 51
360.0
  0
ARC
  5
54E
100
AcDbEntity
  8
0
100
AcDbCircle
 62
7
  6
CONTINUOUS
 10
1735.0982192506
 20
153.7107729601
 40
131.0
100
AcDbArc
 50
180.0
 51
229.8190288993
  0
ARC
  5
54F
100
AcDbEntity
  8
0
100
AcDbCircle
 62
7
  6
CONTINUOUS
 10
1735.0982192506
 20
217.0821507814
 40
131.0
100
AcDbArc
 50
0.0
 51
74.6789357641
  0
ARC
  5
550
100
AcDbEntity
  8
0
100
AcDbCircle
 62
7
  6
CONTINUOUS
 10
1735.0982192506
 20
153.7107729601
 40
122.5
100
AcDbArc
 50
305.2288548349
 51
60.6722915324
  0
ARC
  5
551
100
AcDbEntity
  8
0
100
AcDbCircle
 62
7
  6
CONTINUOUS
 10
1735.0982192506
 20
153.7107729601
 40
122.5
100
AcDbArc
 50
249.9145207383
 51
290.085479298
  0
ARC
  5
552
100
AcDbEntity
  8
0
100
AcDbCircle
 62
7
  6
CONTINUOUS
 10
1735.0982192506
 20
153.7107729601
 40
122.5
100
AcDbArc
 50
119.327708481
 51
234.7711451581
  0
ARC
  5
553
100
AcDbEntity
  8
0
100
AcDbCircle
 62
7
  6
CONTINUOUS
 10
1735.0982192506
 20
153.7107729601
 40
122.2320508076
100
AcDbArc
 50
305.0523830362
 51
60.6002862666
  0
ARC
  5
554
100
AcDbEntity
  8
0
100
AcDbCircle
 62
7
  6
CONTINUOUS
 10
1735.0982192506
 20
153.7107729601
 40
122.2320508076
100
AcDbArc
 50
119.3997137334
 51
234.9476169638
  0
ARC
  5
555
100
AcDbEntity
  8
0
100
AcDbCircle
 62
7
  6
CONTINUOUS
 10
1735.0982192506
 20
153.7107729601
 40
122.2320508076
100
AcDbArc
 50
250.2794615214
 51
289.7205384786
  0
ARC
  5
556
100
AcDbEntity
  8
0
100
AcDbCircle
 62
9
  6
CONTINUOUS
 10
1735.0982192506
 20
217.0821507814
 40
116.0
100
AcDbArc
 50
0.0
 51
74.220700488
  0
CIRCLE
  5
557
100
AcDbEntity
  8
0
100
AcDbCircle
 62
7
  6
CONTINUOUS
 10
1735.0982192506
 20
153.7107729601
 40
110.0
  0
CIRCLE
  5
558
100
AcDbEntity
  8
0
100
AcDbCircle
 62
9
  6
CONTINUOUS
 10
1735.0982192506
 20
153.7107729601
 40
104.1421341824
  0
CIRCLE
  5
559
100
AcDbEntity
  8
0
100
AcDbCircle
 62
9
  6
CONTINUOUS
 10
1735.0982192506
 20
153.7107729601
 40
95.8578819024
  0
CIRCLE
  5
55A
100
AcDbEntity
  8
0
100
AcDbCircle
 62
9
  6
CONTINUOUS
 10
1735.0982192506
 20
153.7107729601
 40
81.7157475513
  0
ARC
  5
55B
100
AcDbEntity
  8
0
100
AcDbCircle
 62
7
  6
CONTINUOUS
 10
1853.0982192506
 20
27.7107729601
 40
6.0
100
AcDbArc
 50
180.0
 51
270.0
  0
ARC
  5
55C
100
AcDbEntity
  8
0
100
AcDbCircle
 62
3
  6
CONTINUOUS
 10
1844.0982192506
 20
35.7107729601
 40
6.0
100
AcDbArc
 50
0.0
 51
90.0
  0
ARC
  5
55D
100
AcDbEntity
  8
3_ALL_AXES
100
AcDbCircle
 62
7
  6
CONTINUOUS
 10
1836.7249678268
 20
111.6155953999
 40
5.0
100
AcDbArc
 50
245.799431501
 51
71.9547783298
  0
ARC
  5
55E
100
AcDbEntity
  8
0
100
AcDbCircle
 62
7
  6
CONTINUOUS
 10
1844.0982192506
 20
35.7107729601
 40
3.0
100
AcDbArc
 50
0.0
 51
90.0
  0
ARC
  5
55F
100
AcDbEntity
  8
0
100
AcDbCircle
 62
3
  6
CONTINUOUS
 10
1853.0982192506
 20
27.7107729601
 40
3.0
100
AcDbArc
 50
180.0
 51
270.0
  0
ARC
  5
560
100
AcDbEntity
  8
3_ALL_AXES
100
AcDbCircle
 62
7
  6
CONTINUOUS
 10
1836.7249678268
 20
195.8059505202
 40
5.0
100
AcDbArc
 50
288.0481895759
 51
114.6548369795
  0
ARC
  5
561
100
AcDbEntity
  8
0
100
AcDbCircle
 62
7
  6
CONTINUOUS
 10
1735.0982192506
 20
224.0113996404
 40
131.0
100
AcDbArc
 50
114.7524698067
 51
180.0
  0
ARC
  5
562
100
AcDbEntity
  8
0
100
AcDbCircle
 62
9
  6
CONTINUOUS
 10
1735.0982192506
 20
224.0113996404
 40
116.0
100
AcDbArc
 50
115.5004949974
 51
180.0
  0
ARC
  5
563
100
AcDbEntity
  8
0
100
AcDbCircle
 62
7
  6
CONTINUOUS
 10
1725.5982192506
 20
293.7107729601
 40
82.5
100
AcDbArc
 50
27.0567997425
 51
37.9205991522
  0
ARC
  5
564
100
AcDbEntity
  8
0
100
AcDbCircle
 62
7
  6
CONTINUOUS
 10
1725.5982192506
 20
293.7107729601
 40
82.5
100
AcDbArc
 50
46.676955154
 51
122.1547762261
  0
ARC
  5
565
100
AcDbEntity
  8
0
100
AcDbCircle
 62
7
  6
CONTINUOUS
 10
1725.5982192506
 20
293.7107729601
 40
82.5
100
AcDbArc
 50
142.6261492111
 51
143.8872512764
  0
ARC
  5
566
100
AcDbEntity
  8
0
100
AcDbCircle
 62
9
  6
CONTINUOUS
 10
1725.5982192506
 20
293.7107729601
 40
79.5
100
AcDbArc
 50
30.4506104884
 51
34.9639239416
  0
ARC
  5
567
100
AcDbEntity
  8
0
100
AcDbCircle
 62
9
  6
CONTINUOUS
 10
1725.5982192506
 20
293.7107729601
 40
79.5
100
AcDbArc
 50
49.1242855331
 51
123.6614168189
  0
ARC
  5
568
100
AcDbEntity
  8
0
100
AcDbCircle
 62
9
  6
CONTINUOUS
 10
1725.5982192506
 20
293.7107729601
 40
79.5
100
AcDbArc
 50
141.0207009821
 51
146.9142691394
  0
ARC
  5
569
100
AcDbEntity
  8
0
100
AcDbCircle
 62
9
  6
CONTINUOUS
 10
1767.3180977041
 20
338.7107506851
 40
9.0000232829
100
AcDbArc
 50
72.2910167731
 51
89.972883393
  0
ARC
  5
56A
100
AcDbEntity
  8
0
100
AcDbCircle
 62
7
  6
CONTINUOUS
 10
1767.5982192506
 20
335.7107729601
 40
8.0
100
AcDbArc
 50
74.679108592
 51
90.0000255846
  0
ARC
  5
56B
100
AcDbEntity
  8
0
100
AcDbCircle
 62
7
  6
CONTINUOUS
 10
1736.5982192506
 20
347.7107729601
 40
4.0
100
AcDbArc
 50
270.0
 51
360.0
  0
ARC
  5
56C
100
AcDbEntity
  8
0
100
AcDbCircle
 62
7
  6
CONTINUOUS
 10
1794.5981217516
 20
338.2628686706
 40
3.9999865519
100
AcDbArc
 50
180.0009685882
 51
243.8505276224
  0
ARC
  5
56D
100
AcDbEntity
  8
0
100
AcDbCircle
 62
7
  6
CONTINUOUS
 10
1711.0982192506
 20
411.7107729601
 40
3.0
100
AcDbArc
 50
270.0
 51
360.0
  0
ARC
  5
56E
100
AcDbEntity
  8
0
100
AcDbCircle
 62
7
  6
CONTINUOUS
 10
641.3358265706
 20
-427.8335448429
 40
20.0
100
AcDbArc
 50
224.9999942359
 51
270.0
  0
ARC
  5
56F
100
AcDbEntity
  8
0
100
AcDbCircle
 62
7
  6
CONTINUOUS
 10
633.0515762769
 20
-419.5492928824
 40
20.0
100
AcDbArc
 50
180.0
 51
224.9999942359
  0
ARC
  5
570
100
AcDbEntity
  8
0
100
AcDbCircle
 62
3
  6
CONTINUOUS
 10
876.5515762769
 20
-467.8335448429
 40
15.0
100
AcDbArc
 50
270.0
 51
360.0
  0
ARC
  5
571
100
AcDbEntity
  8
0
100
AcDbCircle
 62
3
  6
CONTINUOUS
 10
721.5515762769
 20
-467.8335448429
 40
15.0
100
AcDbArc
 50
180.0
 51
270.0
  0
ARC
  5
572
100
AcDbEntity
  8
02___PRT_ALL_AXES
100
AcDbCircle
 62
3
  6
CONTINUOUS
 10
869.0515762769
 20
-469.3335448429
 40
6.0
100
AcDbArc
 50
180.0
 51
360.0
  0
ARC
  5
573
100
AcDbEntity
  8
02___PRT_ALL_AXES
100
AcDbCircle
 62
3
  6
CONTINUOUS
 10
869.0515762769
 20
-466.3335448429
 40
6.0
100
AcDbArc
 50
0.0
 51
180.0
  0
ARC
  5
574
100
AcDbEntity
  8
02___PRT_ALL_AXES
100
AcDbCircle
 62
3
  6
CONTINUOUS
 10
729.0515762769
 20
-469.3335448429
 40
6.0
100
AcDbArc
 50
180.0
 51
360.0
  0
ARC
  5
575
100
AcDbEntity
  8
02___PRT_ALL_AXES
100
AcDbCircle
 62
3
  6
CONTINUOUS
 10
729.0515762769
 20
-466.3335448429
 40
6.0
100
AcDbArc
 50
0.0
 51
180.0
  0
ARC
  5
576
100
AcDbEntity
  8
0
100
AcDbCircle
 62
9
  6
CONTINUOUS
 10
1028.0361638603
 20
-4714.5606209733
 40
4390.7822250672
100
AcDbArc
 50
90.3782256818
 51
90.6131185312
  0
ARC
  5
577
100
AcDbEntity
  8
0
100
AcDbCircle
 62
7
  6
CONTINUOUS
 10
1029.5515762769
 20
-453.8335448429
 40
15.0
100
AcDbArc
 50
180.0
 51
270.0
  0
ARC
  5
578
100
AcDbEntity
  8
0
100
AcDbCircle
 62
7
  6
CONTINUOUS
 10
941.0515762769
 20
-399.8335448429
 40
3.0
100
AcDbArc
 50
228.1896851042
 51
270.0
  0
ARC
  5
579
100
AcDbEntity
  8
0
100
AcDbCircle
 62
7
  6
CONTINUOUS
 10
951.0515762769
 20
-400.8335448429
 40
2.0
100
AcDbArc
 50
270.0
 51
360.0
  0
ARC
  5
57A
100
AcDbEntity
  8
0
100
AcDbCircle
 62
7
  6
CONTINUOUS
 10
1006.0515762769
 20
-458.3335448429
 40
2.0
100
AcDbArc
 50
240.0
 51
270.0
  0
ARC
  5
57B
100
AcDbEntity
  8
0
100
AcDbCircle
 62
7
  6
CONTINUOUS
 10
1002.0515762769
 20
-404.8335448429
 40
2.0
100
AcDbArc
 50
0.0
 51
90.0
  0
ARC
  5
57C
100
AcDbEntity
  8
0
100
AcDbCircle
 62
9
  6
CONTINUOUS
 10
976.0484818426
 20
-380.0891121516
 40
9.9223031864
100
AcDbArc
 50
59.7199392021
 51
89.9821313638
  0
ARC
  5
57D
100
AcDbEntity
  8
0
100
AcDbCircle
 62
9
  6
CONTINUOUS
 10
976.0464264316
 20
-380.0096753504
 40
7.8832757906
100
AcDbArc
 50
59.465536463
 51
89.9625708365
  0
ARC
  5
57E
100
AcDbEntity
  8
0
100
AcDbCircle
 62
2
  6
CONTINUOUS
 10
958.0515762769
 20
-337.8335448429
 40
6.6
100
AcDbArc
 50
255.0
 51
195.0
  0
CIRCLE
  5
57F
100
AcDbEntity
  8
3_ALL_AXES
100
AcDbCircle
 62
7
  6
CONTINUOUS
 10
958.0515762769
 20
-337.8335448429
 40
5.875
  0
ARC
  5
580
100
AcDbEntity
  8
0
100
AcDbCircle
 62
9
  6
CONTINUOUS
 10
955.0515762769
 20
-352.3335448429
 40
4.0
100
AcDbArc
 50
90.0
 51
180.0
  0
CIRCLE
  5
581
100
AcDbEntity
  8
3_ALL_AXES
100
AcDbCircle
 62
7
  6
CONTINUOUS
 10
958.0515762769
 20
-337.8335448429
 40
3.0
  0
ARC
  5
582
100
AcDbEntity
  8
0
100
AcDbCircle
 62
7
  6
CONTINUOUS
 10
1002.0515762769
 20
-352.3335448429
 40
2.0
100
AcDbArc
 50
0.0
 51
90.0
  0
ARC
  5
583
100
AcDbEntity
  8
0
100
AcDbCircle
 62
7
  6
CONTINUOUS
 10
955.0515762769
 20
-352.3335448429
 40
2.0
100
AcDbArc
 50
90.0
 51
180.0
  0
ARC
  5
584
100
AcDbEntity
  8
0
100
AcDbCircle
 62
9
  6
CONTINUOUS
 10
1065.5515762769
 20
-368.3335448429
 40
29.0
100
AcDbArc
 50
356.0454278779
 51
183.954572122
  0
CIRCLE
  5
585
100
AcDbEntity
  8
02___PRT_ALL_AXES
100
AcDbCircle
 62
7
  6
CONTINUOUS
 10
1065.5515762769
 20
-368.3335448429
 40
25.0
  0
ARC
  5
586
100
AcDbEntity
  8
0
100
AcDbCircle
 62
9
  6
CONTINUOUS
 10
1081.2146741323
 20
-368.9441064086
 40
13.3404085498
100
AcDbArc
 50
344.7753029983
 51
354.0216527138
  0
ARC
  5
587
100
AcDbEntity
  8
0
100
AcDbCircle
 62
9
  6
CONTINUOUS
 10
1049.8182960384
 20
-368.9572426144
 40
13.2692409435
100
AcDbArc
 50
185.9534971829
 51
195.2495471045
  0
ARC
  5
588
100
AcDbEntity
  8
0
100
AcDbCircle
 62
7
  6
CONTINUOUS
 10
1156.5515762769
 20
-453.8335448429
 40
15.0
100
AcDbArc
 50
270.0
 51
360.0
  0
ARC
  5
589
100
AcDbEntity
  8
0
100
AcDbCircle
 62
7
  6
CONTINUOUS
 10
1239.5515762769
 20
-407.8335448429
 40
3.0
100
AcDbArc
 50
180.0
 51
270.0
  0
ARC
  5
58A
100
AcDbEntity
  8
0
100
AcDbCircle
 62
7
  6
CONTINUOUS
 10
1175.5515762769
 20
-397.3334417215
 40
3.9999604567
100
AcDbArc
 50
90.0
 51
180.0014771063
  0
ARC
  5
58B
100
AcDbEntity
  8
0
100
AcDbCircle
 62
7
  6
CONTINUOUS
 10
1191.5515762769
 20
-375.3335448429
 40
3.0
100
AcDbArc
 50
270.0
 51
360.0
  0
ARC
  5
58C
100
AcDbEntity
  8
0
100
AcDbCircle
 62
7
  6
CONTINUOUS
 10
1234.5515762769
 20
-367.3335448429
 40
2.0
100
AcDbArc
 50
0.0
 51
90.0
  0
ARC
  5
58D
100
AcDbEntity
  8
0
100
AcDbCircle
 62
7
  6
CONTINUOUS
 10
1196.5515762769
 20
-367.3335448429
 40
2.0
100
AcDbArc
 50
90.0
 51
180.0
  0
ARC
  5
58E
100
AcDbEntity
  8
0
100
AcDbCircle
 62
7
  6
CONTINUOUS
 10
641.3358265706
 20
-247.8335448429
 40
20.0
100
AcDbArc
 50
90.0
 51
135.0000057641
  0
ARC
  5
58F
100
AcDbEntity
  8
0
100
AcDbCircle
 62
7
  6
CONTINUOUS
 10
633.0515762769
 20
-256.1177968034
 40
20.0
100
AcDbArc
 50
135.0000057641
 51
180.0
  0
ARC
  5
590
100
AcDbEntity
  8
0
100
AcDbCircle
 62
3
  6
CONTINUOUS
 10
876.5515762769
 20
-207.8335448429
 40
15.0
100
AcDbArc
 50
0.0
 51
90.0
  0
ARC
  5
591
100
AcDbEntity
  8
0
100
AcDbCircle
 62
3
  6
CONTINUOUS
 10
721.5515762769
 20
-207.8335448429
 40
15.0
100
AcDbArc
 50
90.0
 51
180.0
  0
ARC
  5
592
100
AcDbEntity
  8
02___PRT_ALL_AXES
100
AcDbCircle
 62
3
  6
CONTINUOUS
 10
729.0515762769
 20
-206.3335448429
 40
6.0
100
AcDbArc
 50
0.0
 51
180.0
  0
ARC
  5
593
100
AcDbEntity
  8
02___PRT_ALL_AXES
100
AcDbCircle
 62
3
  6
CONTINUOUS
 10
729.0515762769
 20
-209.3335448429
 40
6.0
100
AcDbArc
 50
180.0
 51
360.0
  0
ARC
  5
594
100
AcDbEntity
  8
02___PRT_ALL_AXES
100
AcDbCircle
 62
3
  6
CONTINUOUS
 10
869.0515762769
 20
-206.3335448429
 40
6.0
100
AcDbArc
 50
0.0
 51
180.0
  0
ARC
  5
595
100
AcDbEntity
  8
02___PRT_ALL_AXES
100
AcDbCircle
 62
3
  6
CONTINUOUS
 10
869.0515762769
 20
-209.3335448429
 40
6.0
100
AcDbArc
 50
180.0
 51
360.0
  0
ARC
  5
596
100
AcDbEntity
  8
0
100
AcDbCircle
 62
9
  6
CONTINUOUS
 10
976.0484818048
 20
-295.5779773944
 40
9.9223033264
100
AcDbArc
 50
270.0178688547
 51
300.2800605794
  0
ARC
  5
597
100
AcDbEntity
  8
02___PRT_ALL_AXES
100
AcDbCircle
 62
7
  6
CONTINUOUS
 10
1022.7716160151
 20
-277.1135051047
 40
9.0
100
AcDbArc
 50
308.6206297916
 51
141.3793702084
  0
ARC
  5
598
100
AcDbEntity
  8
02___PRT_ALL_AXES
100
AcDbCircle
 62
7
  6
CONTINUOUS
 10
1021.3574024527
 20
-278.5277186671
 40
9.0
100
AcDbArc
 50
128.6206297916
 51
321.3793702084
  0
ARC
  5
599
100
AcDbEntity
  8
0
100
AcDbCircle
 62
7
  6
CONTINUOUS
 10
1023.5515762769
 20
-276.3335448429
 40
8.0
100
AcDbArc
 50
180.0
 51
270.0
  0
ARC
  5
59A
100
AcDbEntity
  8
0
100
AcDbCircle
 62
9
  6
CONTINUOUS
 10
976.0464264051
 20
-295.6574142383
 40
7.8832758878
100
AcDbArc
 50
270.0374293562
 51
300.5344633444
  0
ARC
  5
59B
100
AcDbEntity
  8
0
100
AcDbCircle
 62
9
  6
CONTINUOUS
 10
1023.5515762769
 20
-276.3335448429
 40
5.0
100
AcDbArc
 50
180.0
 51
270.0
  0
ARC
  5
59C
100
AcDbEntity
  8
0
100
AcDbCircle
 62
9
  6
CONTINUOUS
 10
955.0515762769
 20
-323.3335448429
 40
4.0
100
AcDbArc
 50
180.0
 51
270.0
  0
ARC
  5
59D
100
AcDbEntity
  8
0
100
AcDbCircle
 62
7
  6
CONTINUOUS
 10
941.0515762769
 20
-275.8335448429
 40
3.0
100
AcDbArc
 50
90.0
 51
131.8103148958
  0
ARC
  5
59E
100
AcDbEntity
  8
0
100
AcDbCircle
 62
7
  6
CONTINUOUS
 10
955.0515762769
 20
-323.3335448429
 40
2.0
100
AcDbArc
 50
180.0
 51
270.0
  0
ARC
  5
59F
100
AcDbEntity
  8
0
100
AcDbCircle
 62
7
  6
CONTINUOUS
 10
1002.0515762769
 20
-323.3335448429
 40
2.0
100
AcDbArc
 50
270.0
 51
360.0
  0
ARC
  5
5A0
100
AcDbEntity
  8
0
100
AcDbCircle
 62
7
  6
CONTINUOUS
 10
951.0515762769
 20
-274.8335448429
 40
2.0
100
AcDbArc
 50
0.0
 51
90.0
  0
CIRCLE
  5
5A1
100
AcDbEntity
  8
02___PRT_ALL_AXES
100
AcDbCircle
 62
7
  6
CONTINUOUS
 10
1065.5515762769
 20
-234.3335448429
 40
82.5
  0
CIRCLE
  5
5A2
100
AcDbEntity
  8
0
100
AcDbCircle
 62
7
  6
CONTINUOUS
 10
1065.5515762769
 20
-234.3335448429
 40
30.0
  0
ARC
  5
5A3
100
AcDbEntity
  8
02___PRT_ALL_AXES
100
AcDbCircle
 62
7
  6
CONTINUOUS
 10
1022.7716160151
 20
-191.5535845811
 40
9.0
100
AcDbArc
 50
218.6206297916
 51
51.3793702084
  0
ARC
  5
5A4
100
AcDbEntity
  8
02___PRT_ALL_AXES
100
AcDbCircle
 62
7
  6
CONTINUOUS
 10
1021.3574024527
 20
-190.1393710188
 40
9.0
100
AcDbArc
 50
38.6206297916
 51
231.3793702084
  0
ARC
  5
5A5
100
AcDbEntity
  8
0
100
AcDbCircle
 62
7
  6
CONTINUOUS
 10
1023.5515762769
 20
-192.3335448429
 40
8.0
100
AcDbArc
 50
90.0
 51
180.0
  0
ARC
  5
5A6
100
AcDbEntity
  8
0
100
AcDbCircle
 62
9
  6
CONTINUOUS
 10
1023.5515762769
 20
-192.3335448429
 40
5.0
100
AcDbArc
 50
90.0
 51
180.0
  0
ARC
  5
5A7
100
AcDbEntity
  8
02___PRT_ALL_AXES
100
AcDbCircle
 62
7
  6
CONTINUOUS
 10
1108.3315365387
 20
-277.1135051047
 40
9.0
100
AcDbArc
 50
38.6206297916
 51
231.3793702084
  0
ARC
  5
5A8
100
AcDbEntity
  8
02___PRT_ALL_AXES
100
AcDbCircle
 62
7
  6
CONTINUOUS
 10
1109.745750101
 20
-278.5277186671
 40
9.0
100
AcDbArc
 50
218.6206297916
 51
51.3793702084
  0
ARC
  5
5A9
100
AcDbEntity
  8
0
100
AcDbCircle
 62
7
  6
CONTINUOUS
 10
1107.5515762769
 20
-276.3335448429
 40
8.0
100
AcDbArc
 50
270.0
 51
360.0
  0
ARC
  5
5AA
100
AcDbEntity
  8
0
100
AcDbCircle
 62
9
  6
CONTINUOUS
 10
1107.5515762769
 20
-276.3335448429
 40
5.0
100
AcDbArc
 50
270.0
 51
360.0
  0
ARC
  5
5AB
100
AcDbEntity
  8
0
100
AcDbCircle
 62
7
  6
CONTINUOUS
 10
1175.5515762769
 20
-259.3336479644
 40
3.9999604567
100
AcDbArc
 50
179.9985228937
 51
270.0
  0
ARC
  5
5AC
100
AcDbEntity
  8
0
100
AcDbCircle
 62
7
  6
CONTINUOUS
 10
1191.5515762769
 20
-281.3335448429
 40
3.0
100
AcDbArc
 50
0.0
 51
90.0
  0
ARC
  5
5AD
100
AcDbEntity
  8
0
100
AcDbCircle
 62
7
  6
CONTINUOUS
 10
1234.5515762769
 20
-289.3335448429
 40
2.0
100
AcDbArc
 50
270.0
 51
360.0
  0
ARC
  5
5AE
100
AcDbEntity
  8
0
100
AcDbCircle
 62
7
  6
CONTINUOUS
 10
1196.5515762769
 20
-289.3335448429
 40
2.0
100
AcDbArc
 50
180.0
 51
270.0
  0
ARC
  5
5AF
100
AcDbEntity
  8
0
100
AcDbCircle
 62
7
  6
CONTINUOUS
 10
1156.5515762769
 20
-221.8335448429
 40
15.0
100
AcDbArc
 50
0.0
 51
90.0
  0
ARC
  5
5B0
100
AcDbEntity
  8
02___PRT_ALL_AXES
100
AcDbCircle
 62
7
  6
CONTINUOUS
 10
1108.3315365387
 20
-191.5535845811
 40
9.0
100
AcDbArc
 50
128.6206297916
 51
321.3793702084
  0
ARC
  5
5B1
100
AcDbEntity
  8
02___PRT_ALL_AXES
100
AcDbCircle
 62
7
  6
CONTINUOUS
 10
1109.745750101
 20
-190.1393710188
 40
9.0
100
AcDbArc
 50
308.6206297916
 51
141.3793702084
  0
ARC
  5
5B2
100
AcDbEntity
  8
0
100
AcDbCircle
 62
7
  6
CONTINUOUS
 10
1107.5515762769
 20
-192.3335448429
 40
8.0
100
AcDbArc
 50
0.0
 51
90.0
  0
ARC
  5
5B3
100
AcDbEntity
  8
0
100
AcDbCircle
 62
9
  6
CONTINUOUS
 10
1107.5515762769
 20
-192.3335448429
 40
5.0
100
AcDbArc
 50
0.0
 51
90.0
  0
ARC
  5
5B4
100
AcDbEntity
  8
0
100
AcDbCircle
 62
7
  6
CONTINUOUS
 10
1239.5515762769
 20
-248.8335448429
 40
3.0
100
AcDbArc
 50
90.0
 51
180.0
  0
ARC
  5
5B5
100
AcDbEntity
  8
0
100
AcDbCircle
 62
9
  6
CONTINUOUS
 10
1023.5354078168
 20
3518.6546692657
 40
3870.5251345803
100
AcDbArc
 50
269.3710948671
 51
269.6375609199
  0
ARC
  5
5B6
100
AcDbEntity
  8
0
100
AcDbCircle
 62
9
  6
CONTINUOUS
 10
4569.1415839716
 20
-6414.3388041058
 40
7085.819555801
100
AcDbArc
 50
120.2541047765
 51
120.4227467712
  0
ARC
  5
5B7
100
AcDbEntity
  8
0
100
AcDbCircle
 62
9
  6
CONTINUOUS
 10
4122.9327193561
 20
-5645.2415100168
 40
6198.640985587
100
AcDbArc
 50
120.2731915423
 51
120.4660318498
  0
ARC
  5
5B8
100
AcDbEntity
  8
0
100
AcDbCircle
 62
9
  6
CONTINUOUS
 10
4569.1419457315
 20
5738.6723325457
 40
7085.8202720053
100
AcDbArc
 50
239.5772532373
 51
239.745895215
  0
ARC
  5
5B9
100
AcDbEntity
  8
0
100
AcDbCircle
 62
9
  6
CONTINUOUS
 10
4122.9333725936
 20
4969.5755351015
 40
6198.6422776505
100
AcDbArc
 50
239.5339681703
 51
239.7268084376
  0
SPLINE
  5
5BA
100
AcDbEntity
  8
0
100
AcDbSpline
 62
9
  6
CONTINUOUS
 70
0
 71
3
 72
15
 73
11
 74
0
 42
0.0000001
 43
0.0000001
 44
0.0000000001
 40
0.0
 40
0.0
 40
0.0
 40
0.0
 40
0.1273610749
 40
0.2543284507
 40
0.3806035175
 40
0.5059878412
 40
0.6304449436
 40
0.7540927122
 40
0.8771647776
 40
1.0
 40
1.0
 40
1.0
 40
1.0
 10
956.0515762769
 20
123.6759258518
 30
0.0
 10
955.8545913964
 20
123.6759103037
 30
0.0
 10
955.4601889045
 20
123.6381796999
 30
0.0
 10
954.8923192202
 20
123.4704143422
 30
0.0
 10
954.3695641611
 20
123.1983353459
 30
0.0
 10
953.9123652494
 20
122.8326670785
 30
0.0
 10
953.538007329
 20
122.3877901274
 30
0.0
 10
953.2604874652
 20
121.8808373405
 30
0.0
 10
953.0898984787
 20
121.3314759481
 30
0.0
 10
953.0515785295
 20
120.9500370835
 30
0.0
 10
953.0515762769
 20
120.7600521789
 30
0.0
  0
SPLINE
  5
5BB
100
AcDbEntity
  8
0
100
AcDbSpline
 62
9
  6
CONTINUOUS
 70
0
 71
3
 72
11
 73
7
 74
0
 42
0.0000001
 43
0.0000001
 44
0.0000000001
 40
0.0
 40
0.0
 40
0.0
 40
0.0
 40
0.2499484495
 40
0.4999444084
 40
0.7499683151
 40
1.0
 40
1.0
 40
1.0
 40
1.0
 10
998.0515762769
 20
197.8544331946
 30
0.0
 10
998.665301161
 20
198.2274257519
 30
0.0
 10
999.7963902666
 20
199.1454108971
 30
0.0
 10
1001.0741964445
 20
200.9088312285
 30
0.0
 10
1001.8707484842
 20
202.9349098763
 30
0.0
 10
1002.051552924
 20
204.3780354254
 30
0.0
 10
1002.0515762769
 20
205.0964540075
 30
0.0
  0
SPLINE
  5
5BC
100
AcDbEntity
  8
0
100
AcDbSpline
 62
9
  6
CONTINUOUS
 70
0
 71
3
 72
9
 73
5
 74
0
 42
0.0000001
 43
0.0000001
 44
0.0000000001
 40
0.0
 40
0.0
 40
0.0
 40
0.0
 40
0.4999297083
 40
1.0
 40
1.0
 40
1.0
 40
1.0
 10
976.0515762769
 20
185.5659138324
 30
0.0
 10
976.7532333655
 20
185.5659376897
 30
0.0
 10
978.1640877671
 20
185.7720972901
 30
0.0
 10
979.4578771311
 20
186.3655922227
 30
0.0
 10
980.0515762769
 20
186.7399195157
 30
0.0
  0
SPLINE
  5
5BD
100
AcDbEntity
  8
0
100
AcDbSpline
 62
9
  6
CONTINUOUS
 70
0
 71
3
 72
11
 73
7
 74
0
 42
0.0000001
 43
0.0000001
 44
0.0000000001
 40
0.0
 40
0.0
 40
0.0
 40
0.0
 40
0.2503280518
 40
0.5005124612
 40
0.7504043633
 40
1.0
 40
1.0
 40
1.0
 40
1.0
 10
955.0515762769
 20
186.6614937412
 30
0.0
 10
955.0515838538
 20
186.5250053526
 30
0.0
 10
955.0989805289
 20
186.2497434403
 30
0.0
 10
955.3083856259
 20
185.8878707171
 30
0.0
 10
955.6395650502
 20
185.629700129
 30
0.0
 10
955.9154872291
 20
185.5659247216
 30
0.0
 10
956.0515762769
 20
185.5659138324
 30
0.0
  0
SPLINE
  5
5BE
100
AcDbEntity
  8
0
100
AcDbSpline
 62
9
  6
CONTINUOUS
 70
0
 71
3
 72
11
 73
7
 74
0
 42
0.0000001
 43
0.0000001
 44
0.0000000001
 40
0.0
 40
0.0
 40
0.0
 40
0.0
 40
0.2495956367
 40
0.4994875388
 40
0.7496719482
 40
1.0
 40
1.0
 40
1.0
 40
1.0
 10
956.0515762769
 20
121.8556320877
 30
0.0
 10
955.9154872291
 20
121.8556211964
 30
0.0
 10
955.6395650503
 20
121.7918457918
 30
0.0
 10
955.3083856259
 20
121.5336752029
 30
0.0
 10
955.0989805287
 20
121.1718024797
 30
0.0
 10
955.051583855
 20
120.8965405675
 30
0.0
 10
955.0515762769
 20
120.7600521789
 30
0.0
  0
SPLINE
  5
5BF
100
AcDbEntity
  8
0
100
AcDbSpline
 62
9
  6
CONTINUOUS
 70
0
 71
3
 72
9
 73
5
 74
0
 42
0.0000001
 43
0.0000001
 44
0.0000000001
 40
0.0
 40
0.0
 40
0.0
 40
0.0
 40
0.5000702917
 40
1.0
 40
1.0
 40
1.0
 40
1.0
 10
980.0515762769
 20
120.6816264044
 30
0.0
 10
979.4578771223
 20
121.0559536836
 30
0.0
 10
978.1640877719
 20
121.6494486413
 30
0.0
 10
976.7532333656
 20
121.8556082247
 30
0.0
 10
976.0515762769
 20
121.8556320877
 30
0.0
  0
SPLINE
  5
5C0
100
AcDbEntity
  8
0
100
AcDbSpline
 62
9
  6
CONTINUOUS
 70
0
 71
3
 72
11
 73
7
 74
0
 42
0.0000001
 43
0.0000001
 44
0.0000000001
 40
0.0
 40
0.0
 40
0.0
 40
0.0
 40
0.2500316849
 40
0.5000555915
 40
0.7500515505
 40
1.0
 40
1.0
 40
1.0
 40
1.0
 10
1002.0515762769
 20
102.3250919126
 30
0.0
 10
1002.0515529308
 20
103.0435104947
 30
0.0
 10
1001.8707484816
 20
104.4866360449
 30
0.0
 10
1001.0741964426
 20
106.5127146872
 30
0.0
 10
999.7963902771
 20
108.2761350392
 30
0.0
 10
998.6653011424
 20
109.1941201373
 30
0.0
 10
998.0515762769
 20
109.5671127255
 30
0.0
  0
SPLINE
  5
5C1
100
AcDbEntity
  8
0
100
AcDbSpline
 62
9
  6
CONTINUOUS
 70
0
 71
3
 72
9
 73
5
 74
0
 42
0.0000001
 43
0.0000001
 44
0.0000000001
 40
0.0
 40
0.0
 40
0.0
 40
0.0
 40
0.2501495915
 40
1.0
 40
1.0
 40
1.0
 40
1.0
 10
999.0515762769
 20
160.4498326807
 30
0.0
 10
997.5506733894
 20
160.4449661885
 30
0.0
 10
991.5506559828
 20
160.424406348
 30
0.0
 10
985.5506532752
 20
160.3988595514
 30
0.0
 10
981.0515762769
 20
160.3746556402
 30
0.0
  0
SPLINE
  5
5C2
100
AcDbEntity
  8
0
100
AcDbSpline
 62
9
  6
CONTINUOUS
 70
0
 71
3
 72
17
 73
13
 74
0
 42
0.0000001
 43
0.0000001
 44
0.0000000001
 40
0.0
 40
0.0
 40
0.0
 40
0.0
 40
0.0310807797
 40
0.0573329642
 40
0.09169123
 40
0.1341865655
 40
0.1846003021
 40
0.2425579884
 40
0.307582897
 40
0.4564509892
 40
0.6258009954
 40
1.0
 40
1.0
 40
1.0
 40
1.0
 10
953.0515762769
 20
146.7107729601
 30
0.0
 10
953.0515857578
 20
146.7425990446
 30
0.0
 10
953.105490331
 20
146.7896627234
 30
0.0
 10
953.1866231948
 20
146.8287575681
 30
0.0
 10
953.2873194656
 20
146.8652535802
 30
0.0
 10
953.4126460429
 20
146.8994433521
 30
0.0
 10
953.56374058
 20
146.9326536144
 30
0.0
 10
953.7385117777
 20
146.9638621355
 30
0.0
 10
954.0139706028
 20
147.0043890788
 30
0.0
 10
954.404271882
 20
147.04648523
 30
0.0
 10
955.1115930487
 20
147.0968384788
 30
0.0
 10
955.6684041102
 20
147.1107792303
 30
0.0
 10
956.0515762769
 20
147.1107729601
 30
0.0
  0
SPLINE
  5
5C3
100
AcDbEntity
  8
0
100
AcDbSpline
 62
9
  6
CONTINUOUS
 70
0
 71
3
 72
21
 73
17
 74
0
 42
0.0000001
 43
0.0000001
 44
0.0000000001
 40
0.0
 40
0.0
 40
0.0
 40
0.0
 40
0.0020200828
 40
0.0056525019
 40
0.0188751005
 40
0.0403640459
 40
0.0701237312
 40
0.1080704781
 40
0.1540579032
 40
0.2079104816
 40
0.2694052173
 40
0.3382962662
 40
0.4142965493
 40
0.5863435899
 40
0.782679465
 40
1.0
 40
1.0
 40
1.0
 40
1.0
 10
1004.0515762769
 20
160.7107729601
 30
0.0
 10
1004.0515740758
 20
160.70739497
 30
0.0
 10
1004.0443217914
 20
160.6992806184
 30
0.0
 10
1004.0158585326
 20
160.6870875683
 30
0.0
 10
1003.9525831485
 20
160.6719416152
 30
0.0
 10
1003.8464582375
 20
160.655488994
 30
0.0
 10
1003.6980981289
 20
160.6381335588
 30
0.0
 10
1003.5088488489
 20
160.6206533894
 30
0.0
 10
1003.2790816964
 20
160.6030429966
 30
0.0
 10
1003.0098717736
 20
160.5855159625
 30
0.0
 10
1002.7022706003
 20
160.5681657327
 30
0.0
 10
1002.3575710257
 20
160.5511163458
 30
0.0
 10
1001.8280886943
 20
160.5279633214
 30
0.0
 10
1001.0854669571
 20
160.5010438987
 30
0.0
 10
1000.1064534205
 20
160.4727576165
 30
0.0
 10
999.4149079752
 20
160.4570960117
 30
0.0
 10
999.0515762769
 20
160.4498326807
 30
0.0
  0
SPLINE
  5
5C4
100
AcDbEntity
  8
0
100
AcDbSpline
 62
9
  6
CONTINUOUS
 70
0
 71
3
 72
14
 73
10
 74
0
 42
0.0000001
 43
0.0000001
 44
0.0000000001
 40
0.0
 40
0.0
 40
0.0
 40
0.0
 40
0.3194044034
 40
0.4657966148
 40
0.5993683779
 40
0.7184588948
 40
0.8229953364
 40
0.9151771319
 40
1.0
 40
1.0
 40
1.0
 40
1.0
 10
999.0515762754
 20
160.4498326811
 30
0.0
 10
999.0363308184
 20
160.2201105097
 30
0.0
 10
998.9850390101
 20
159.8853468637
 30
0.0
 10
998.8509802726
 20
159.4738394522
 30
0.0
 10
998.7279554781
 20
159.2127959619
 30
0.0
 10
998.5831070409
 20
158.9984183734
 30
0.0
 10
998.4197834421
 20
158.8370756431
 30
0.0
 10
998.2411880683
 20
158.7348610167
 30
0.0
 10
998.1127168132
 20
158.7107729599
 30
0.0
 10
998.0515762769
 20
158.7107729597
 30
0.0
  0
SPLINE
  5
5C5
100
AcDbEntity
  8
0
100
AcDbSpline
 62
9
  6
CONTINUOUS
 70
0
 71
3
 72
14
 73
10
 74
0
 42
0.0000001
 43
0.0000001
 44
0.0000000001
 40
0.0
 40
0.0
 40
0.0
 40
0.0
 40
0.3191314073
 40
0.4649071479
 40
0.5978916839
 40
0.7166632814
 40
0.8213316251
 40
0.9141606321
 40
1.0
 40
1.0
 40
1.0
 40
1.0
 10
981.051575076
 20
160.3746560438
 30
0.0
 10
981.0324131818
 20
160.153058293
 30
0.0
 10
980.9769067693
 20
159.8309837844
 30
0.0
 10
980.840110418
 20
159.4365721917
 30
0.0
 10
980.7167878813
 20
159.1874476006
 30
0.0
 10
980.5730261015
 20
158.9833721921
 30
0.0
 10
980.4119737676
 20
158.8301620477
 30
0.0
 10
980.2367617093
 20
158.7334516235
 30
0.0
 10
980.1114036524
 20
158.7107730872
 30
0.0
 10
980.0515762769
 20
158.7107729601
 30
0.0
  0
SPLINE
  5
5C6
100
AcDbEntity
  8
0
100
AcDbSpline
 62
9
  6
CONTINUOUS
 70
0
 71
3
 72
14
 73
10
 74
0
 42
0.0000001
 43
0.0000001
 44
0.0000000001
 40
0.0
 40
0.0
 40
0.0
 40
0.0
 40
0.3194042854
 40
0.4657964774
 40
0.599368253
 40
0.7184588095
 40
0.8229953041
 40
0.9151771399
 40
1.0
 40
1.0
 40
1.0
 40
1.0
 10
999.0515743791
 20
146.9717127442
 30
0.0
 10
999.0363289651
 20
147.2014346881
 30
0.0
 10
998.9850372806
 20
147.5361980273
 30
0.0
 10
998.8509788669
 20
147.9477051599
 30
0.0
 10
998.727954342
 20
148.2087485983
 30
0.0
 10
998.583106202
 20
148.4231262752
 30
0.0
 10
998.4197829193
 20
148.5844692414
 30
0.0
 10
998.2411878755
 20
148.686684273
 30
0.0
 10
998.112716769
 20
148.7107727487
 30
0.0
 10
998.0515762769
 20
148.71077296
 30
0.0
  0
SPLINE
  5
5C7
100
AcDbEntity
  8
0
100
AcDbSpline
 62
9
  6
CONTINUOUS
 70
0
 71
3
 72
14
 73
10
 74
0
 42
0.0000001
 43
0.0000001
 44
0.0000000001
 40
0.0
 40
0.0
 40
0.0
 40
0.0
 40
0.3191314779
 40
0.4649072276
 40
0.5978917533
 40
0.716663325
 40
0.821331637
 40
0.9141606226
 40
1.0
 40
1.0
 40
1.0
 40
1.0
 10
981.0515762736
 20
147.0468902788
 30
0.0
 10
981.0324143483
 20
147.2684881596
 30
0.0
 10
980.9769078533
 20
147.5905628406
 30
0.0
 10
980.8401112937
 20
147.9849745792
 30
0.0
 10
980.7167885865
 20
148.2340991833
 30
0.0
 10
980.5730266204
 20
148.4381745213
 30
0.0
 10
980.4119740896
 20
148.5913845084
 30
0.0
 10
980.236761829
 20
148.6880946774
 30
0.0
 10
980.1114036813
 20
148.7107729605
 30
0.0
 10
980.0515762769
 20
148.710772961
 30
0.0
  0
SPLINE
  5
5C8
100
AcDbEntity
  8
0
100
AcDbSpline
 62
9
  6
CONTINUOUS
 70
0
 71
3
 72
21
 73
17
 74
0
 42
0.0000001
 43
0.0000001
 44
0.0000000001
 40
0.0
 40
0.0
 40
0.0
 40
0.0
 40
0.217320535
 40
0.4136564101
 40
0.5857034508
 40
0.6617037338
 40
0.7305947827
 40
0.7920895184
 40
0.8459420968
 40
0.8919295219
 40
0.9298762688
 40
0.9596359542
 40
0.9811248995
 40
0.9943474981
 40
0.9979799172
 40
1.0
 40
1.0
 40
1.0
 40
1.0
 10
999.0515762769
 20
146.9717132394
 30
0.0
 10
999.4149079752
 20
146.9644499071
 30
0.0
 10
1000.1064534205
 20
146.9487883046
 30
0.0
 10
1001.0854669571
 20
146.9205020208
 30
0.0
 10
1001.8280886943
 20
146.8935825989
 30
0.0
 10
1002.3575710257
 20
146.8704295744
 30
0.0
 10
1002.7022706003
 20
146.8533801873
 30
0.0
 10
1003.0098717736
 20
146.8360299575
 30
0.0
 10
1003.2790816964
 20
146.8185029235
 30
0.0
 10
1003.5088488489
 20
146.8008925307
 30
0.0
 10
1003.6980981289
 20
146.7834123613
 30
0.0
 10
1003.8464582375
 20
146.7660569261
 30
0.0
 10
1003.9525831485
 20
146.7496043049
 30
0.0
 10
1004.0158585326
 20
146.7344583517
 30
0.0
 10
1004.0443217913
 20
146.7222653016
 30
0.0
 10
1004.0515740757
 20
146.7141509501
 30
0.0
 10
1004.0515762769
 20
146.7107729601
 30
0.0
  0
SPLINE
  5
5C9
100
AcDbEntity
  8
0
100
AcDbSpline
 62
9
  6
CONTINUOUS
 70
0
 71
3
 72
11
 73
7
 74
0
 42
0.0000001
 43
0.0000001
 44
0.0000000001
 40
0.0
 40
0.0
 40
0.0
 40
0.0
 40
0.2499756255
 40
0.4999368199
 40
0.7499304011
 40
1.0
 40
1.0
 40
1.0
 40
1.0
 10
1004.0515762769
 20
102.3250919126
 30
0.0
 10
1004.0515637577
 20
103.2112835914
 30
0.0
 10
1003.8246204601
 20
104.9917478996
 30
0.0
 10
1002.8238904283
 20
107.4850592736
 30
0.0
 10
1001.2227872854
 20
109.6438926854
 30
0.0
 10
999.8137345286
 20
110.7598494124
 30
0.0
 10
999.0515762769
 20
111.2126640157
 30
0.0
  0
SPLINE
  5
5CA
100
AcDbEntity
  8
0
100
AcDbSpline
 62
9
  6
CONTINUOUS
 70
0
 71
3
 72
11
 73
7
 74
0
 42
0.0000001
 43
0.0000001
 44
0.0000000001
 40
0.0
 40
0.0
 40
0.0
 40
0.0
 40
0.2500695989
 40
0.5000631801
 40
0.7500243745
 40
1.0
 40
1.0
 40
1.0
 40
1.0
 10
999.0515762769
 20
196.2088819044
 30
0.0
 10
999.8137345375
 20
196.6616964927
 30
0.0
 10
1001.2227872819
 20
197.7776532411
 30
0.0
 10
1002.823890429
 20
199.9364866447
 30
0.0
 10
1003.8246204614
 20
202.429798021
 30
0.0
 10
1004.0515637545
 20
204.2102623287
 30
0.0
 10
1004.0515762769
 20
205.0964540075
 30
0.0
  0
SPLINE
  5
5CB
100
AcDbEntity
  8
0
100
AcDbSpline
 62
9
  6
CONTINUOUS
 70
0
 71
3
 72
9
 73
5
 74
0
 42
0.0000001
 43
0.0000001
 44
0.0000000001
 40
0.0
 40
0.0
 40
0.0
 40
0.0
 40
0.5001132241
 40
1.0
 40
1.0
 40
1.0
 40
1.0
 10
976.0515762769
 20
183.7456200683
 30
0.0
 10
976.925657437
 20
183.745639705
 30
0.0
 10
978.6818646577
 20
183.9898011276
 30
0.0
 10
980.3044567735
 20
184.7010446306
 30
0.0
 10
981.0515762769
 20
185.1539669132
 30
0.0
  0
SPLINE
  5
5CC
100
AcDbEntity
  8
0
100
AcDbSpline
 62
9
  6
CONTINUOUS
 70
0
 71
3
 72
9
 73
5
 74
0
 42
0.0000001
 43
0.0000001
 44
0.0000000001
 40
0.0
 40
0.0
 40
0.0
 40
0.0
 40
0.4998867759
 40
1.0
 40
1.0
 40
1.0
 40
1.0
 10
981.0515762769
 20
122.2675790069
 30
0.0
 10
980.304456775
 20
122.7205012921
 30
0.0
 10
978.6818646572
 20
123.4317447916
 30
0.0
 10
976.925657437
 20
123.6759062166
 30
0.0
 10
976.0515762769
 20
123.6759258518
 30
0.0
  0
SPLINE
  5
5CD
100
AcDbEntity
  8
0
100
AcDbSpline
 62
9
  6
CONTINUOUS
 70
0
 71
3
 72
15
 73
11
 74
0
 42
0.0000001
 43
0.0000001
 44
0.0000000001
 40
0.0
 40
0.0
 40
0.0
 40
0.0
 40
0.1228352222
 40
0.2459072878
 40
0.3695550564
 40
0.4940121588
 40
0.6193964825
 40
0.7456715493
 40
0.8726389251
 40
1.0
 40
1.0
 40
1.0
 40
1.0
 10
953.0515762769
 20
186.6614937412
 30
0.0
 10
953.0515785282
 20
186.4715088369
 30
0.0
 10
953.0898984801
 20
186.0900699723
 30
0.0
 10
953.2604874644
 20
185.5407085795
 30
0.0
 10
953.5380073294
 20
185.0337557928
 30
0.0
 10
953.9123652492
 20
184.5888788415
 30
0.0
 10
954.3695641613
 20
184.2232105745
 30
0.0
 10
954.8923192199
 20
183.9511315771
 30
0.0
 10
955.4601889047
 20
183.7833662225
 30
0.0
 10
955.8545913964
 20
183.7456356139
 30
0.0
 10
956.0515762769
 20
183.7456200683
 30
0.0
  0
SPLINE
  5
5CE
100
AcDbEntity
  8
0
100
AcDbSpline
 62
9
  6
CONTINUOUS
 70
0
 71
3
 72
17
 73
13
 74
0
 42
0.0000001
 43
0.0000001
 44
0.0000000001
 40
0.0
 40
0.0
 40
0.0
 40
0.0
 40
0.3741990047
 40
0.5435490108
 40
0.6924171031
 40
0.7574420117
 40
0.815399698
 40
0.8658134346
 40
0.9083087701
 40
0.9426670359
 40
0.9689192207
 40
1.0
 40
1.0
 40
1.0
 40
1.0
 10
956.0515762769
 20
160.3107729601
 30
0.0
 10
955.6684041102
 20
160.3107666895
 30
0.0
 10
955.1115930488
 20
160.3247074415
 30
0.0
 10
954.404271882
 20
160.37506069
 30
0.0
 10
954.0139706028
 20
160.4171568413
 30
0.0
 10
953.7385117777
 20
160.4576837843
 30
0.0
 10
953.56374058
 20
160.4888923061
 30
0.0
 10
953.412646043
 20
160.5221025684
 30
0.0
 10
953.2873194655
 20
160.556292339
 30
0.0
 10
953.1866231945
 20
160.5927883515
 30
0.0
 10
953.1054903315
 20
160.6318831981
 30
0.0
 10
953.0515857586
 20
160.6789468758
 30
0.0
 10
953.0515762769
 20
160.7107729601
 30
0.0
  0
SPLINE
  5
5CF
100
AcDbEntity
  8
0
100
AcDbSpline
 62
9
  6
CONTINUOUS
 70
0
 71
3
 72
18
 73
14
 74
0
 42
0.0000001
 43
0.0000001
 44
0.0000000001
 40
0.0
 40
0.0
 40
0.0
 40
0.0
 40
0.1395535292
 40
0.2639598687
 40
0.470435602
 40
0.6305676438
 40
0.754569805
 40
0.8494233302
 40
0.9197425042
 40
0.9467570254
 40
0.9688286839
 40
0.9863744159
 40
1.0
 40
1.0
 40
1.0
 40
1.0
 10
1171.5515762769
 20
53.8883701709
 30
0.0
 10
1171.5517657966
 20
52.6107458784
 30
0.0
 10
1171.4086875011
 20
50.1939565801
 30
0.0
 10
1170.8702294328
 20
45.9199719932
 30
0.0
 10
1170.0990372381
 20
41.4900528204
 30
0.0
 10
1169.2946625993
 20
37.0714032401
 30
0.0
 10
1168.6972242014
 20
33.6533642737
 30
0.0
 10
1168.2408761582
 20
31.0459185321
 30
0.0
 10
1167.8991904476
 20
29.3188437819
 30
0.0
 10
1167.6201955843
 20
28.2614927639
 30
0.0
 10
1167.4251147137
 20
27.6825589091
 30
0.0
 10
1167.2207528946
 20
27.2390972431
 30
0.0
 10
1167.0541414544
 20
27.0028229861
 30
0.0
 10
1166.9654988028
 20
26.9150540362
 30
0.0
  0
SPLINE
  5
5D0
100
AcDbEntity
  8
0
100
AcDbSpline
 62
9
  6
CONTINUOUS
 70
0
 71
3
 72
15
 73
11
 74
0
 42
0.0000001
 43
0.0000001
 44
0.0000000001
 40
0.0
 40
0.0
 40
0.0
 40
0.0
 40
0.3286534624
 40
0.4815547507
 40
0.621667944
 40
0.7459394022
 40
0.8517046295
 40
0.9367284144
 40
0.971071897
 40
1.0
 40
1.0
 40
1.0
 40
1.0
 10
1065.5515762769
 20
334.6722632662
 30
0.0
 10
1068.8961309581
 20
334.6727504404
 30
0.0
 10
1073.8104671971
 20
335.0756093231
 30
0.0
 10
1080.0068560996
 20
336.3754715711
 30
0.0
 10
1084.0829069583
 20
337.584317643
 30
0.0
 10
1087.5962805573
 20
338.9575970004
 30
0.0
 10
1090.4622138848
 20
340.4040543557
 30
0.0
 10
1092.3815553466
 20
341.6752230183
 30
0.0
 10
1093.5027183183
 20
342.6891374786
 30
0.0
 10
1093.9210628121
 20
343.1832087551
 30
0.0
 10
1094.0868795627
 20
343.4264557034
 30
0.0
  0
SPLINE
  5
5D1
100
AcDbEntity
  8
0
100
AcDbSpline
 62
9
  6
CONTINUOUS
 70
0
 71
3
 72
15
 73
11
 74
0
 42
0.0000001
 43
0.0000001
 44
0.0000000001
 40
0.0
 40
0.0
 40
0.0
 40
0.0
 40
0.028928472
 40
0.0632724892
 40
0.1482971532
 40
0.2540633951
 40
0.3783362723
 40
0.518449318
 40
0.6713497369
 40
1.0
 40
1.0
 40
1.0
 40
1.0
 10
1037.0162729911
 20
343.4264557034
 30
0.0
 10
1037.1820924618
 20
343.1832060677
 30
0.0
 10
1037.6004435169
 20
342.6891283506
 30
0.0
 10
1038.7216205123
 20
341.6752021724
 30
0.0
 10
1040.6409873986
 20
340.4040265869
 30
0.0
 10
1043.5069534077
 20
338.9575596483
 30
0.0
 10
1047.0203525327
 20
337.5842811174
 30
0.0
 10
1051.0964092885
 20
336.3754421366
 30
0.0
 10
1057.2927613896
 20
335.075603803
 30
0.0
 10
1062.2070541869
 20
334.6727942496
 30
0.0
 10
1065.5515762769
 20
334.6722632662
 30
0.0
  0
SPLINE
  5
5D2
100
AcDbEntity
  8
0
100
AcDbSpline
 62
9
  6
CONTINUOUS
 70
0
 71
3
 72
9
 73
5
 74
0
 42
0.0000001
 43
0.0000001
 44
0.0000000001
 40
0.0
 40
0.0
 40
0.0
 40
0.0
 40
0.4022445007
 40
1.0
 40
1.0
 40
1.0
 40
1.0
 10
1036.6206239939
 20
343.7107729601
 30
0.0
 10
1036.643470862
 20
343.7107489651
 30
0.0
 10
1036.6989954316
 20
343.6909850435
 30
0.0
 10
1036.7465150131
 20
343.6603543364
 30
0.0
 10
1036.7741537974
 20
343.6406360847
 30
0.0
  0
SPLINE
  5
5D3
100
AcDbEntity
  8
0
100
AcDbSpline
 62
9
  6
CONTINUOUS
 70
0
 71
3
 72
9
 73
5
 74
0
 42
0.0000001
 43
0.0000001
 44
0.0000000001
 40
0.0
 40
0.0
 40
0.0
 40
0.0
 40
0.2061329641
 40
1.0
 40
1.0
 40
1.0
 40
1.0
 10
1036.7741537974
 20
343.6406360847
 30
0.0
 10
1036.7922476158
 20
343.6277274683
 30
0.0
 10
1036.877705861
 20
343.5618620823
 30
0.0
 10
1036.955974494
 20
343.4872125249
 30
0.0
 10
1037.0162729911
 20
343.4264557034
 30
0.0
  0
SPLINE
  5
5D4
100
AcDbEntity
  8
0
100
AcDbSpline
 62
9
  6
CONTINUOUS
 70
0
 71
3
 72
11
 73
7
 74
0
 42
0.0000001
 43
0.0000001
 44
0.0000000001
 40
0.0
 40
0.0
 40
0.0
 40
0.0
 40
0.2507496554
 40
0.5031148296
 40
0.7536878491
 40
1.0
 40
1.0
 40
1.0
 40
1.0
 10
1037.0162729911
 20
343.4264521475
 30
0.0
 10
1037.5173299393
 20
343.4495883629
 30
0.0
 10
1038.5227381506
 20
343.687364753
 30
0.0
 10
1039.7976077768
 20
344.5501968157
 30
0.0
 10
1040.6828459376
 20
345.7996995758
 30
0.0
 10
1040.9285323518
 20
346.792151022
 30
0.0
 10
1040.9521868688
 20
347.2842970751
 30
0.0
  0
SPLINE
  5
5D5
100
AcDbEntity
  8
0
100
AcDbSpline
 62
9
  6
CONTINUOUS
 70
0
 71
3
 72
11
 73
7
 74
0
 42
0.0000001
 43
0.0000001
 44
0.0000000001
 40
0.0
 40
0.0
 40
0.0
 40
0.0
 40
0.2497246065
 40
0.4996105764
 40
0.7497246861
 40
1.0
 40
1.0
 40
1.0
 40
1.0
 10
1036.6206239942
 20
343.7107729601
 30
0.0
 10
1037.1396733127
 20
343.7107729601
 30
0.0
 10
1038.1895100957
 20
343.9191011807
 30
0.0
 10
1039.5159023751
 20
344.8096580894
 30
0.0
 10
1040.4036126741
 20
346.1391787594
 30
0.0
 10
1040.6111002472
 20
347.1905790036
 30
0.0
 10
1040.6111001715
 20
347.7107729601
 30
0.0
  0
SPLINE
  5
5D6
100
AcDbEntity
  8
0
100
AcDbSpline
 62
7
  6
CONTINUOUS
 70
0
 71
3
 72
10
 73
6
 74
0
 42
0.0000001
 43
0.0000001
 44
0.0000000001
 40
0.0
 40
0.0
 40
0.0
 40
0.0
 40
0.4697449946
 40
0.7281170086
 40
1.0
 40
1.0
 40
1.0
 40
1.0
 10
1156.5515762769
 20
343.4264557034
 30
0.0
 10
1158.7462997934
 20
342.9893962455
 30
0.0
 10
1162.0241449472
 20
341.562729328
 30
0.0
 10
1165.788022427
 20
338.6269708665
 30
0.0
 10
1167.4995499673
 20
336.7446685327
 30
0.0
 10
1168.2797193415
 20
335.7107729601
 30
0.0
  0
SPLINE
  5
5D7
100
AcDbEntity
  8
0
100
AcDbSpline
 62
9
  6
CONTINUOUS
 70
0
 71
3
 72
11
 73
7
 74
0
 42
0.0000001
 43
0.0000001
 44
0.0000000001
 40
0.0
 40
0.0
 40
0.0
 40
0.0
 40
0.249724665
 40
0.4996107069
 40
0.7497247863
 40
1.0
 40
1.0
 40
1.0
 40
1.0
 10
1094.4825285597
 20
343.7107729601
 30
0.0
 10
1093.9634791319
 20
343.7107729601
 30
0.0
 10
1092.9136421015
 20
343.9191013758
 30
0.0
 10
1091.5872498549
 20
344.8096586564
 30
0.0
 10
1090.6995398549
 20
346.1391793125
 30
0.0
 10
1090.4920523826
 20
347.1905792241
 30
0.0
 10
1090.4920523825
 20
347.7107729601
 30
0.0
  0
SPLINE
  5
5D8
100
AcDbEntity
  8
0
100
AcDbSpline
 62
7
  6
CONTINUOUS
 70
0
 71
3
 72
9
 73
5
 74
0
 42
0.0000001
 43
0.0000001
 44
0.0000000001
 40
0.0
 40
0.0
 40
0.0
 40
0.0
 40
0.4998551331
 40
1.0
 40
1.0
 40
1.0
 40
1.0
 10
1168.2797193415
 20
335.7107729601
 30
0.0
 10
1169.342655304
 20
334.3021496253
 30
0.0
 10
1170.9994874677
 20
331.1014916521
 30
0.0
 10
1171.5515762769
 20
327.5481174671
 30
0.0
 10
1171.5515762769
 20
325.78242677
 30
0.0
  0
SPLINE
  5
5D9
100
AcDbEntity
  8
0
100
AcDbSpline
 62
9
  6
CONTINUOUS
 70
0
 71
3
 72
10
 73
6
 74
0
 42
0.0000001
 43
0.0000001
 44
0.0000000001
 40
0.0
 40
0.0
 40
0.0
 40
0.0
 40
0.6469520722
 40
0.8584043243
 40
1.0
 40
1.0
 40
1.0
 40
1.0
 10
1094.0868795627
 20
343.4264557034
 30
0.0
 10
1094.1618700738
 20
343.5020156308
 30
0.0
 10
1094.2650563221
 20
343.6006650034
 30
0.0
 10
1094.4025202892
 20
343.6902490652
 30
0.0
 10
1094.4592289969
 20
343.7107484663
 30
0.0
 10
1094.4825285599
 20
343.7107729601
 30
0.0
  0
SPLINE
  5
5DA
100
AcDbEntity
  8
0
100
AcDbSpline
 62
9
  6
CONTINUOUS
 70
0
 71
3
 72
11
 73
7
 74
0
 42
0.0000001
 43
0.0000001
 44
0.0000000001
 40
0.0
 40
0.0
 40
0.0
 40
0.0
 40
0.2507496563
 40
0.50311457
 40
0.7536873192
 40
1.0
 40
1.0
 40
1.0
 40
1.0
 10
1094.0868795644
 20
343.4264049996
 30
0.0
 10
1093.5858163735
 20
343.4495272103
 30
0.0
 10
1092.5803902131
 20
343.6872900342
 30
0.0
 10
1091.305508523
 20
344.550138803
 30
0.0
 10
1090.4202835407
 20
345.799674278
 30
0.0
 10
1090.1746198239
 20
346.7921438995
 30
0.0
 10
1090.1509770667
 20
347.284297075
 30
0.0
  0
SPLINE
  5
5DB
100
AcDbEntity
  8
0
100
AcDbSpline
 62
9
  6
CONTINUOUS
 70
0
 71
3
 72
11
 73
7
 74
0
 42
0.0000001
 43
0.0000001
 44
0.0000000001
 40
0.0
 40
0.0
 40
0.0
 40
0.0
 40
0.1154019144
 40
0.3167583824
 40
0.6122254243
 40
1.0
 40
1.0
 40
1.0
 40
1.0
 10
1040.6111001709
 20
347.7107729601
 30
0.0
 10
1040.6324550619
 20
347.7107008512
 30
0.0
 10
1040.6854890282
 20
347.6746373566
 30
0.0
 10
1040.7581471942
 20
347.5908145517
 30
0.0
 10
1040.8522323832
 20
347.4550623224
 30
0.0
 10
1040.9166420179
 20
347.3466379468
 30
0.0
 10
1040.9521768926
 20
347.284297075
 30
0.0
  0
SPLINE
  5
5DC
100
AcDbEntity
  8
0
100
AcDbSpline
 62
9
  6
CONTINUOUS
 70
0
 71
3
 72
14
 73
10
 74
0
 42
0.0000001
 43
0.0000001
 44
0.0000000001
 40
0.0
 40
0.0
 40
0.0
 40
0.0
 40
0.0667900855
 40
0.1533817852
 40
0.2590864282
 40
0.3822758365
 40
0.5209233282
 40
0.6725485561
 40
1.0
 40
1.0
 40
1.0
 40
1.0
 10
1040.9521768926
 20
347.284297075
 30
0.0
 10
1041.2495892026
 20
346.7626997007
 30
0.0
 10
1042.1598830619
 20
345.7005110905
 30
0.0
 10
1043.9784441451
 20
344.2382315609
 30
0.0
 10
1046.4054569576
 20
342.7560904877
 30
0.0
 10
1049.3954508921
 20
341.3385324928
 30
0.0
 10
1052.8980686381
 20
340.0758391609
 30
0.0
 10
1058.283558198
 20
338.6981705108
 30
0.0
 10
1062.6078439092
 20
338.2632701305
 30
0.0
 10
1065.5515762769
 20
338.262801052
 30
0.0
  0
SPLINE
  5
5DD
100
AcDbEntity
  8
0
100
AcDbSpline
 62
9
  6
CONTINUOUS
 70
0
 71
3
 72
14
 73
10
 74
0
 42
0.0000001
 43
0.0000001
 44
0.0000000001
 40
0.0
 40
0.0
 40
0.0
 40
0.0
 40
0.3274547454
 40
0.4790809358
 40
0.6177284457
 40
0.7409163842
 40
0.8466200171
 40
0.9332108422
 40
1.0
 40
1.0
 40
1.0
 40
1.0
 10
1065.5515762769
 20
338.262801052
 30
0.0
 10
1068.4953383487
 20
338.2632365883
 30
0.0
 10
1072.8196645661
 20
338.6981766706
 30
0.0
 10
1078.2051853504
 20
340.0758714427
 30
0.0
 10
1081.7077961028
 20
341.3385722315
 30
0.0
 10
1084.6977657537
 20
342.7561294287
 30
0.0
 10
1087.1247494568
 20
344.2382602903
 30
0.0
 10
1088.9432863714
 20
345.7005295109
 30
0.0
 10
1089.8535677271
 20
346.7627068012
 30
0.0
 10
1090.1509756612
 20
347.284297075
 30
0.0
  0
SPLINE
  5
5DE
100
AcDbEntity
  8
0
100
AcDbSpline
 62
9
  6
CONTINUOUS
 70
0
 71
3
 72
11
 73
7
 74
0
 42
0.0000001
 43
0.0000001
 44
0.0000000001
 40
0.0
 40
0.0
 40
0.0
 40
0.0
 40
0.3877745753
 40
0.6832407263
 40
0.8845977127
 40
1.0
 40
1.0
 40
1.0
 40
1.0
 10
1090.1509756612
 20
347.284297075
 30
0.0
 10
1090.1865103532
 20
347.3466380149
 30
0.0
 10
1090.2509198814
 20
347.4550621952
 30
0.0
 10
1090.3450056206
 20
347.5908139582
 30
0.0
 10
1090.4176636815
 20
347.6746365434
 30
0.0
 10
1090.4706974324
 20
347.7107007929
 30
0.0
 10
1090.4920523829
 20
347.7107729601
 30
0.0
  0
SPLINE
  5
5DF
100
AcDbEntity
  8
0
100
AcDbSpline
 62
9
  6
CONTINUOUS
 70
0
 71
3
 72
15
 73
11
 74
0
 42
0.0000001
 43
0.0000001
 44
0.0000000001
 40
0.0
 40
0.0
 40
0.0
 40
0.0
 40
0.0430950445
 40
0.0726996894
 40
0.1091308997
 40
0.2035120077
 40
0.3253179095
 40
0.4712286797
 40
0.6364387919
 40
1.0
 40
1.0
 40
1.0
 40
1.0
 10
1171.5517652965
 20
53.8883702291
 30
0.0
 10
1171.5517373747
 20
53.9489068495
 30
0.0
 10
1171.6107102698
 20
54.0470075255
 30
0.0
 10
1171.729698115
 20
54.1414172211
 30
0.0
 10
1171.9260054653
 20
54.2549702201
 30
0.0
 10
1172.2607695941
 20
54.3769435909
 30
0.0
 10
1172.754799882
 20
54.4998730905
 30
0.0
 10
1173.3550658126
 20
54.6006725884
 30
0.0
 10
1174.297357446
 20
54.7047335898
 30
0.0
 10
1175.0408732583
 20
54.7333243914
 30
0.0
 10
1175.551576274
 20
54.7333474709
 30
0.0
  0
SPLINE
  5
5E0
100
AcDbEntity
  8
0
100
AcDbSpline
 62
9
  6
CONTINUOUS
 70
0
 71
3
 72
20
 73
16
 74
0
 42
0.0000001
 43
0.0000001
 44
0.0000000001
 40
0.0
 40
0.0
 40
0.0
 40
0.0
 40
0.1537597325
 40
0.2892594762
 40
0.5065496606
 40
0.6670038119
 40
0.7855631011
 40
0.8322884631
 40
0.8718232554
 40
0.9048613404
 40
0.9320321852
 40
0.9540006522
 40
0.9716341128
 40
0.9862793597
 40
1.0
 40
1.0
 40
1.0
 40
1.0
 10
1175.5515762769
 20
54.7332939824
 30
0.0
 10
1175.5516126819
 20
53.2842188589
 30
0.0
 10
1175.2736484793
 20
50.5597189787
 30
0.0
 10
1174.3744402558
 20
45.8718759275
 30
0.0
 10
1173.2745336148
 20
41.1603762727
 30
0.0
 10
1172.2526012648
 20
36.5962565794
 30
0.0
 10
1171.6137538509
 20
33.5935183476
 30
0.0
 10
1171.1846941459
 20
31.7114663613
 30
0.0
 10
1170.9092885863
 20
30.6212379775
 30
0.0
 10
1170.6414031651
 20
29.7197702621
 30
0.0
 10
1170.3696998119
 20
28.9934959266
 30
0.0
 10
1170.0834079011
 20
28.4308881433
 30
0.0
 10
1169.7699029436
 20
28.0213763581
 30
0.0
 10
1169.4089690047
 20
27.7645107439
 30
0.0
 10
1169.1377449463
 20
27.7107729498
 30
0.0
 10
1169.0084377594
 20
27.7107663835
 30
0.0
  0
SPLINE
  5
5E1
100
AcDbEntity
  8
0
100
AcDbSpline
 62
9
  6
CONTINUOUS
 70
0
 71
3
 72
15
 73
11
 74
0
 42
0.0000001
 43
0.0000001
 44
0.0000000001
 40
0.0
 40
0.0
 40
0.0
 40
0.0
 40
0.1263045266
 40
0.2524478439
 40
0.3782111881
 40
0.5035127923
 40
0.6282868823
 40
0.7525476973
 40
0.8764155388
 40
1.0
 40
1.0
 40
1.0
 40
1.0
 10
1029.5549046814
 20
343.4264619222
 30
0.0
 10
1028.5738155081
 20
343.4264723193
 30
0.0
 10
1026.6076215414
 20
343.2369224451
 30
0.0
 10
1023.7751753908
 20
342.3933633555
 30
0.0
 10
1021.1643114685
 20
341.0228400189
 30
0.0
 10
1018.8763589906
 20
339.1797054744
 30
0.0
 10
1016.9992137128
 20
336.9345290603
 30
0.0
 10
1015.6039804268
 20
334.3742173801
 30
0.0
 10
1014.7451318875
 20
331.5983084092
 30
0.0
 10
1014.5520958406
 20
329.6707334835
 30
0.0
 10
1014.5515762769
 20
328.7107729627
 30
0.0
  0
SPLINE
  5
5E2
100
AcDbEntity
  8
0
100
AcDbSpline
 62
9
  6
CONTINUOUS
 70
0
 71
3
 72
28
 73
24
 74
0
 42
0.0000001
 43
0.0000001
 44
0.0000000001
 40
0.0
 40
0.0
 40
0.0
 40
0.0
 40
0.0315098657
 40
0.062912041
 40
0.0942953538
 40
0.1257130646
 40
0.1886255095
 40
0.2516648897
 40
0.3147557018
 40
0.3778573542
 40
0.4409438132
 40
0.50398752
 40
0.5669574256
 40
0.6298259631
 40
0.6926045836
 40
0.7554364608
 40
0.8185190643
 40
0.8499386925
 40
0.8809040125
 40
0.9112406538
 40
0.9409824219
 40
0.9703843156
 40
1.0
 40
1.0
 40
1.0
 40
1.0
 10
107.4834168134
 20
53.8883701709
 30
0.0
 10
108.0216536818
 20
52.3221625784
 30
0.0
 10
109.5567666435
 20
49.3450665318
 30
0.0
 10
112.7307903478
 20
45.5083647069
 30
0.0
 10
116.4498912133
 20
42.2163871352
 30
0.0
 10
121.8903350142
 20
38.4475625257
 30
0.0
 10
129.3078404744
 20
34.7040266487
 30
0.0
 10
138.6922770497
 20
31.3866145152
 30
0.0
 10
148.3677642577
 20
29.0225339052
 30
0.0
 10
158.2074199873
 20
27.4879624759
 30
0.0
 10
168.1318706302
 20
26.7106613814
 30
0.0
 10
178.0789668328
 20
26.6535379122
 30
0.0
 10
187.9934750481
 20
27.3064608267
 30
0.0
 10
197.8200654465
 20
28.6848705713
 30
0.0
 10
207.5019797516
 20
30.8366437229
 30
0.0
 10
216.9628815726
 20
33.8586915487
 30
0.0
 10
224.5376253205
 20
37.2409530892
 30
0.0
 10
230.2235772511
 20
40.594849343
 30
0.0
 10
234.1835502725
 20
43.4496312499
 30
0.0
 10
237.7343629553
 20
46.6758155266
 30
0.0
 10
240.7414637545
 20
50.3190222188
 30
0.0
 10
243.0161759214
 20
54.427605829
 30
0.0
 10
243.8327039277
 20
57.4690573581
 30
0.0
 10
244.0048855361
 20
59.0160610532
 30
0.0
  0
SPLINE
  5
5E3
100
AcDbEntity
  8
0
100
AcDbSpline
 62
9
  6
CONTINUOUS
 70
0
 71
3
 72
14
 73
10
 74
0
 42
0.0000001
 43
0.0000001
 44
0.0000000001
 40
0.0
 40
0.0
 40
0.0
 40
0.0
 40
0.023452657
 40
0.0779790189
 40
0.1651508788
 40
0.2833333521
 40
0.4295695678
 40
0.6005601372
 40
1.0
 40
1.0
 40
1.0
 40
1.0
 10
134.072230487
 20
343.7107729601
 30
0.0
 10
134.0941374486
 20
343.7107729601
 30
0.0
 10
134.132964338
 20
343.7966513768
 30
0.0
 10
134.1646112729
 20
343.930689936
 30
0.0
 10
134.2045444868
 20
344.1792573504
 30
0.0
 10
134.2385105783
 20
344.502255474
 30
0.0
 10
134.2707680798
 20
344.9090853776
 30
0.0
 10
134.30894685
 20
345.5768619963
 30
0.0
 10
134.3264795214
 20
346.1097565158
 30
0.0
 10
134.3347499084
 20
346.4827788032
 30
0.0
  0
SPLINE
  5
5E4
100
AcDbEntity
  8
0
100
AcDbSpline
 62
9
  6
CONTINUOUS
 70
0
 71
3
 72
15
 73
11
 74
0
 42
0.0000001
 43
0.0000001
 44
0.0000000001
 40
0.0
 40
0.0
 40
0.0
 40
0.0
 40
0.0385496077
 40
0.0661916797
 40
0.1007841161
 40
0.1918582547
 40
0.3111341334
 40
0.455885391
 40
0.6222219546
 40
1.0
 40
1.0
 40
1.0
 40
1.0
 10
131.9584232417
 20
343.4264049996
 30
0.0
 10
132.0020943128
 20
343.4383616627
 30
0.0
 10
132.0592804973
 20
343.5058096145
 30
0.0
 10
132.0997797169
 20
343.6152981404
 30
0.0
 10
132.1391732406
 20
343.7923199493
 30
0.0
 10
132.1553032321
 20
344.0803491225
 30
0.0
 10
132.1397649025
 20
344.4974796092
 30
0.0
 10
132.0867841725
 20
345.0004846662
 30
0.0
 10
131.9637868145
 20
345.8003697951
 30
0.0
 10
131.8290335127
 20
346.4258043411
 30
0.0
 10
131.7236453576
 20
346.8568250073
 30
0.0
  0
SPLINE
  5
5E5
100
AcDbEntity
  8
0
100
AcDbSpline
 62
9
  6
CONTINUOUS
 70
0
 71
3
 72
29
 73
25
 74
0
 42
0.0000001
 43
0.0000001
 44
0.0000000001
 40
0.0
 40
0.0
 40
0.0
 40
0.0
 40
0.0312318456
 40
0.0624705758
 40
0.0937147717
 40
0.1249640448
 40
0.1562213137
 40
0.1874825624
 40
0.2499733391
 40
0.3124847084
 40
0.3750051628
 40
0.4375304427
 40
0.5000582768
 40
0.5625863442
 40
0.6251122214
 40
0.6876330189
 40
0.7501444366
 40
0.8126355111
 40
0.8438966881
 40
0.8751539491
 40
0.9064010879
 40
0.9376277914
 40
0.9688252699
 40
1.0
 40
1.0
 40
1.0
 40
1.0
 10
245.0722304873
 20
143.7107729601
 30
0.0
 10
245.0716291983
 20
145.4468370258
 30
0.0
 10
244.5516345472
 20
148.9383598064
 30
0.0
 10
242.3933462974
 20
153.7360912505
 30
0.0
 10
239.2429957915
 20
157.9277764953
 30
0.0
 10
235.4364377554
 20
161.5142953712
 30
0.0
 10
231.2009042508
 20
164.5716165036
 30
0.0
 10
225.1723724981
 20
168.0455477059
 30
0.0
 10
217.1421064032
 20
171.4392604628
 30
0.0
 10
207.1173005747
 20
174.3539290929
 30
0.0
 10
196.865760976
 20
176.3221804043
 30
0.0
 10
186.4917683066
 20
177.4621948068
 30
0.0
 10
176.0624532716
 20
177.8354395301
 30
0.0
 10
165.6331543763
 20
177.4607846801
 30
0.0
 10
155.2592574225
 20
176.3192780757
 30
0.0
 10
145.0079707354
 20
174.3493718077
 30
0.0
 10
134.9836872295
 20
171.4327334755
 30
0.0
 10
126.9542225843
 20
168.0369712033
 30
0.0
 10
120.9268842457
 20
164.5609214558
 30
0.0
 10
116.6927502772
 20
161.5018235113
 30
0.0
 10
112.8890104224
 20
157.9138973784
 30
0.0
 10
109.7433507822
 20
153.722812344
 30
0.0
 10
107.5914791456
 20
148.9295809672
 30
0.0
 10
107.0722653181
 20
145.4436622884
 30
0.0
 10
107.0722304873
 20
143.7107729601
 30
0.0
  0
SPLINE
  5
5E6
100
AcDbEntity
  8
0
100
AcDbSpline
 62
9
  6
CONTINUOUS
 70
0
 71
3
 72
29
 73
25
 74
0
 42
0.0000001
 43
0.0000001
 44
0.0000000001
 40
0.0
 40
0.0
 40
0.0
 40
0.0
 40
0.0312318456
 40
0.0624705758
 40
0.0937147717
 40
0.1249640448
 40
0.1562213137
 40
0.1874825624
 40
0.2499733391
 40
0.3124847084
 40
0.3750051628
 40
0.4375304427
 40
0.5000582768
 40
0.5625863442
 40
0.6251122214
 40
0.6876330189
 40
0.7501444366
 40
0.8126355111
 40
0.8438966881
 40
0.8751539491
 40
0.9064010879
 40
0.9376277914
 40
0.9688252699
 40
1.0
 40
1.0
 40
1.0
 40
1.0
 10
107.0722304873
 20
143.7107729601
 30
0.0
 10
107.0728317763
 20
141.9747088943
 30
0.0
 10
107.5928264273
 20
138.4831861137
 30
0.0
 10
109.7511146772
 20
133.6854546696
 30
0.0
 10
112.9014651831
 20
129.4937694248
 30
0.0
 10
116.7080232192
 20
125.9072505489
 30
0.0
 10
120.9435567237
 20
122.8499294165
 30
0.0
 10
126.9720884764
 20
119.3759982142
 30
0.0
 10
135.0023545714
 20
115.9822854573
 30
0.0
 10
145.0271603999
 20
113.0676168272
 30
0.0
 10
155.2786999986
 20
111.0993655158
 30
0.0
 10
165.6526926679
 20
109.9593511133
 30
0.0
 10
176.0820077029
 20
109.5861063901
 30
0.0
 10
186.5113065983
 20
109.96076124
 30
0.0
 10
196.8852035521
 20
111.1022678444
 30
0.0
 10
207.1364902391
 20
113.0721741124
 30
0.0
 10
217.1607737451
 20
115.9888124446
 30
0.0
 10
225.1902383903
 20
119.3845747168
 30
0.0
 10
231.2175767289
 20
122.8606244643
 30
0.0
 10
235.4517106974
 20
125.9197224088
 30
0.0
 10
239.2554505522
 20
129.5076485417
 30
0.0
 10
242.4011101924
 20
133.6987335761
 30
0.0
 10
244.552981829
 20
138.4919649529
 30
0.0
 10
245.0721956565
 20
141.9778836317
 30
0.0
 10
245.0722304873
 20
143.7107729601
 30
0.0
  0
SPLINE
  5
5E7
100
AcDbEntity
  8
0
100
AcDbSpline
 62
9
  6
CONTINUOUS
 70
0
 71
3
 72
28
 73
24
 74
0
 42
0.0000001
 43
0.0000001
 44
0.0000000001
 40
0.0
 40
0.0
 40
0.0
 40
0.0
 40
0.0312467628
 40
0.062492974
 40
0.0937472233
 40
0.125005939
 40
0.1874882751
 40
0.2499935069
 40
0.312508563
 40
0.3750289152
 40
0.4375522754
 40
0.5000769938
 40
0.5626009914
 40
0.6251222763
 40
0.6876380987
 40
0.7501446209
 40
0.8126301463
 40
0.8438893161
 40
0.8751445248
 40
0.9063894784
 40
0.9376158062
 40
0.9688171082
 40
1.0
 40
1.0
 40
1.0
 40
1.0
 10
242.9189786402
 20
66.3770812286
 30
0.0
 10
242.1741653959
 20
67.8419983952
 30
0.0
 10
240.3520300213
 20
70.6095596038
 30
0.0
 10
236.9455357812
 20
74.1983629339
 30
0.0
 10
233.086606972
 20
77.2882479921
 30
0.0
 10
227.5355677624
 20
80.8273792972
 30
0.0
 10
220.0674615682
 20
84.3338760991
 30
0.0
 10
210.6856480481
 20
87.423621586
 30
0.0
 10
201.0547904235
 20
89.611151078
 30
0.0
 10
191.2823693689
 20
91.0208763039
 30
0.0
 10
181.4344790448
 20
91.7238812664
 30
0.0
 10
171.56185153
 20
91.7527059634
 30
0.0
 10
161.7099125099
 20
91.1087403499
 30
0.0
 10
151.9286158803
 20
89.7621629068
 30
0.0
 10
142.2821056986
 20
87.6457562844
 30
0.0
 10
132.8731343443
 20
84.64061381
 30
0.0
 10
125.3652767638
 20
81.224184123
 30
0.0
 10
119.7579056932
 20
77.7755945561
 30
0.0
 10
115.8378025653
 20
74.7659326384
 30
0.0
 10
112.3400995383
 20
71.2673834601
 30
0.0
 10
109.4744382575
 20
67.2225406794
 30
0.0
 10
107.5359425233
 20
62.6480920796
 30
0.0
 10
107.0722634492
 20
59.350803245
 30
0.0
 10
107.0722304873
 20
57.7107729601
 30
0.0
  0
SPLINE
  5
5E8
100
AcDbEntity
  8
0
100
AcDbSpline
 62
9
  6
CONTINUOUS
 70
0
 71
3
 72
9
 73
5
 74
0
 42
0.0000001
 43
0.0000001
 44
0.0000000001
 40
0.0
 40
0.0
 40
0.0
 40
0.0
 40
0.4929922747
 40
1.0
 40
1.0
 40
1.0
 40
1.0
 10
244.0048855361
 20
59.0160610532
 30
0.0
 10
244.1408156444
 20
60.2418401522
 30
0.0
 10
244.1174502804
 20
62.7736323291
 30
0.0
 10
243.421748752
 20
65.2126288505
 30
0.0
 10
242.9189794108
 20
66.3770799841
 30
0.0
  0
SPLINE
  5
5E9
100
AcDbEntity
  8
0
100
AcDbSpline
 62
9
  6
CONTINUOUS
 70
0
 71
3
 72
11
 73
7
 74
0
 42
0.0000001
 43
0.0000001
 44
0.0000000001
 40
0.0
 40
0.0
 40
0.0
 40
0.0
 40
0.2500316849
 40
0.5000555915
 40
0.7500515505
 40
1.0
 40
1.0
 40
1.0
 40
1.0
 10
-624.5918654531
 20
205.0964540075
 30
0.0
 10
-624.5918421071
 20
204.3780354254
 30
0.0
 10
-624.4110376579
 20
202.9349098752
 30
0.0
 10
-623.6144856188
 20
200.9088312329
 30
0.0
 10
-622.3366794534
 20
199.1454108809
 30
0.0
 10
-621.2055903186
 20
198.2274257828
 30
0.0
 10
-620.5918654531
 20
197.8544331946
 30
0.0
  0
SPLINE
  5
5EA
100
AcDbEntity
  8
0
100
AcDbSpline
 62
9
  6
CONTINUOUS
 70
0
 71
3
 72
11
 73
7
 74
0
 42
0.0000001
 43
0.0000001
 44
0.0000000001
 40
0.0
 40
0.0
 40
0.0
 40
0.0
 40
0.2495956367
 40
0.4994875388
 40
0.7496719482
 40
1.0
 40
1.0
 40
1.0
 40
1.0
 10
-578.5918654531
 20
185.5659138324
 30
0.0
 10
-578.4557764053
 20
185.5659247237
 30
0.0
 10
-578.1798542266
 20
185.6297001283
 30
0.0
 10
-577.8486748022
 20
185.8878707172
 30
0.0
 10
-577.6392697049
 20
186.2497434404
 30
0.0
 10
-577.5918730313
 20
186.5250053526
 30
0.0
 10
-577.5918654531
 20
186.6614937412
 30
0.0
  0
SPLINE
  5
5EB
100
AcDbEntity
  8
0
100
AcDbSpline
 62
9
  6
CONTINUOUS
 70
0
 71
3
 72
9
 73
5
 74
0
 42
0.0000001
 43
0.0000001
 44
0.0000000001
 40
0.0
 40
0.0
 40
0.0
 40
0.0
 40
0.5000702917
 40
1.0
 40
1.0
 40
1.0
 40
1.0
 10
-602.5918654531
 20
186.7399195157
 30
0.0
 10
-601.9981662986
 20
186.3655922365
 30
0.0
 10
-600.7043769481
 20
185.7720972788
 30
0.0
 10
-599.2935225418
 20
185.5659376954
 30
0.0
 10
-598.5918654531
 20
185.5659138324
 30
0.0
  0
SPLINE
  5
5EC
100
AcDbEntity
  8
0
100
AcDbSpline
 62
9
  6
CONTINUOUS
 70
0
 71
3
 72
11
 73
7
 74
0
 42
0.0000001
 43
0.0000001
 44
0.0000000001
 40
0.0
 40
0.0
 40
0.0
 40
0.0
 40
0.2499484495
 40
0.4999444084
 40
0.7499683151
 40
1.0
 40
1.0
 40
1.0
 40
1.0
 10
-620.5918654531
 20
109.5671127255
 30
0.0
 10
-621.2055903372
 20
109.1941201682
 30
0.0
 10
-622.3366794428
 20
108.276135023
 30
0.0
 10
-623.6144856207
 20
106.5127146916
 30
0.0
 10
-624.4110376604
 20
104.4866360438
 30
0.0
 10
-624.5918421002
 20
103.0435104947
 30
0.0
 10
-624.5918654531
 20
102.3250919126
 30
0.0
  0
SPLINE
  5
5ED
100
AcDbEntity
  8
0
100
AcDbSpline
 62
9
  6
CONTINUOUS
 70
0
 71
3
 72
9
 73
5
 74
0
 42
0.0000001
 43
0.0000001
 44
0.0000000001
 40
0.0
 40
0.0
 40
0.0
 40
0.0
 40
0.4999297083
 40
1.0
 40
1.0
 40
1.0
 40
1.0
 10
-598.5918654531
 20
121.8556320877
 30
0.0
 10
-599.2935225418
 20
121.8556082304
 30
0.0
 10
-600.7043769433
 20
121.64944863
 30
0.0
 10
-601.9981663074
 20
121.0559536975
 30
0.0
 10
-602.5918654531
 20
120.6816264044
 30
0.0
  0
SPLINE
  5
5EE
100
AcDbEntity
  8
0
100
AcDbSpline
 62
9
  6
CONTINUOUS
 70
0
 71
3
 72
11
 73
7
 74
0
 42
0.0000001
 43
0.0000001
 44
0.0000000001
 40
0.0
 40
0.0
 40
0.0
 40
0.0
 40
0.2503280518
 40
0.5005124612
 40
0.7504043633
 40
1.0
 40
1.0
 40
1.0
 40
1.0
 10
-577.5918654531
 20
120.7600521789
 30
0.0
 10
-577.59187303
 20
120.8965405675
 30
0.0
 10
-577.6392697052
 20
121.1718024798
 30
0.0
 10
-577.8486748021
 20
121.533675203
 30
0.0
 10
-578.1798542265
 20
121.7918457911
 30
0.0
 10
-578.4557764053
 20
121.8556211985
 30
0.0
 10
-578.5918654531
 20
121.8556320877
 30
0.0
  0
SPLINE
  5
5EF
100
AcDbEntity
  8
0
100
AcDbSpline
 62
9
  6
CONTINUOUS
 70
0
 71
3
 72
9
 73
5
 74
0
 42
0.0000001
 43
0.0000001
 44
0.0000000001
 40
0.0
 40
0.0
 40
0.0
 40
0.0
 40
0.2501495915
 40
1.0
 40
1.0
 40
1.0
 40
1.0
 10
-621.5918654531
 20
146.9717132394
 30
0.0
 10
-620.0909625657
 20
146.9765797316
 30
0.0
 10
-614.090945159
 20
146.9971395721
 30
0.0
 10
-608.0909424514
 20
147.0226863687
 30
0.0
 10
-603.5918654531
 20
147.0468902799
 30
0.0
  0
SPLINE
  5
5F0
100
AcDbEntity
  8
0
100
AcDbSpline
 62
9
  6
CONTINUOUS
 70
0
 71
3
 72
21
 73
17
 74
0
 42
0.0000001
 43
0.0000001
 44
0.0000000001
 40
0.0
 40
0.0
 40
0.0
 40
0.0
 40
0.217320535
 40
0.4136564101
 40
0.5857034508
 40
0.6617037338
 40
0.7305947827
 40
0.7920895184
 40
0.8459420968
 40
0.8919295219
 40
0.9298762688
 40
0.9596359542
 40
0.9811248995
 40
0.9943474981
 40
0.9979799172
 40
1.0
 40
1.0
 40
1.0
 40
1.0
 10
-621.5918654531
 20
160.4498326807
 30
0.0
 10
-621.9551971514
 20
160.457096013
 30
0.0
 10
-622.6467425967
 20
160.4727576155
 30
0.0
 10
-623.6257561334
 20
160.5010438993
 30
0.0
 10
-624.3683778705
 20
160.5279633212
 30
0.0
 10
-624.8978602019
 20
160.5511163457
 30
0.0
 10
-625.2425597765
 20
160.5681657328
 30
0.0
 10
-625.5501609498
 20
160.5855159626
 30
0.0
 10
-625.8193708726
 20
160.6030429966
 30
0.0
 10
-626.0491380251
 20
160.6206533894
 30
0.0
 10
-626.2383873051
 20
160.6381335588
 30
0.0
 10
-626.3867474138
 20
160.655488994
 30
0.0
 10
-626.4928723247
 20
160.6719416152
 30
0.0
 10
-626.5561477088
 20
160.6870875684
 30
0.0
 10
-626.5846109675
 20
160.6992806185
 30
0.0
 10
-626.591863252
 20
160.70739497
 30
0.0
 10
-626.5918654531
 20
160.7107729601
 30
0.0
  0
SPLINE
  5
5F1
100
AcDbEntity
  8
0
100
AcDbSpline
 62
9
  6
CONTINUOUS
 70
0
 71
3
 72
11
 73
7
 74
0
 42
0.0000001
 43
0.0000001
 44
0.0000000001
 40
0.0
 40
0.0
 40
0.0
 40
0.0
 40
0.2499756255
 40
0.4999368199
 40
0.7499304011
 40
1.0
 40
1.0
 40
1.0
 40
1.0
 10
-626.5918654531
 20
205.0964540075
 30
0.0
 10
-626.591852934
 20
204.2102623287
 30
0.0
 10
-626.3649096364
 20
202.4297980205
 30
0.0
 10
-625.3641796046
 20
199.9364866465
 30
0.0
 10
-623.7630764616
 20
197.7776532348
 30
0.0
 10
-622.3540237049
 20
196.6616965077
 30
0.0
 10
-621.5918654531
 20
196.2088819044
 30
0.0
  0
SPLINE
  5
5F2
100
AcDbEntity
  8
0
100
AcDbSpline
 62
9
  6
CONTINUOUS
 70
0
 71
3
 72
11
 73
7
 74
0
 42
0.0000001
 43
0.0000001
 44
0.0000000001
 40
0.0
 40
0.0
 40
0.0
 40
0.0
 40
0.2500695989
 40
0.5000631801
 40
0.7500243745
 40
1.0
 40
1.0
 40
1.0
 40
1.0
 10
-621.5918654531
 20
111.2126640157
 30
0.0
 10
-622.3540237138
 20
110.7598494274
 30
0.0
 10
-623.7630764581
 20
109.643892679
 30
0.0
 10
-625.3641796052
 20
107.4850592754
 30
0.0
 10
-626.3649096376
 20
104.9917478991
 30
0.0
 10
-626.5918529307
 20
103.2112835914
 30
0.0
 10
-626.5918654531
 20
102.3250919126
 30
0.0
  0
SPLINE
  5
5F3
100
AcDbEntity
  8
0
100
AcDbSpline
 62
9
  6
CONTINUOUS
 70
0
 71
3
 72
21
 73
17
 74
0
 42
0.0000001
 43
0.0000001
 44
0.0000000001
 40
0.0
 40
0.0
 40
0.0
 40
0.0
 40
0.0020200828
 40
0.0056525019
 40
0.0188751005
 40
0.0403640459
 40
0.0701237312
 40
0.1080704781
 40
0.1540579032
 40
0.2079104816
 40
0.2694052173
 40
0.3382962662
 40
0.4142965493
 40
0.5863435899
 40
0.782679465
 40
1.0
 40
1.0
 40
1.0
 40
1.0
 10
-626.5918654531
 20
146.7107729601
 30
0.0
 10
-626.5918632521
 20
146.7141509501
 30
0.0
 10
-626.5846109677
 20
146.7222653017
 30
0.0
 10
-626.5561477089
 20
146.7344583518
 30
0.0
 10
-626.4928723247
 20
146.7496043049
 30
0.0
 10
-626.3867474137
 20
146.7660569261
 30
0.0
 10
-626.2383873051
 20
146.7834123613
 30
0.0
 10
-626.0491380251
 20
146.8008925307
 30
0.0
 10
-625.8193708726
 20
146.8185029235
 30
0.0
 10
-625.5501609498
 20
146.8360299576
 30
0.0
 10
-625.2425597765
 20
146.8533801874
 30
0.0
 10
-624.8978602019
 20
146.8704295743
 30
0.0
 10
-624.3683778705
 20
146.8935825987
 30
0.0
 10
-623.6257561334
 20
146.9205020214
 30
0.0
 10
-622.6467425967
 20
146.9487883036
 30
0.0
 10
-621.9551971515
 20
146.9644499084
 30
0.0
 10
-621.5918654531
 20
146.9717132394
 30
0.0
  0
SPLINE
  5
5F4
100
AcDbEntity
  8
0
100
AcDbSpline
 62
9
  6
CONTINUOUS
 70
0
 71
3
 72
9
 73
5
 74
0
 42
0.0000001
 43
0.0000001
 44
0.0000000001
 40
0.0
 40
0.0
 40
0.0
 40
0.0
 40
0.5001132241
 40
1.0
 40
1.0
 40
1.0
 40
1.0
 10
-598.5918654531
 20
123.6759258518
 30
0.0
 10
-599.4659466132
 20
123.6759062151
 30
0.0
 10
-601.2221538339
 20
123.4317447925
 30
0.0
 10
-602.8447459497
 20
122.7205012895
 30
0.0
 10
-603.5918654531
 20
122.2675790069
 30
0.0
  0
SPLINE
  5
5F5
100
AcDbEntity
  8
0
100
AcDbSpline
 62
9
  6
CONTINUOUS
 70
0
 71
3
 72
9
 73
5
 74
0
 42
0.0000001
 43
0.0000001
 44
0.0000000001
 40
0.0
 40
0.0
 40
0.0
 40
0.0
 40
0.4998867759
 40
1.0
 40
1.0
 40
1.0
 40
1.0
 10
-603.5918654531
 20
185.1539669132
 30
0.0
 10
-602.8447459513
 20
184.701044628
 30
0.0
 10
-601.2221538335
 20
183.9898011285
 30
0.0
 10
-599.4659466132
 20
183.7456397035
 30
0.0
 10
-598.5918654531
 20
183.7456200683
 30
0.0
  0
SPLINE
  5
5F6
100
AcDbEntity
  8
0
100
AcDbSpline
 62
9
  6
CONTINUOUS
 70
0
 71
3
 72
15
 73
11
 74
0
 42
0.0000001
 43
0.0000001
 44
0.0000000001
 40
0.0
 40
0.0
 40
0.0
 40
0.0
 40
0.1228352222
 40
0.2459072878
 40
0.3695550564
 40
0.4940121588
 40
0.6193964825
 40
0.7456715493
 40
0.8726389251
 40
1.0
 40
1.0
 40
1.0
 40
1.0
 10
-575.5918654531
 20
120.7600521789
 30
0.0
 10
-575.5918677045
 20
120.9500370832
 30
0.0
 10
-575.6301876563
 20
121.3314759478
 30
0.0
 10
-575.8007766406
 20
121.8808373406
 30
0.0
 10
-576.0782965056
 20
122.3877901273
 30
0.0
 10
-576.4526544254
 20
122.8326670786
 30
0.0
 10
-576.9098533375
 20
123.1983353456
 30
0.0
 10
-577.4326083962
 20
123.470414343
 30
0.0
 10
-578.0004780809
 20
123.6381796976
 30
0.0
 10
-578.3948805726
 20
123.6759103062
 30
0.0
 10
-578.5918654531
 20
123.6759258518
 30
0.0
  0
SPLINE
  5
5F7
100
AcDbEntity
  8
0
100
AcDbSpline
 62
9
  6
CONTINUOUS
 70
0
 71
3
 72
17
 73
13
 74
0
 42
0.0000001
 43
0.0000001
 44
0.0000000001
 40
0.0
 40
0.0
 40
0.0
 40
0.0
 40
0.3741990047
 40
0.5435490108
 40
0.6924171031
 40
0.7574420117
 40
0.815399698
 40
0.8658134346
 40
0.9083087701
 40
0.9426670359
 40
0.9689192207
 40
1.0
 40
1.0
 40
1.0
 40
1.0
 10
-578.5918654531
 20
147.1107729601
 30
0.0
 10
-578.2086932864
 20
147.1107792306
 30
0.0
 10
-577.651882225
 20
147.0968384786
 30
0.0
 10
-576.9445610583
 20
147.0464852301
 30
0.0
 10
-576.5542597791
 20
147.0043890788
 30
0.0
 10
-576.2788009539
 20
146.9638621358
 30
0.0
 10
-576.1040297563
 20
146.932653614
 30
0.0
 10
-575.9529352192
 20
146.8994433517
 30
0.0
 10
-575.8276086417
 20
146.8652535811
 30
0.0
 10
-575.7269123707
 20
146.8287575686
 30
0.0
 10
-575.6457795077
 20
146.789662722
 30
0.0
 10
-575.5918749349
 20
146.7425990443
 30
0.0
 10
-575.5918654531
 20
146.7107729601
 30
0.0
  0
SPLINE
  5
5F8
100
AcDbEntity
  8
0
100
AcDbSpline
 62
9
  6
CONTINUOUS
 70
0
 71
3
 72
14
 73
10
 74
0
 42
0.0000001
 43
0.0000001
 44
0.0000000001
 40
0.0
 40
0.0
 40
0.0
 40
0.0
 40
0.3194044034
 40
0.4657966148
 40
0.5993683779
 40
0.7184588948
 40
0.8229953364
 40
0.9151771319
 40
1.0
 40
1.0
 40
1.0
 40
1.0
 10
-621.5918654517
 20
146.971713239
 30
0.0
 10
-621.5766199946
 20
147.2014354104
 30
0.0
 10
-621.5253281863
 20
147.5361990564
 30
0.0
 10
-621.3912694488
 20
147.9477064679
 30
0.0
 10
-621.2682446543
 20
148.2087499582
 30
0.0
 10
-621.1233962172
 20
148.4231275467
 30
0.0
 10
-620.9600726183
 20
148.584470277
 30
0.0
 10
-620.7814772445
 20
148.6866849034
 30
0.0
 10
-620.6530059895
 20
148.7107729602
 30
0.0
 10
-620.5918654531
 20
148.7107729604
 30
0.0
  0
SPLINE
  5
5F9
100
AcDbEntity
  8
0
100
AcDbSpline
 62
9
  6
CONTINUOUS
 70
0
 71
3
 72
14
 73
10
 74
0
 42
0.0000001
 43
0.0000001
 44
0.0000000001
 40
0.0
 40
0.0
 40
0.0
 40
0.0
 40
0.3191314073
 40
0.4649071479
 40
0.5978916839
 40
0.7166632814
 40
0.8213316251
 40
0.9141606321
 40
1.0
 40
1.0
 40
1.0
 40
1.0
 10
-603.5918642522
 20
147.0468898763
 30
0.0
 10
-603.572702358
 20
147.2684876271
 30
0.0
 10
-603.5171959456
 20
147.5905621357
 30
0.0
 10
-603.3803995942
 20
147.9849737284
 30
0.0
 10
-603.2570770575
 20
148.2340983195
 30
0.0
 10
-603.1133152778
 20
148.438173728
 30
0.0
 10
-602.9522629439
 20
148.5913838724
 30
0.0
 10
-602.7770508855
 20
148.6880942966
 30
0.0
 10
-602.6516928286
 20
148.7107728329
 30
0.0
 10
-602.5918654531
 20
148.71077296
 30
0.0
  0
SPLINE
  5
5FA
100
AcDbEntity
  8
0
100
AcDbSpline
 62
9
  6
CONTINUOUS
 70
0
 71
3
 72
17
 73
13
 74
0
 42
0.0000001
 43
0.0000001
 44
0.0000000001
 40
0.0
 40
0.0
 40
0.0
 40
0.0
 40
0.0310807797
 40
0.0573329642
 40
0.09169123
 40
0.1341865655
 40
0.1846003021
 40
0.2425579884
 40
0.307582897
 40
0.4564509892
 40
0.6258009954
 40
1.0
 40
1.0
 40
1.0
 40
1.0
 10
-575.5918654531
 20
160.7107729601
 30
0.0
 10
-575.5918749341
 20
160.6789468755
 30
0.0
 10
-575.6457795072
 20
160.6318831967
 30
0.0
 10
-575.726912371
 20
160.592788352
 30
0.0
 10
-575.8276086419
 20
160.5562923399
 30
0.0
 10
-575.9529352191
 20
160.522102568
 30
0.0
 10
-576.1040297562
 20
160.4888923057
 30
0.0
 10
-576.278800954
 20
160.4576837846
 30
0.0
 10
-576.554259779
 20
160.4171568413
 30
0.0
 10
-576.9445610583
 20
160.3750606901
 30
0.0
 10
-577.651882225
 20
160.3247074413
 30
0.0
 10
-578.2086932864
 20
160.3107666898
 30
0.0
 10
-578.5918654531
 20
160.3107729601
 30
0.0
  0
SPLINE
  5
5FB
100
AcDbEntity
  8
0
100
AcDbSpline
 62
9
  6
CONTINUOUS
 70
0
 71
3
 72
15
 73
11
 74
0
 42
0.0000001
 43
0.0000001
 44
0.0000000001
 40
0.0
 40
0.0
 40
0.0
 40
0.0
 40
0.1273610749
 40
0.2543284507
 40
0.3806035175
 40
0.5059878412
 40
0.6304449436
 40
0.7540927122
 40
0.8771647776
 40
1.0
 40
1.0
 40
1.0
 40
1.0
 10
-578.5918654531
 20
183.7456200683
 30
0.0
 10
-578.3948805726
 20
183.7456356164
 30
0.0
 10
-578.0004780807
 20
183.7833662202
 30
0.0
 10
-577.4326083964
 20
183.9511315779
 30
0.0
 10
-576.9098533374
 20
184.2232105742
 30
0.0
 10
-576.4526544256
 20
184.5888788416
 30
0.0
 10
-576.0782965052
 20
185.0337557927
 30
0.0
 10
-575.8007766415
 20
185.5407085796
 30
0.0
 10
-575.630187655
 20
186.090069972
 30
0.0
 10
-575.5918677057
 20
186.4715088366
 30
0.0
 10
-575.5918654531
 20
186.6614937412
 30
0.0
  0
SPLINE
  5
5FC
100
AcDbEntity
  8
0
100
AcDbSpline
 62
9
  6
CONTINUOUS
 70
0
 71
3
 72
14
 73
10
 74
0
 42
0.0000001
 43
0.0000001
 44
0.0000000001
 40
0.0
 40
0.0
 40
0.0
 40
0.0
 40
0.3194042854
 40
0.4657964774
 40
0.599368253
 40
0.7184588095
 40
0.8229953041
 40
0.9151771399
 40
1.0
 40
1.0
 40
1.0
 40
1.0
 10
-621.5918635554
 20
160.4498331759
 30
0.0
 10
-621.5766181414
 20
160.220111232
 30
0.0
 10
-621.5253264568
 20
159.8853478929
 30
0.0
 10
-621.3912680432
 20
159.4738407602
 30
0.0
 10
-621.2682435182
 20
159.2127973218
 30
0.0
 10
-621.1233953782
 20
158.998419645
 30
0.0
 10
-620.9600720956
 20
158.8370766787
 30
0.0
 10
-620.7814770517
 20
158.7348616471
 30
0.0
 10
-620.6530059453
 20
158.7107731714
 30
0.0
 10
-620.5918654531
 20
158.7107729601
 30
0.0
  0
SPLINE
  5
5FD
100
AcDbEntity
  8
0
100
AcDbSpline
 62
9
  6
CONTINUOUS
 70
0
 71
3
 72
14
 73
10
 74
0
 42
0.0000001
 43
0.0000001
 44
0.0000000001
 40
0.0
 40
0.0
 40
0.0
 40
0.0
 40
0.3191314779
 40
0.4649072276
 40
0.5978917533
 40
0.716663325
 40
0.821331637
 40
0.9141606226
 40
1.0
 40
1.0
 40
1.0
 40
1.0
 10
-603.5918654499
 20
160.3746556413
 30
0.0
 10
-603.5727035245
 20
160.1530577605
 30
0.0
 10
-603.5171970295
 20
159.8309830795
 30
0.0
 10
-603.38040047
 20
159.4365713409
 30
0.0
 10
-603.2570777627
 20
159.1874467368
 30
0.0
 10
-603.1133157966
 20
158.9833713988
 30
0.0
 10
-602.9522632658
 20
158.8301614117
 30
0.0
 10
-602.7770510052
 20
158.7334512428
 30
0.0
 10
-602.6516928575
 20
158.7107729596
 30
0.0
 10
-602.5918654531
 20
158.7107729591
 30
0.0
  0
SPLINE
  5
5FE
100
AcDbEntity
  8
0
100
AcDbSpline
 62
7
  6
CONTINUOUS
 70
0
 71
3
 72
10
 73
6
 74
0
 42
0.0000001
 43
0.0000001
 44
0.0000000001
 40
0.0
 40
0.0
 40
0.0
 40
0.0
 40
0.2671990858
 40
0.5248156525
 40
1.0
 40
1.0
 40
1.0
 40
1.0
 10
-789.7465628362
 20
335.7107729601
 30
0.0
 10
-788.9828531576
 20
336.5839771348
 30
0.0
 10
-787.3684662995
 20
338.204116831
 30
0.0
 10
-783.941253525
 20
340.8754141619
 30
0.0
 10
-781.059272108
 20
342.3549342524
 30
0.0
 10
-779.0918654531
 20
342.9757728508
 30
0.0
  0
SPLINE
  5
5FF
100
AcDbEntity
  8
0
100
AcDbSpline
 62
9
  6
CONTINUOUS
 70
0
 71
3
 72
13
 73
9
 74
0
 42
0.0000001
 43
0.0000001
 44
0.0000000001
 40
0.0
 40
0.0
 40
0.0
 40
0.0
 40
0.0765909382
 40
0.1634541324
 40
0.266272226
 40
0.386680267
 40
0.6741485507
 40
1.0
 40
1.0
 40
1.0
 40
1.0
 10
-794.091708229
 20
66.3770799659
 30
0.0
 10
-794.091711901
 20
66.2566586673
 30
0.0
 10
-794.153003152
 20
65.9979021723
 30
0.0
 10
-794.3987151551
 20
65.6503964676
 30
0.0
 10
-794.780208294
 20
65.340121403
 30
0.0
 10
-795.4909085012
 20
64.9592556429
 30
0.0
 10
-796.6139485053
 20
64.6465222077
 30
0.0
 10
-797.5795404235
 20
64.5642434683
 30
0.0
 10
-798.0918654531
 20
64.5642423976
 30
0.0
  0
SPLINE
  5
600
100
AcDbEntity
  8
0
100
AcDbSpline
 62
9
  6
CONTINUOUS
 70
0
 71
3
 72
9
 73
5
 74
0
 42
0.0000001
 43
0.0000001
 44
0.0000000001
 40
0.0
 40
0.0
 40
0.0
 40
0.0
 40
0.5098305863
 40
1.0
 40
1.0
 40
1.0
 40
1.0
 10
-792.6940814802
 20
59.0160610532
 30
0.0
 10
-793.0912013802
 20
60.2298227386
 30
0.0
 10
-793.7688432175
 20
62.6449125323
 30
0.0
 10
-794.0916872678
 20
65.1492538725
 30
0.0
 10
-794.0918654531
 20
66.3770799841
 30
0.0
  0
SPLINE
  5
601
100
AcDbEntity
  8
0
100
AcDbSpline
 62
9
  6
CONTINUOUS
 70
0
 71
3
 72
24
 73
20
 74
0
 42
0.0000001
 43
0.0000001
 44
0.0000000001
 40
0.0
 40
0.0
 40
0.0
 40
0.0
 40
0.0107401478
 40
0.0214743468
 40
0.0281188872
 40
0.035977489
 40
0.0559219687
 40
0.0820993713
 40
0.1149088596
 40
0.1546147102
 40
0.2014178281
 40
0.2555813009
 40
0.3179154733
 40
0.3908401224
 40
0.4783228867
 40
0.5831485317
 40
0.7058944243
 40
0.8458184863
 40
1.0
 40
1.0
 40
1.0
 40
1.0
 10
-789.4959346931
 20
26.9054314964
 30
0.0
 10
-789.4038639626
 20
26.8167612891
 30
0.0
 10
-789.1690575199
 20
26.6706423973
 30
0.0
 10
-788.8173230947
 20
26.7354069686
 30
0.0
 10
-788.5557179088
 20
26.8825481133
 30
0.0
 10
-788.2312481358
 20
27.1360186636
 30
0.0
 10
-787.7998804352
 20
27.6166262965
 30
0.0
 10
-787.2569804844
 20
28.3843128585
 30
0.0
 10
-786.6597517629
 20
29.3972092368
 30
0.0
 10
-786.0241250441
 20
30.6682761896
 30
0.0
 10
-785.3886664943
 20
32.2193546751
 30
0.0
 10
-784.8325080956
 20
34.0862752752
 30
0.0
 10
-784.5130419711
 20
36.3303125522
 30
0.0
 10
-784.6851221811
 20
38.996181703
 30
0.0
 10
-785.5134483398
 20
42.0573217818
 30
0.0
 10
-786.9242157703
 20
45.5349337226
 30
0.0
 10
-788.7628637344
 20
49.5037741116
 30
0.0
 10
-790.8307567589
 20
54.0127847886
 30
0.0
 10
-792.1236423451
 20
57.2719590213
 30
0.0
 10
-792.6940814802
 20
59.0160610532
 30
0.0
  0
SPLINE
  5
602
100
AcDbEntity
  8
0
100
AcDbSpline
 62
9
  6
CONTINUOUS
 70
0
 71
3
 72
9
 73
5
 74
0
 42
0.0000001
 43
0.0000001
 44
0.0000000001
 40
0.0
 40
0.0
 40
0.0
 40
0.0
 40
0.2599968785
 40
1.0
 40
1.0
 40
1.0
 40
1.0
 10
-796.3213390874
 20
57.7107729601
 30
0.0
 10
-796.5803462983
 20
58.2694324394
 30
0.0
 10
-797.5088838458
 20
60.4425545091
 30
0.0
 10
-798.0912068627
 20
62.8116195839
 30
0.0
 10
-798.0918654531
 20
64.5642528357
 30
0.0
  0
SPLINE
  5
603
100
AcDbEntity
  8
0
100
AcDbSpline
 62
7
  6
CONTINUOUS
 70
0
 71
3
 72
10
 73
6
 74
0
 42
0.0000001
 43
0.0000001
 44
0.0000000001
 40
0.0
 40
0.0
 40
0.0
 40
0.0
 40
0.4992721231
 40
0.7496636653
 40
1.0
 40
1.0
 40
1.0
 40
1.0
 10
-794.0918654531
 20
323.5892586252
 30
0.0
 10
-794.0918654531
 20
325.7718932829
 30
0.0
 10
-793.5546732595
 20
329.0884695789
 30
0.0
 10
-791.7416161504
 20
333.0852687585
 30
0.0
 10
-790.4670324256
 20
334.8870082875
 30
0.0
 10
-789.7465628362
 20
335.7107729601
 30
0.0
  0
SPLINE
  5
604
100
AcDbEntity
  8
0
100
AcDbSpline
 62
7
  6
CONTINUOUS
 70
0
 71
3
 72
12
 73
8
 74
0
 42
0.0000001
 43
0.0000001
 44
0.0000000001
 40
0.0
 40
0.0
 40
0.0
 40
0.0
 40
0.1207029412
 40
0.2431658757
 40
0.4922629203
 40
0.7452044289
 40
1.0
 40
1.0
 40
1.0
 40
1.0
 10
-660.5918654531
 20
269.0891103188
 30
0.0
 10
-660.5918654531
 20
267.2431617617
 30
0.0
 10
-660.7618158917
 20
263.5237723953
 30
0.0
 10
-661.5779409555
 20
256.036935874
 30
0.0
 10
-663.2483836693
 20
246.624648995
 30
0.0
 10
-665.7935678575
 20
235.3326313825
 30
0.0
 10
-667.6570385348
 20
227.7942735333
 30
0.0
 10
-668.5918654531
 20
224.0113996404
 30
0.0
  0
SPLINE
  5
605
100
AcDbEntity
  8
0
100
AcDbSpline
 62
9
  6
CONTINUOUS
 70
0
 71
3
 72
22
 73
18
 74
0
 42
0.0000001
 43
0.0000001
 44
0.0000000001
 40
0.0
 40
0.0
 40
0.0
 40
0.0
 40
0.0297324971
 40
0.0505128325
 40
0.0760159904
 40
0.1065769687
 40
0.1424051203
 40
0.1836206087
 40
0.2303266412
 40
0.282924878
 40
0.3430291435
 40
0.4144455184
 40
0.5014046869
 40
0.6053877465
 40
0.7252822974
 40
0.8583882234
 40
1.0
 40
1.0
 40
1.0
 40
1.0
 10
-791.523059312
 20
27.7110769765
 30
0.0
 10
-791.1798884997
 20
27.7193718265
 30
0.0
 10
-790.6218183345
 20
28.0000836948
 30
0.0
 10
-789.9497668368
 20
28.5529324609
 30
0.0
 10
-789.3305532905
 20
29.1944397893
 30
0.0
 10
-788.6646494093
 20
30.0205210407
 30
0.0
 10
-787.9614867764
 20
31.0466280654
 30
0.0
 10
-787.2527041014
 20
32.2892245033
 30
0.0
 10
-786.5966120687
 20
33.7771710717
 30
0.0
 10
-786.1041230223
 20
35.5603061172
 30
0.0
 10
-785.9814318562
 20
37.7033080308
 30
0.0
 10
-786.4786459159
 20
40.20094059
 30
0.0
 10
-787.6583860217
 20
43.0038917533
 30
0.0
 10
-789.4185580418
 20
46.134703145
 30
0.0
 10
-791.6200584446
 20
49.6197632558
 30
0.0
 10
-794.0693987035
 20
53.4593246126
 30
0.0
 10
-795.6334465452
 20
56.227575817
 30
0.0
 10
-796.3213390874
 20
57.7107729601
 30
0.0
  0
SPLINE
  5
606
100
AcDbEntity
  8
0
100
AcDbSpline
 62
7
  6
CONTINUOUS
 70
0
 71
3
 72
12
 73
8
 74
0
 42
0.0000001
 43
0.0000001
 44
0.0000000001
 40
0.0
 40
0.0
 40
0.0
 40
0.0
 40
0.2547922752
 40
0.5077319199
 40
0.7568282744
 40
0.8792927526
 40
1.0
 40
1.0
 40
1.0
 40
1.0
 10
-707.5918654531
 20
224.0113996404
 30
0.0
 10
-708.5266802201
 20
227.7942243615
 30
0.0
 10
-710.390133478
 20
235.3325047524
 30
0.0
 10
-712.9352921768
 20
246.6244356571
 30
0.0
 10
-714.6057332761
 20
256.0367063766
 30
0.0
 10
-715.4218835617
 20
263.5236181481
 30
0.0
 10
-715.5918654531
 20
267.2430960212
 30
0.0
 10
-715.5918654531
 20
269.0891103188
 30
0.0
  0
SPLINE
  5
607
100
AcDbEntity
  8
0
100
AcDbSpline
 62
9
  6
CONTINUOUS
 70
0
 71
3
 72
15
 73
11
 74
0
 42
0.0000001
 43
0.0000001
 44
0.0000000001
 40
0.0
 40
0.0
 40
0.0
 40
0.0
 40
0.1212973494
 40
0.2432958587
 40
0.3663664689
 40
0.4907754323
 40
0.6165688478
 40
0.7435884005
 40
0.8715605219
 40
1.0
 40
1.0
 40
1.0
 40
1.0
 10
-637.0918654531
 20
328.7107729668
 30
0.0
 10
-637.0923829313
 20
329.6386848597
 30
0.0
 10
-637.285614595
 20
331.5054367437
 30
0.0
 10
-638.1440112762
 20
334.1930932568
 30
0.0
 10
-639.5382636858
 20
336.6739307789
 30
0.0
 10
-641.4143580101
 20
338.851218084
 30
0.0
 10
-643.7016137745
 20
340.6402558156
 30
0.0
 10
-646.312698806
 20
341.9716142452
 30
0.0
 10
-649.1463750357
 20
342.7915821682
 30
0.0
 10
-651.1129043035
 20
342.9758208832
 30
0.0
 10
-652.0954528782
 20
342.9757907411
 30
0.0
  0
SPLINE
  5
608
100
AcDbEntity
  8
0
100
AcDbSpline
 62
9
  6
CONTINUOUS
 70
0
 71
3
 72
15
 73
11
 74
0
 42
0.0000001
 43
0.0000001
 44
0.0000000001
 40
0.0
 40
0.0
 40
0.0
 40
0.0
 40
0.0375791062
 40
0.0653521542
 40
0.100441175
 40
0.1932456424
 40
0.314636058
 40
0.4612386231
 40
0.6283440414
 40
1.0
 40
1.0
 40
1.0
 40
1.0
 10
1769.7120394146
 20
343.4264521475
 30
0.0
 10
1769.6641504796
 20
343.4395711397
 30
0.0
 10
1769.6034672442
 20
343.5183549598
 30
0.0
 10
1769.5629922364
 20
343.6422630372
 30
0.0
 10
1769.5246824562
 20
343.8460131407
 30
0.0
 10
1769.514993969
 20
344.1758748842
 30
0.0
 10
1769.5429936565
 20
344.6522058842
 30
0.0
 10
1769.6142067311
 20
345.2229798166
 30
0.0
 10
1769.7679326646
 20
346.1156111002
 30
0.0
 10
1769.9298401711
 20
346.8096415785
 30
0.0
 10
1770.0557447766
 20
347.2842970751
 30
0.0
  0
SPLINE
  5
609
100
AcDbEntity
  8
0
100
AcDbSpline
 62
9
  6
CONTINUOUS
 70
0
 71
3
 72
16
 73
12
 74
0
 42
0.0000001
 43
0.0000001
 44
0.0000000001
 40
0.0
 40
0.0
 40
0.0
 40
0.0
 40
0.0082309984
 40
0.0240062622
 40
0.0818515858
 40
0.1743687456
 40
0.298099489
 40
0.4486061943
 40
0.6203066813
 40
0.806852629
 40
1.0
 40
1.0
 40
1.0
 40
1.0
 10
1767.5982192511
 20
343.7107729601
 30
0.0
 10
1767.5871568434
 20
343.7107729601
 30
0.0
 10
1767.561409084
 20
343.7388361363
 30
0.0
 10
1767.5254617796
 20
343.8388544025
 30
0.0
 10
1767.4808049641
 20
344.062271237
 30
0.0
 10
1767.4382837512
 20
344.4260476762
 30
0.0
 10
1767.3982197656
 20
344.9183381038
 30
0.0
 10
1767.3655934175
 20
345.5165018079
 30
0.0
 10
1767.3408890385
 20
346.199956468
 30
0.0
 10
1767.3258298597
 20
346.9408649098
 30
0.0
 10
1767.3223577372
 20
347.4511841636
 30
0.0
 10
1767.3223571914
 20
347.7107729601
 30
0.0
  0
SPLINE
  5
60A
100
AcDbEntity
  8
0
100
AcDbSpline
 62
9
  6
CONTINUOUS
 70
0
 71
3
 72
27
 73
23
 74
0
 42
0.0000001
 43
0.0000001
 44
0.0000000001
 40
0.0
 40
0.0
 40
0.0
 40
0.0
 40
0.1942819723
 40
0.3782560053
 40
0.5474479226
 40
0.6250947323
 40
0.6973128802
 40
0.7634684407
 40
0.822892139
 40
0.8748819704
 40
0.9187225096
 40
0.9373678588
 40
0.9537179873
 40
0.9677001953
 40
0.9792430352
 40
0.988278699
 40
0.9918432011
 40
0.9947677257
 40
0.9970489705
 40
0.9986836328
 40
0.9996684093
 40
1.0
 40
1.0
 40
1.0
 40
1.0
 10
1770.0557465845
 20
347.284297075
 30
0.0
 10
1771.4429737921
 20
346.8434186356
 30
0.0
 10
1774.1261632711
 20
345.9282644657
 30
0.0
 10
1777.9523001893
 20
344.4478238329
 30
0.0
 10
1780.9176013722
 20
343.1710570817
 30
0.0
 10
1783.088058315
 20
342.169202559
 30
0.0
 10
1784.5468185212
 20
341.468007289
 30
0.0
 10
1785.8731516822
 20
340.8068582705
 30
0.0
 10
1787.0560364302
 20
340.1979285361
 30
0.0
 10
1788.0840890067
 20
339.6537021331
 30
0.0
 10
1788.8381464323
 20
339.2450143799
 30
0.0
 10
1789.3556169379
 20
338.9602329738
 30
0.0
 10
1789.6764707216
 20
338.7821730248
 30
0.0
 10
1789.9503264096
 20
338.6290812635
 30
0.0
 10
1790.1759702087
 20
338.502089128
 30
0.0
 10
1790.3335384561
 20
338.4132028749
 30
0.0
 10
1790.4346546758
 20
338.3557977307
 30
0.0
 10
1790.4920212837
 20
338.3235846819
 30
0.0
 10
1790.5360301728
 20
338.297731102
 30
0.0
 10
1790.5691817875
 20
338.2807685298
 30
0.0
 10
1790.5861822795
 20
338.2676703335
 30
0.0
 10
1790.5970245356
 20
338.264979269
 30
0.0
 10
1790.5982192506
 20
338.262801052
 30
0.0
  0
SPLINE
  5
60B
100
AcDbEntity
  8
0
100
AcDbSpline
 62
9
  6
CONTINUOUS
 70
0
 71
3
 72
18
 73
14
 74
0
 42
0.0000001
 43
0.0000001
 44
0.0000000001
 40
0.0
 40
0.0
 40
0.0
 40
0.0
 40
0.194877919
 40
0.3823581454
 40
0.5551734106
 40
0.706747042
 40
0.8312059028
 40
0.8817220921
 40
0.923741444
 40
0.9568570276
 40
0.9807445221
 40
0.9951604152
 40
1.0
 40
1.0
 40
1.0
 40
1.0
 10
1766.642643647
 20
328.7107729601
 30
0.0
 10
1766.7065271824
 20
329.6850457544
 30
0.0
 10
1766.8286890075
 20
331.5968144153
 30
0.0
 10
1767.0068759703
 20
334.3725951353
 30
0.0
 10
1767.170128716
 20
336.9319284575
 30
0.0
 10
1767.3123981791
 20
339.1762110829
 30
0.0
 10
1767.4155953336
 20
340.8090093249
 30
0.0
 10
1767.4841091509
 20
341.894015629
 30
0.0
 10
1767.5233327633
 20
342.5223311567
 30
0.0
 10
1767.5552708262
 20
343.0173941749
 30
0.0
 10
1767.5758286371
 20
343.3746830051
 30
0.0
 10
1767.5926858678
 20
343.5901030553
 30
0.0
 10
1767.5952915723
 20
343.6867054372
 30
0.0
 10
1767.5982418047
 20
343.7107722648
 30
0.0
  0
SPLINE
  5
60C
100
AcDbEntity
  8
0
100
AcDbSpline
 62
9
  6
CONTINUOUS
 70
0
 71
3
 72
22
 73
18
 74
0
 42
0.0000001
 43
0.0000001
 44
0.0000000001
 40
0.0
 40
0.0
 40
0.0
 40
0.0
 40
0.194525135
 40
0.3817403441
 40
0.5544393633
 40
0.7060643611
 40
0.772093689
 40
0.8307058809
 40
0.8813385981
 40
0.9234759178
 40
0.9566982021
 40
0.9698611497
 40
0.9806706612
 40
0.9891012168
 40
0.9951407185
 40
0.9987775258
 40
1.0
 40
1.0
 40
1.0
 40
1.0
 10
1685.1578425328
 20
328.7107729668
 30
0.0
 10
1684.8330789189
 20
329.6335096378
 30
0.0
 10
1684.1945742776
 20
331.4438947972
 30
0.0
 10
1683.2785675772
 20
334.0772786508
 30
0.0
 10
1682.4405808395
 20
336.5093702683
 30
0.0
 10
1681.8056531064
 20
338.3668460438
 30
0.0
 10
1681.3589014467
 20
339.682333495
 30
0.0
 10
1681.0762363166
 20
340.5171902914
 30
0.0
 10
1680.8327222336
 20
341.2384595176
 30
0.0
 10
1680.6303877104
 20
341.8388598349
 30
0.0
 10
1680.4886051966
 20
342.2608558819
 30
0.0
 10
1680.3968782858
 20
342.5334249702
 30
0.0
 10
1680.3454131068
 20
342.6880965565
 30
0.0
 10
1680.3040728984
 20
342.8081471295
 30
0.0
 10
1680.2772804662
 20
342.8955839623
 30
0.0
 10
1680.2561216284
 20
342.945620671
 30
0.0
 10
1680.2522565257
 20
342.9708004573
 30
0.0
 10
1680.248665958
 20
342.9757904396
 30
0.0
  0
SPLINE
  5
60D
100
AcDbEntity
  8
0
100
AcDbSpline
 62
9
  6
CONTINUOUS
 70
0
 71
3
 72
21
 73
17
 74
0
 42
0.0000001
 43
0.0000001
 44
0.0000000001
 40
0.0
 40
0.0
 40
0.0
 40
0.0
 40
0.0012175237
 40
0.0048409263
 40
0.0108588906
 40
0.019260099
 40
0.0431526788
 40
0.076274553
 40
0.1183005633
 40
0.1688229627
 40
0.2273364982
 40
0.2932900732
 40
0.4448635898
 40
0.6176705604
 40
0.8051372088
 40
1.0
 40
1.0
 40
1.0
 40
1.0
 10
1769.7120160892
 20
343.4264615926
 30
0.0
 10
1769.7097602471
 20
343.4207931917
 30
0.0
 10
1769.7074091992
 20
343.396279124
 30
0.0
 10
1769.6941829873
 20
343.3436724448
 30
0.0
 10
1769.677517531
 20
343.2546737858
 30
0.0
 10
1769.6384344733
 20
343.0667974681
 30
0.0
 10
1769.5736115616
 20
342.7454270824
 30
0.0
 10
1769.4741060035
 20
342.2592588988
 30
0.0
 10
1769.3481078925
 20
341.6422720256
 30
0.0
 10
1769.1961775873
 20
340.9007362819
 30
0.0
 10
1769.0198004985
 20
340.0418172695
 30
0.0
 10
1768.7407686077
 20
338.6870660614
 30
0.0
 10
1768.343877574
 20
336.7718649549
 30
0.0
 10
1767.8196244242
 20
334.2612445265
 30
0.0
 10
1767.2461200315
 20
331.5393175016
 30
0.0
 10
1766.8461190236
 20
329.6657581132
 30
0.0
 10
1766.6426436476
 20
328.7107729627
 30
0.0
  0
SPLINE
  5
60E
100
AcDbEntity
  8
0
100
AcDbSpline
 62
9
  6
CONTINUOUS
 70
0
 71
3
 72
18
 73
14
 74
0
 42
0.0000001
 43
0.0000001
 44
0.0000000001
 40
0.0
 40
0.0
 40
0.0
 40
0.0
 40
0.0048556645
 40
0.0193170681
 40
0.0432760606
 40
0.0764816578
 40
0.1186013444
 40
0.1692176651
 40
0.2938375237
 40
0.4454629917
 40
0.6181839925
 40
0.8054350155
 40
1.0
 40
1.0
 40
1.0
 40
1.0
 10
1683.5981819548
 20
343.7107722428
 30
0.0
 10
1683.602968212
 20
343.6868368778
 30
0.0
 10
1683.6073379334
 20
343.5894004379
 30
0.0
 10
1683.6348256196
 20
343.3737899962
 30
0.0
 10
1683.6685220175
 20
343.0151502258
 30
0.0
 10
1683.7207462177
 20
342.5188542237
 30
0.0
 10
1683.7849049131
 20
341.8889860662
 30
0.0
 10
1683.896885375
 20
340.8021118321
 30
0.0
 10
1684.0654511104
 20
339.1676546326
 30
0.0
 10
1684.2976915474
 20
336.9227034906
 30
0.0
 10
1684.5640256005
 20
334.3647512072
 30
0.0
 10
1684.8545312991
 20
331.5922971554
 30
0.0
 10
1685.0537251374
 20
329.6832853167
 30
0.0
 10
1685.1578425352
 20
328.7107729601
 30
0.0
  0
SPLINE
  5
60F
100
AcDbEntity
  8
0
100
AcDbSpline
 62
9
  6
CONTINUOUS
 70
0
 71
3
 72
11
 73
7
 74
0
 42
0.0000001
 43
0.0000001
 44
0.0000000001
 40
0.0
 40
0.0
 40
0.0
 40
0.0
 40
0.2499189279
 40
0.4998912222
 40
0.7499274344
 40
1.0
 40
1.0
 40
1.0
 40
1.0
 10
956.0515762769
 20
-372.1264012419
 30
0.0
 10
955.920259212
 20
-372.1264147549
 30
0.0
 10
955.6545897908
 20
-372.1807413612
 30
0.0
 10
955.3222039629
 20
-372.41071908
 30
0.0
 10
955.1025196029
 20
-372.74951959
 30
0.0
 10
955.0515889815
 20
-373.0150342168
 30
0.0
 10
955.0515762769
 20
-373.1464320089
 30
0.0
  0
SPLINE
  5
610
100
AcDbEntity
  8
0
100
AcDbSpline
 62
9
  6
CONTINUOUS
 70
0
 71
3
 72
11
 73
7
 74
0
 42
0.0000001
 43
0.0000001
 44
0.0000000001
 40
0.0
 40
0.0
 40
0.0
 40
0.0
 40
0.2500076391
 40
0.5000132834
 40
0.7500120516
 40
1.0
 40
1.0
 40
1.0
 40
1.0
 10
1002.0515762769
 20
-390.76499312
 30
0.0
 10
1002.0515502814
 20
-390.0639381406
 30
0.0
 10
1001.8685349647
 20
-388.6551462035
 30
0.0
 10
1001.0626982105
 20
-386.6877652081
 30
0.0
 10
999.7793165307
 20
-384.9925868726
 30
0.0
 10
998.656891632
 20
-384.1208761988
 30
0.0
 10
998.0515762769
 20
-383.7673313067
 30
0.0
  0
SPLINE
  5
611
100
AcDbEntity
  8
0
100
AcDbSpline
 62
9
  6
CONTINUOUS
 70
0
 71
3
 72
11
 73
7
 74
0
 42
0.0000001
 43
0.0000001
 44
0.0000000001
 40
0.0
 40
0.0
 40
0.0
 40
0.0
 40
0.2499933243
 40
0.499983367
 40
0.7499820412
 40
1.0
 40
1.0
 40
1.0
 40
1.0
 10
1004.0515762769
 20
-390.76499312
 30
0.0
 10
1004.0515614256
 20
-389.8913265702
 30
0.0
 10
1003.8225309131
 20
-388.1355857012
 30
0.0
 10
1002.814005859
 20
-385.6852453945
 30
0.0
 10
1001.2089176495
 20
-383.5765907002
 30
0.0
 10
999.8070736622
 20
-382.4939880779
 30
0.0
 10
999.0515762769
 20
-382.055049154
 30
0.0
  0
SPLINE
  5
612
100
AcDbEntity
  8
0
100
AcDbSpline
 62
9
  6
CONTINUOUS
 70
0
 71
3
 72
11
 73
7
 74
0
 42
0.0000001
 43
0.0000001
 44
0.0000000001
 40
0.0
 40
0.0
 40
0.0
 40
0.0
 40
0.249997869
 40
0.4999941046
 40
0.7499974034
 40
1.0
 40
1.0
 40
1.0
 40
1.0
 10
998.0515762769
 20
-291.8997583791
 30
0.0
 10
998.5371397454
 20
-291.6161566533
 30
0.0
 10
999.4510053163
 20
-290.9439034065
 30
0.0
 10
1000.5789258281
 20
-289.6734489893
 30
0.0
 10
1001.419436849
 20
-288.1971590986
 30
0.0
 10
1001.7647715771
 20
-287.1168080235
 30
0.0
 10
1001.87969361
 20
-286.566347574
 30
0.0
  0
SPLINE
  5
613
100
AcDbEntity
  8
0
100
AcDbSpline
 62
9
  6
CONTINUOUS
 70
0
 71
3
 72
11
 73
7
 74
0
 42
0.0000001
 43
0.0000001
 44
0.0000000001
 40
0.0
 40
0.0
 40
0.0
 40
0.0
 40
0.2500725656
 40
0.5001087778
 40
0.7500810721
 40
1.0
 40
1.0
 40
1.0
 40
1.0
 10
955.0515762769
 20
-302.5206576769
 30
0.0
 10
955.051588981
 20
-302.6520554691
 30
0.0
 10
955.1025196029
 20
-302.9175700959
 30
0.0
 10
955.3222039629
 20
-303.2563706058
 30
0.0
 10
955.6545897907
 20
-303.4863483245
 30
0.0
 10
955.920259212
 20
-303.5406749315
 30
0.0
 10
956.0515762769
 20
-303.540688444
 30
0.0
  0
SPLINE
  5
614
100
AcDbEntity
  8
0
100
AcDbSpline
 62
9
  6
CONTINUOUS
 70
0
 71
3
 72
13
 73
9
 74
0
 42
0.0000001
 43
0.0000001
 44
0.0000000001
 40
0.0
 40
0.0
 40
0.0
 40
0.0
 40
0.3169932927
 40
0.5916847026
 40
0.7098922341
 40
0.8154290943
 40
0.9106952854
 40
1.0
 40
1.0
 40
1.0
 40
1.0
 10
999.0515744379
 20
-351.7930266869
 30
0.0
 10
999.0226145134
 20
-351.5943678521
 30
0.0
 10
998.9376449014
 20
-351.2272326835
 30
0.0
 10
998.7455471829
 20
-350.8145131555
 30
0.0
 10
998.5477696697
 20
-350.566541336
 30
0.0
 10
998.3923943976
 20
-350.4348720694
 30
0.0
 10
998.2257053246
 20
-350.3526111791
 30
0.0
 10
998.1081348497
 20
-350.3335450346
 30
0.0
 10
998.0515762769
 20
-350.3335448429
 30
0.0
  0
SPLINE
  5
615
100
AcDbEntity
  8
0
100
AcDbSpline
 62
9
  6
CONTINUOUS
 70
0
 71
3
 72
13
 73
9
 74
0
 42
0.0000001
 43
0.0000001
 44
0.0000000001
 40
0.0
 40
0.0
 40
0.0
 40
0.0
 40
0.3134656258
 40
0.5850108021
 40
0.7030130921
 40
0.8096802506
 40
0.9073908826
 40
1.0
 40
1.0
 40
1.0
 40
1.0
 10
981.0515762496
 20
-351.6373018422
 30
0.0
 10
981.0158399883
 20
-351.4568738345
 30
0.0
 10
980.9212313056
 20
-351.1248243266
 30
0.0
 10
980.7247835917
 20
-350.7561340461
 30
0.0
 10
980.5302925642
 20
-350.5376086999
 30
0.0
 10
980.3789021653
 20
-350.4218251826
 30
0.0
 10
980.2181550484
 20
-350.3500325232
 30
0.0
 10
980.1059167559
 20
-350.3335448392
 30
0.0
 10
980.0515762769
 20
-350.3335448359
 30
0.0
  0
SPLINE
  5
616
100
AcDbEntity
  8
0
100
AcDbSpline
 62
9
  6
CONTINUOUS
 70
0
 71
3
 72
19
 73
15
 74
0
 42
0.0000001
 43
0.0000001
 44
0.0000000001
 40
0.0
 40
0.0
 40
0.0
 40
0.0
 40
0.2171785819
 40
0.4127758934
 40
0.5837054793
 40
0.7273893233
 40
0.8417684511
 40
0.8874742901
 40
0.9253383606
 40
0.9552821768
 40
0.9773341752
 40
0.9854754907
 40
0.9918020772
 40
1.0
 40
1.0
 40
1.0
 40
1.0
 10
999.0515762769
 20
-351.7930256929
 30
0.0
 10
999.4176429444
 20
-351.8081845233
 30
0.0
 10
1000.1132507156
 20
-351.8408468722
 30
0.0
 10
1001.0962234848
 20
-351.8998081633
 30
0.0
 10
1001.9545664359
 20
-351.9644722397
 30
0.0
 10
1002.6750611025
 20
-352.033048878
 30
0.0
 10
1003.1838717481
 20
-352.095184114
 30
0.0
 10
1003.5136998459
 20
-352.1477171715
 30
0.0
 10
1003.7017891454
 20
-352.1838560338
 30
0.0
 10
1003.8491879496
 20
-352.2198437037
 30
0.0
 10
1003.9457895961
 20
-352.2509070847
 30
0.0
 10
1004.0018065601
 20
-352.2778208909
 30
0.0
 10
1004.0333835474
 20
-352.2977898896
 30
0.0
 10
1004.051572594
 20
-352.3197149428
 30
0.0
 10
1004.0515762769
 20
-352.3335448429
 30
0.0
  0
SPLINE
  5
617
100
AcDbEntity
  8
0
100
AcDbSpline
 62
9
  6
CONTINUOUS
 70
0
 71
3
 72
11
 73
7
 74
0
 42
0.0000001
 43
0.0000001
 44
0.0000000001
 40
0.0
 40
0.0
 40
0.0
 40
0.0
 40
0.2500272899
 40
0.5000244469
 40
0.7500162778
 40
1.0
 40
1.0
 40
1.0
 40
1.0
 10
999.0515762769
 20
-293.6120405319
 30
0.0
 10
999.5505523393
 20
-293.322138782
 30
0.0
 10
1000.5001048487
 20
-292.6542576326
 30
0.0
 10
1001.7290572079
 20
-291.4233176502
 30
0.0
 10
1002.7287695335
 20
-290.000081371
 30
0.0
 10
1003.2233410052
 20
-288.9500472194
 30
0.0
 10
1003.4235823284
 20
-288.4089303195
 30
0.0
  0
SPLINE
  5
618
100
AcDbEntity
  8
0
100
AcDbSpline
 62
9
  6
CONTINUOUS
 70
0
 71
3
 72
19
 73
15
 74
0
 42
0.0000001
 43
0.0000001
 44
0.0000000001
 40
0.0
 40
0.0
 40
0.0
 40
0.0
 40
0.0081979229
 40
0.0145245094
 40
0.0226658249
 40
0.0447178234
 40
0.0746616395
 40
0.11252571
 40
0.158231549
 40
0.2726106768
 40
0.4162945207
 40
0.5872241067
 40
0.782821418
 40
1.0
 40
1.0
 40
1.0
 40
1.0
 10
1004.0515762769
 20
-323.3335448429
 30
0.0
 10
1004.0515725949
 20
-323.3473747432
 30
0.0
 10
1004.0333835485
 20
-323.3692997975
 30
0.0
 10
1004.0018065604
 20
-323.3892687953
 30
0.0
 10
1003.945789596
 20
-323.4161826008
 30
0.0
 10
1003.8491879495
 20
-323.447245982
 30
0.0
 10
1003.7017891454
 20
-323.4832336525
 30
0.0
 10
1003.513699846
 20
-323.5193725142
 30
0.0
 10
1003.183871748
 20
-323.5719055714
 30
0.0
 10
1002.6750611028
 20
-323.6340408097
 30
0.0
 10
1001.9545664355
 20
-323.7026174426
 30
0.0
 10
1001.0962234852
 20
-323.7672815285
 30
0.0
 10
1000.1132507151
 20
-323.8262428042
 30
0.0
 10
999.417642945
 20
-323.8589051737
 30
0.0
 10
999.0515762769
 20
-323.8740639929
 30
0.0
  0
SPLINE
  5
619
100
AcDbEntity
  8
0
100
AcDbSpline
 62
9
  6
CONTINUOUS
 70
0
 71
3
 72
9
 73
5
 74
0
 42
0.0000001
 43
0.0000001
 44
0.0000000001
 40
0.0
 40
0.0
 40
0.0
 40
0.0
 40
0.4807303897
 40
1.0
 40
1.0
 40
1.0
 40
1.0
 10
981.0515762769
 20
-324.0297878627
 30
0.0
 10
980.2512285345
 20
-324.0740787259
 30
0.0
 10
978.5848861079
 20
-324.1402323808
 30
0.0
 10
976.9174090946
 20
-324.1621235945
 30
0.0
 10
976.0515762769
 20
-324.1621162715
 30
0.0
  0
SPLINE
  5
61A
100
AcDbEntity
  8
0
100
AcDbSpline
 62
9
  6
CONTINUOUS
 70
0
 71
3
 72
9
 73
5
 74
0
 42
0.0000001
 43
0.0000001
 44
0.0000000001
 40
0.0
 40
0.0
 40
0.0
 40
0.0
 40
0.5192696103
 40
1.0
 40
1.0
 40
1.0
 40
1.0
 10
976.0515762769
 20
-351.5049734144
 30
0.0
 10
976.9174090945
 20
-351.504966089
 30
0.0
 10
978.5848861071
 20
-351.5268573167
 30
0.0
 10
980.2512285358
 20
-351.5930109349
 30
0.0
 10
981.0515762769
 20
-351.6373018232
 30
0.0
  0
SPLINE
  5
61B
100
AcDbEntity
  8
0
100
AcDbSpline
 62
9
  6
CONTINUOUS
 70
0
 71
3
 72
13
 73
9
 74
0
 42
0.0000001
 43
0.0000001
 44
0.0000000001
 40
0.0
 40
0.0
 40
0.0
 40
0.0
 40
0.3134655815
 40
0.5850107845
 40
0.703013101
 40
0.8096802814
 40
0.9073909155
 40
1.0
 40
1.0
 40
1.0
 40
1.0
 10
981.0515749652
 20
-324.0297869493
 30
0.0
 10
981.0158387525
 20
-324.2102148839
 30
0.0
 10
980.9212301973
 20
-324.5422643037
 30
0.0
 10
980.7247827875
 20
-324.9109545877
 30
0.0
 10
980.5302920388
 20
-325.1294801162
 30
0.0
 10
980.3789018408
 20
-325.2452638422
 30
0.0
 10
980.2181549213
 20
-325.3170567867
 30
0.0
 10
980.1059167203
 20
-325.3335447167
 30
0.0
 10
980.0515762769
 20
-325.3335448429
 30
0.0
  0
SPLINE
  5
61C
100
AcDbEntity
  8
0
100
AcDbSpline
 62
9
  6
CONTINUOUS
 70
0
 71
3
 72
13
 73
9
 74
0
 42
0.0000001
 43
0.0000001
 44
0.0000000001
 40
0.0
 40
0.0
 40
0.0
 40
0.0
 40
0.3169933856
 40
0.591684778
 40
0.7098922706
 40
0.8154290887
 40
0.9106952584
 40
1.0
 40
1.0
 40
1.0
 40
1.0
 10
999.0515762612
 20
-323.8740639844
 30
0.0
 10
999.0226162706
 20
-324.0727229685
 30
0.0
 10
998.9376464827
 20
-324.4398583415
 30
0.0
 10
998.7455483425
 20
-324.8525779754
 30
0.0
 10
998.5477704239
 20
-325.1005496012
 30
0.0
 10
998.3923948623
 20
-325.2322185943
 30
0.0
 10
998.2257054996
 20
-325.3144790776
 30
0.0
 10
998.1081348945
 20
-325.3335448452
 30
0.0
 10
998.0515762769
 20
-325.3335448472
 30
0.0
  0
SPLINE
  5
61D
100
AcDbEntity
  8
0
100
AcDbSpline
 62
9
  6
CONTINUOUS
 70
0
 71
3
 72
15
 73
11
 74
0
 42
0.0000001
 43
0.0000001
 44
0.0000000001
 40
0.0
 40
0.0
 40
0.0
 40
0.0
 40
0.124502162
 40
0.2490536402
 40
0.3737445436
 40
0.4986208128
 40
0.6237104556
 40
0.7490061563
 40
0.8744547952
 40
1.0
 40
1.0
 40
1.0
 40
1.0
 10
953.0515762769
 20
-302.5206576769
 30
0.0
 10
953.0515838357
 20
-302.7152568993
 30
0.0
 10
953.0901732325
 20
-303.1056247162
 30
0.0
 10
953.2617692653
 20
-303.6678173988
 30
0.0
 10
953.5404816636
 20
-304.1862409976
 30
0.0
 10
953.9157695472
 20
-304.6406882169
 30
0.0
 10
954.3732332949
 20
-305.013770795
 30
0.0
 10
954.8954260502
 20
-305.2910396303
 30
0.0
 10
955.4619622113
 20
-305.4618495018
 30
0.0
 10
955.855346759
 20
-305.5002689656
 30
0.0
 10
956.0515762769
 20
-305.5002802382
 30
0.0
  0
SPLINE
  5
61E
100
AcDbEntity
  8
0
100
AcDbSpline
 62
9
  6
CONTINUOUS
 70
0
 71
3
 72
17
 73
13
 74
0
 42
0.0000001
 43
0.0000001
 44
0.0000000001
 40
0.0
 40
0.0
 40
0.0
 40
0.0
 40
0.1811776806
 40
0.3557574582
 40
0.5175482759
 40
0.6610540054
 40
0.7819050001
 40
0.8773765525
 40
0.9155544223
 40
0.9478569101
 40
0.9753669476
 40
1.0
 40
1.0
 40
1.0
 40
1.0
 10
956.0515762769
 20
-324.1621162715
 30
0.0
 10
955.8554148546
 20
-324.162124046
 30
0.0
 10
955.4701466273
 20
-324.151458623
 30
0.0
 10
954.9114790025
 20
-324.1040539377
 30
0.0
 10
954.3971912221
 20
-324.027713192
 30
0.0
 10
953.946445443
 20
-323.9262374244
 30
0.0
 10
953.5758885321
 20
-323.8043679037
 30
0.0
 10
953.3263976467
 20
-323.6828932344
 30
0.0
 10
953.1820899646
 20
-323.5748543478
 30
0.0
 10
953.1086593765
 20
-323.4973080913
 30
0.0
 10
953.0625890158
 20
-323.4170123139
 30
0.0
 10
953.0515774246
 20
-323.360215096
 30
0.0
 10
953.0515762769
 20
-323.3335448429
 30
0.0
  0
SPLINE
  5
61F
100
AcDbEntity
  8
0
100
AcDbSpline
 62
9
  6
CONTINUOUS
 70
0
 71
3
 72
17
 73
13
 74
0
 42
0.0000001
 43
0.0000001
 44
0.0000000001
 40
0.0
 40
0.0
 40
0.0
 40
0.0
 40
0.0246330537
 40
0.052143091
 40
0.0844455775
 40
0.1226234474
 40
0.2180950001
 40
0.3389459947
 40
0.4824517242
 40
0.6442425419
 40
0.8188223195
 40
1.0
 40
1.0
 40
1.0
 40
1.0
 10
953.0515762769
 20
-352.3335448429
 30
0.0
 10
953.0515774239
 20
-352.3068745884
 30
0.0
 10
953.0625890145
 20
-352.250077369
 30
0.0
 10
953.1086593757
 20
-352.1697815917
 30
0.0
 10
953.1820899667
 20
-352.0922353401
 30
0.0
 10
953.326397646
 20
-351.9841964521
 30
0.0
 10
953.5758885318
 20
-351.8627217815
 30
0.0
 10
953.9464454432
 20
-351.740852262
 30
0.0
 10
954.397191222
 20
-351.6393764932
 30
0.0
 10
954.9114790026
 20
-351.5630357493
 30
0.0
 10
955.4701466272
 20
-351.5156310606
 30
0.0
 10
955.8554148546
 20
-351.5049656411
 30
0.0
 10
956.0515762769
 20
-351.5049734144
 30
0.0
  0
SPLINE
  5
620
100
AcDbEntity
  8
0
100
AcDbSpline
 62
9
  6
CONTINUOUS
 70
0
 71
3
 72
15
 73
11
 74
0
 42
0.0000001
 43
0.0000001
 44
0.0000000001
 40
0.0
 40
0.0
 40
0.0
 40
0.0
 40
0.1255452048
 40
0.2509938437
 40
0.3762895444
 40
0.5013791872
 40
0.6262554564
 40
0.7509463598
 40
0.875497838
 40
1.0
 40
1.0
 40
1.0
 40
1.0
 10
956.0515762769
 20
-370.1668094477
 30
0.0
 10
955.855346759
 20
-370.1668207209
 30
0.0
 10
955.4619622113
 20
-370.2052401837
 30
0.0
 10
954.8954260502
 20
-370.3760500556
 30
0.0
 10
954.3732332949
 20
-370.6533188908
 30
0.0
 10
953.9157695473
 20
-371.026401469
 30
0.0
 10
953.5404816634
 20
-371.4808486882
 30
0.0
 10
953.2617692656
 20
-371.9992722871
 30
0.0
 10
953.090173232
 20
-372.5614649696
 30
0.0
 10
953.0515838363
 20
-372.9518327865
 30
0.0
 10
953.0515762769
 20
-373.1464320089
 30
0.0
  0
SPLINE
  5
621
100
AcDbEntity
  8
0
100
AcDbSpline
 62
9
  6
CONTINUOUS
 70
0
 71
3
 72
15
 73
11
 74
0
 42
0.0000001
 43
0.0000001
 44
0.0000000001
 40
0.0
 40
0.0
 40
0.0
 40
0.0
 40
0.1284268863
 40
0.2559828329
 40
0.38215721
 40
0.5068691451
 40
0.630440465
 40
0.7534193408
 40
0.8764193209
 40
1.0
 40
1.0
 40
1.0
 40
1.0
 10
1065.5515762769
 20
-395.57058188
 30
0.0
 10
1067.2547223944
 20
-395.5702715127
 30
0.0
 10
1070.6566812141
 20
-395.2793637094
 30
0.0
 10
1075.5815226812
 20
-393.98679346
 30
0.0
 10
1080.1715628392
 20
-391.8967882217
 30
0.0
 10
1084.2949593369
 20
-389.0862223841
 30
0.0
 10
1087.8474981721
 20
-385.6422958932
 30
0.0
 10
1090.7406197954
 20
-381.6554904885
 30
0.0
 10
1092.8942057998
 20
-377.2260634918
 30
0.0
 10
1093.7860071942
 20
-374.0583892162
 30
0.0
 10
1094.0868795627
 20
-372.4473659811
 30
0.0
  0
SPLINE
  5
622
100
AcDbEntity
  8
0
100
AcDbSpline
 62
9
  6
CONTINUOUS
 70
0
 71
3
 72
15
 73
11
 74
0
 42
0.0000001
 43
0.0000001
 44
0.0000000001
 40
0.0
 40
0.0
 40
0.0
 40
0.0
 40
0.1235822074
 40
0.2465829572
 40
0.3695625242
 40
0.4931347969
 40
0.6178462807
 40
0.7440196761
 40
0.8715742126
 40
1.0
 40
1.0
 40
1.0
 40
1.0
 10
1037.0162729911
 20
-372.447365981
 30
0.0
 10
1037.3171508462
 20
-374.0584087873
 30
0.0
 10
1038.2089601786
 20
-377.2261130359
 30
0.0
 10
1040.362578499
 20
-381.6555691126
 30
0.0
 10
1043.2557331683
 20
-385.6423906853
 30
0.0
 10
1046.8083015912
 20
-389.0863088086
 30
0.0
 10
1050.9317029853
 20
-391.8968587284
 30
0.0
 10
1055.5217258096
 20
-393.9868038809
 30
0.0
 10
1060.446517467
 20
-395.2793889453
 30
0.0
 10
1063.8484447593
 20
-395.5702489172
 30
0.0
 10
1065.5515762769
 20
-395.57058188
 30
0.0
  0
SPLINE
  5
623
100
AcDbEntity
  8
0
100
AcDbSpline
 62
7
  6
CONTINUOUS
 70
0
 71
3
 72
11
 73
7
 74
0
 42
0.0000001
 43
0.0000001
 44
0.0000000001
 40
0.0
 40
0.0
 40
0.0
 40
0.0
 40
0.2114312651
 40
0.4527061915
 40
0.7176908604
 40
1.0
 40
1.0
 40
1.0
 40
1.0
 10
1167.2062736599
 20
-278.3335448429
 30
0.0
 10
1166.377584681
 20
-278.3335448429
 30
0.0
 10
1164.608240042
 20
-278.6766205406
 30
0.0
 10
1161.992607938
 20
-279.7235492546
 30
0.0
 10
1159.2682012146
 20
-281.195147389
 30
0.0
 10
1157.4646773235
 20
-282.3589989736
 30
0.0
 10
1156.5515762769
 20
-282.983951347
 30
0.0
  0
SPLINE
  5
624
100
AcDbEntity
  8
0
100
AcDbSpline
 62
7
  6
CONTINUOUS
 70
0
 71
3
 72
13
 73
9
 74
0
 42
0.0000001
 43
0.0000001
 44
0.0000000001
 40
0.0
 40
0.0
 40
0.0
 40
0.0
 40
0.2869706632
 40
0.5567193174
 40
0.6819216384
 40
0.7986018994
 40
0.9050899724
 40
1.0
 40
1.0
 40
1.0
 40
1.0
 10
1156.5515762769
 20
-372.4473659811
 30
0.0
 10
1157.5787677564
 20
-373.1940179923
 30
0.0
 10
1159.5986289963
 20
-374.6055596698
 30
0.0
 10
1162.1746332334
 20
-376.1849585437
 30
0.0
 10
1164.1945649255
 20
-377.2103843907
 30
0.0
 10
1165.6183330035
 20
-377.8071636437
 30
0.0
 10
1166.9687952124
 20
-378.2132412886
 30
0.0
 10
1167.8597288259
 20
-378.3335448429
 30
0.0
 10
1168.2797193415
 20
-378.3335448429
 30
0.0
  0
SPLINE
  5
625
100
AcDbEntity
  8
0
100
AcDbSpline
 62
9
  6
CONTINUOUS
 70
0
 71
3
 72
13
 73
9
 74
0
 42
0.0000001
 43
0.0000001
 44
0.0000000001
 40
0.0
 40
0.0
 40
0.0
 40
0.0
 40
0.359875821
 40
0.5225172282
 40
0.666283201
 40
0.7870965556
 40
0.8824660106
 40
1.0
 40
1.0
 40
1.0
 40
1.0
 10
1037.0162729911
 20
-372.4473650069
 30
0.0
 10
1037.5010525077
 20
-372.3656533162
 30
0.0
 10
1038.2110871428
 20
-372.2789265729
 30
0.0
 10
1039.1220117424
 20
-372.2490284113
 30
0.0
 10
1039.7040272782
 20
-372.2691124208
 30
0.0
 10
1040.1978942654
 20
-372.3362743636
 30
0.0
 10
1040.6236763465
 20
-372.4445504887
 30
0.0
 10
1040.923559581
 20
-372.6330826865
 30
0.0
 10
1040.9521868688
 20
-372.7910703689
 30
0.0
  0
SPLINE
  5
626
100
AcDbEntity
  8
0
100
AcDbSpline
 62
9
  6
CONTINUOUS
 70
0
 71
3
 72
18
 73
14
 74
0
 42
0.0000001
 43
0.0000001
 44
0.0000000001
 40
0.0
 40
0.0
 40
0.0
 40
0.0
 40
0.1855310214
 40
0.3642316084
 40
0.5294560574
 40
0.675350612
 40
0.7969671397
 40
0.8475516064
 40
0.8909437782
 40
0.9271362394
 40
0.9564962946
 40
0.9800542945
 40
1.0
 40
1.0
 40
1.0
 40
1.0
 10
1029.5549046814
 20
-372.4473418841
 30
0.0
 10
1028.5781775039
 20
-372.4473041453
 30
0.0
 10
1026.6604467474
 20
-372.4104293919
 30
0.0
 10
1023.8773004415
 20
-372.2447962685
 30
0.0
 10
1021.3115615667
 20
-371.9756097623
 30
0.0
 10
1019.0613263373
 20
-371.6131972991
 30
0.0
 10
1017.4289432912
 20
-371.2264484363
 30
0.0
 10
1016.3521937838
 20
-370.8649076672
 30
0.0
 10
1015.7207346882
 20
-370.59638058
 30
0.0
 10
1015.2187289029
 20
-370.3157416691
 30
0.0
 10
1014.8487655443
 20
-370.0226503673
 30
0.0
 10
1014.6119796963
 20
-369.7132043853
 30
0.0
 10
1014.5518430088
 20
-369.4829729725
 30
0.0
 10
1014.5515762769
 20
-369.3779692399
 30
0.0
  0
SPLINE
  5
627
100
AcDbEntity
  8
0
100
AcDbSpline
 62
9
  6
CONTINUOUS
 70
0
 71
3
 72
19
 73
15
 74
0
 42
0.0000001
 43
0.0000001
 44
0.0000000001
 40
0.0
 40
0.0
 40
0.0
 40
0.0
 40
0.0079215014
 40
0.0146289995
 40
0.0234811924
 40
0.0478686273
 40
0.0811637522
 40
0.1231451918
 40
0.1734644117
 40
0.2972173604
 40
0.4478609218
 40
0.6196633292
 40
0.806126245
 40
1.0
 40
1.0
 40
1.0
 40
1.0
 10
1014.5515762769
 20
-369.3779692393
 30
0.0
 10
1014.5518990624
 20
-369.4178667529
 30
0.0
 10
1014.6195709081
 20
-369.4766329169
 30
0.0
 10
1014.7220022239
 20
-369.5256149285
 30
0.0
 10
1014.9136698088
 20
-369.5948697007
 30
0.0
 10
1015.2390940763
 20
-369.6710380712
 30
0.0
 10
1015.7343469906
 20
-369.7573779345
 30
0.0
 10
1016.3614693198
 20
-369.8397946523
 30
0.0
 10
1017.4439840734
 20
-369.9527222267
 30
0.0
 10
1019.0753557475
 20
-370.0727101577
 30
0.0
 10
1021.3200270186
 20
-370.1859314284
 30
0.0
 10
1023.8820196534
 20
-370.2700292121
 30
0.0
 10
1026.6626092262
 20
-370.3219530951
 30
0.0
 10
1028.5783024107
 20
-370.3335548163
 30
0.0
 10
1029.5548008701
 20
-370.3335674606
 30
0.0
  0
SPLINE
  5
628
100
AcDbEntity
  8
0
100
AcDbSpline
 62
9
  6
CONTINUOUS
 70
0
 71
3
 72
10
 73
6
 74
0
 42
0.0000001
 43
0.0000001
 44
0.0000000001
 40
0.0
 40
0.0
 40
0.0
 40
0.0
 40
0.2056677444
 40
0.4420438396
 40
1.0
 40
1.0
 40
1.0
 40
1.0
 10
1016.0520101167
 20
-285.7243986748
 30
0.0
 10
1016.3524184345
 20
-285.5209846803
 30
0.0
 10
1017.0334955834
 20
-285.135681694
 30
0.0
 10
1018.6573878846
 20
-284.4414532441
 30
0.0
 10
1020.0140470046
 20
-284.0645546549
 30
0.0
 10
1020.9743606961
 20
-283.8488785506
 30
0.0
  0
SPLINE
  5
629
100
AcDbEntity
  8
0
100
AcDbSpline
 62
9
  6
CONTINUOUS
 70
0
 71
3
 72
9
 73
5
 74
0
 42
0.0000001
 43
0.0000001
 44
0.0000000001
 40
0.0
 40
0.0
 40
0.0
 40
0.0
 40
0.5477480574
 40
1.0
 40
1.0
 40
1.0
 40
1.0
 10
1025.5955227905
 20
-286.3879397375
 30
0.0
 10
1024.2265261794
 20
-286.4262970724
 30
0.0
 10
1021.7282277402
 20
-286.5346202257
 30
0.0
 10
1019.2349852816
 20
-286.7419647607
 30
0.0
 10
1018.1125375953
 20
-286.8788616347
 30
0.0
  0
SPLINE
  5
62A
100
AcDbEntity
  8
0
100
AcDbSpline
 62
9
  6
CONTINUOUS
 70
0
 71
3
 72
13
 73
9
 74
0
 42
0.0000001
 43
0.0000001
 44
0.0000000001
 40
0.0
 40
0.0
 40
0.0
 40
0.0
 40
0.3598821509
 40
0.5225259244
 40
0.6662930258
 40
0.7871060193
 40
0.8824736522
 40
1.0
 40
1.0
 40
1.0
 40
1.0
 10
1094.0868795644
 20
-372.4473520885
 30
0.0
 10
1093.6020926656
 20
-372.3656427719
 30
0.0
 10
1092.892047772
 20
-372.2789223815
 30
0.0
 10
1091.9811124806
 20
-372.2490348593
 30
0.0
 10
1091.3990954266
 20
-372.2691254804
 30
0.0
 10
1090.9052311824
 20
-372.3362924432
 30
0.0
 10
1090.4794674638
 20
-372.4445662167
 30
0.0
 10
1090.179590739
 20
-372.6330934761
 30
0.0
 10
1090.1509770667
 20
-372.7910724314
 30
0.0
  0
ELLIPSE
  5
62B
100
AcDbEntity
  8
02___PRT_ALL_AXES
100
AcDbEllipse
 62
7
  6
CONTINUOUS
 10
176.0722304873
 20
57.7107729601
 30
0.0
 11
65.0
 21
0.0
 31
0.0
 40
0.4615384615
 41
0.0
 42
6.2831853072
  0
ELLIPSE
  5
62C
100
AcDbEntity
  8
02___PRT_ALL_AXES
100
AcDbEllipse
 62
7
  6
CONTINUOUS
 10
176.0722304873
 20
143.7107729601
 30
0.0
 11
65.0
 21
0.0
 31
0.0
 40
0.4615384615
 41
0.0
 42
6.2831853072
  0
ENDSEC
  0
SECTION
  2
OBJECTS
  0
DICTIONARY
  5
C
100
AcDbDictionary
280
0
281
1
  3
ACAD_GROUP
350
D
  3
ACAD_MLINESTYLE
350
17
  3
ACAD_LAYOUT
350
1A
  3
ACAD_PLOTSETTINGS
350
19
  3
ACAD_PLOTSTYLENAME
350
E
  0
DICTIONARY
  5
D
102
{ACAD_REACTORS
330
C
102
}
100
AcDbDictionary
280
0
281
1
  0
ACDBDICTIONARYWDFLT
  5
E
102
{ACAD_REACTORS
330
C
102
}
100
AcDbDictionary
281
1
  3
Normal
350
F
100
AcDbDictionaryWithDefault
340
F
  0
DICTIONARY
  5
17
102
{ACAD_REACTORS
330
C
102
}
100
AcDbDictionary
280
0
281
1
  3
Standard
350
18
  0
DICTIONARY
  5
19
102
{ACAD_REACTORS
330
C
102
}
100
AcDbDictionary
281
1
  0
DICTIONARY
  5
1A
102
{ACAD_REACTORS
330
C
102
}
100
AcDbDictionary
281
1
  3
Model
350
62D
  3
Layout1
350
62E
  0
ACDBPLACEHOLDER
  5
F
102
{ACAD_REACTORS
330
E
102
}
  0
MLINESTYLE
  5
18
102
{ACAD_REACTORS
330
17
102
}
100
AcDbMlineStyle
  2
STANDARD
 70
0
  3

 62
256
 51
90.0
 52
90.0
 71
2
 49
0.5
 62
256
  6
BYLAYER
 49
-0.5
 62
256
  6
BYLAYER
  0
LAYOUT
  5
62D
102
{ACAD_REACTORS
330
1A
102
}
100
AcDbPlotSettings
  1

  2
none_device
  4

  6

 40
0.0
 41
0.0
 42
0.0
 43
0.0
 44
210.0
 45
297.0
 46
0.0
 47
0.0
 48
0.0
 49
0.0
140
0.0
141
0.0
142
1.0
143
1.0
 70
1024
 72
1
 73
0
 74
0
  7

 75
0
147
1.0
148
0.0
149
0.0
100
AcDbLayout
  1
Model
 70
0
 71
0
 10
0.0
 20
0.0
 11
210.0
 21
297.0
 12
0.0
 22
0.0
 32
0.0
 14
0.0
 24
0.0
 34
0.0
 15
0.0
 25
0.0
 35
0.0
146
0.0
 13
0.0
 23
0.0
 33
0.0
 16
1.0
 26
0.0
 36
0.0
 17
0.0
 27
1.0
 37
0.0
 76
0
330
21B
345
0
346
0
  0
LAYOUT
  5
62E
102
{ACAD_REACTORS
330
1A
102
}
100
AcDbPlotSettings
  1

  2
none_device
  4

  6

 40
0.0
 41
0.0
 42
0.0
 43
0.0
 44
210.0
 45
297.0
 46
0.0
 47
0.0
 48
0.0
 49
0.0
140
0.0
141
0.0
142
1.0
143
1.0
 70
0
 72
1
 73
0
 74
0
  7

 75
0
147
1.0
148
0.0
149
0.0
100
AcDbLayout
  1
Layout1
 70
0
 71
1
 10
0.0
 20
0.0
 11
210.0
 21
297.0
 12
0.0
 22
0.0
 32
0.0
 14
0.0
 24
0.0
 34
0.0
 15
0.0
 25
0.0
 35
0.0
146
0.0
 13
0.0
 23
0.0
 33
0.0
 16
1.0
 26
0.0
 36
0.0
 17
0.0
 27
1.0
 37
0.0
 76
0
330
21C
345
0
346
0
  0
ENDSEC
  0
EOF
