999
DXF file: s_63_t_2.dxf
999
Pro/ENGINEER 2011370 by Parametric Technology Corporation
  0
SECTION
  2
HEADER
  9
$ACADVER
  1
AC1015
  9
$DWGCODEPAGE
  3
ANSI_1252
  9
$EXTMAX
 10
210.0
 20
297.0
 30
0.0
  9
$EXTMIN
 10
0.0
 20
0.0
 30
0.0
  9
$LIMMIN
 10
0.0
 20
0.0
  9
$LIMMAX
 10
210.0
 20
297.0
  9
$VIEWCTR
 10
105.0
 20
148.5
  9
$VIEWSIZE
 40
297.0
  9
$CLAYER
  8
0
  9
$LTSCALE
 40
19.36
  9
$CELTYPE
  6
BYLAYER
  9
$DIMSCALE
 40
1.0
  9
$DIMASZ
 40
2.0
  9
$DIMEXO
 40
2.2
  9
$DIMDLI
 40
13.376
  9
$DIMEXE
 40
6.336
  9
$DIMCEN
 40
3.168
  9
$DIMLFAC
 40
1.0
  9
$DIMBLK
  1
_FILLED
  9
$DIMTXT
 40
2.0
  9
$DIMTOL
 70
0
  9
$DIMLIM
 70
0
  9
$DIMTFAC
 40
1.0
  9
$PDMODE
 70
3
  9
$PDSIZE
 40
0.3125
  9
$HANDSEED
  5
5C9
  9
$TILEMODE
 70
1
  9
$MEASUREMENT
 70
1
  9
$INSUNITS
 70
4
  0
ENDSEC
  0
SECTION
  2
CLASSES
  0
CLASS
  1
ACDBDICTIONARYWDFLT
  2
AcDbDictionaryWithDefault
  3
AutoCAD 2000
 90
0
280
0
281
0
  0
CLASS
  1
ACDBPLACEHOLDER
  2
AcDbPlaceHolder
  3
AutoCAD 2000
 90
0
280
0
281
0
  0
CLASS
  1
LAYOUT
  2
AcDbLayout
  3
AutoCAD 2000
 90
0
280
0
281
0
  0
ENDSEC
  0
SECTION
  2
TABLES
  0
TABLE
  2
VPORT
  5
8
100
AcDbSymbolTable
 70
2
  0
VPORT
  5
1F4
100
AcDbSymbolTableRecord
100
AcDbViewportTableRecord
  2
*ACTIVE
 70
0
 10
0.0
 20
0.0
 11
1.0
 21
1.0
 12
105.0
 22
148.5
 13
0.0
 23
0.0
 14
1.0
 24
1.0
 15
0.0
 25
0.0
 16
0.0
 26
0.0
 36
1.0
 17
0.0
 27
0.0
 37
0.0
 40
297.0
 41
0.7070707071
 42
50.0
 43
0.0
 44
0.0
 50
0.0
 51
0.0
 71
0
 72
100
 73
1
 74
1
 75
0
 76
0
 77
0
 78
0
  0
ENDTAB
  0
TABLE
  2
LTYPE
  5
5
100
AcDbSymbolTable
 70
6
  0
LTYPE
  5
14
100
AcDbSymbolTableRecord
100
AcDbLinetypeTableRecord
  2
BYBLOCK
 70
0
  3

 72
65
 73
0
 40
0.0
  0
LTYPE
  5
15
100
AcDbSymbolTableRecord
100
AcDbLinetypeTableRecord
  2
BYLAYER
 70
0
  3

 72
65
 73
0
 40
0.0
  0
LTYPE
  5
16
100
AcDbSymbolTableRecord
100
AcDbLinetypeTableRecord
  2
CONTINUOUS
 70
64
  3
Solid line
 72
65
 73
0
 40
0.0
  0
LTYPE
  5
1F5
100
AcDbSymbolTableRecord
100
AcDbLinetypeTableRecord
  2
CENTER
 70
64
  3
____ _ ____ _ ____ _ ____ _ ____ _ ____ _ ____
 72
65
 73
4
 40
0.6
 49
0.375
 74
0
 49
-0.075
 74
0
 49
0.075
 74
0
 49
-0.075
 74
0
  0
LTYPE
  5
1F6
100
AcDbSymbolTableRecord
100
AcDbLinetypeTableRecord
  2
HIDDEN
 70
64
  3
- - - - - - - - - - - - - - - - - - - -
 72
65
 73
2
 40
0.2
 49
0.1
 74
0
 49
-0.1
 74
0
  0
LTYPE
  5
1F7
100
AcDbSymbolTableRecord
100
AcDbLinetypeTableRecord
  2
PHANTOM
 70
64
  3
_____ _ _ _____ _ _ _____ _ _ _____
 72
65
 73
6
 40
0.8
 49
0.45
 74
0
 49
-0.05
 74
0
 49
0.1
 74
0
 49
-0.05
 74
0
 49
0.1
 74
0
 49
-0.05
 74
0
  0
LTYPE
  5
1F8
100
AcDbSymbolTableRecord
100
AcDbLinetypeTableRecord
  2
DOT
 70
64
  3
. . . . . . . . . . . . . . . . . . . .
 72
65
 73
2
 40
0.2
 49
0.1
 74
0
 49
-0.1
 74
0
  0
LTYPE
  5
1F9
100
AcDbSymbolTableRecord
100
AcDbLinetypeTableRecord
  2
DASHED
 70
64
  3
- - - - - - - - - - - - - - - - - - - -
 72
65
 73
2
 40
0.2
 49
0.1
 74
0
 49
-0.1
 74
0
  0
ENDTAB
  0
TABLE
  2
LAYER
  5
2
100
AcDbSymbolTable
 70
36
  0
LAYER
  5
10
100
AcDbSymbolTableRecord
100
AcDbLayerTableRecord
  2
0
 70
0
 62
7
  6
CONTINUOUS
370
-3
390
F
  0
LAYER
  5
1FA
100
AcDbSymbolTableRecord
100
AcDbLayerTableRecord
  2
DEFAULT_1
 70
0
 62
7
  6
CENTER
370
-3
390
F
  0
LAYER
  5
1FB
100
AcDbSymbolTableRecord
100
AcDbLayerTableRecord
  2
DEFAULT_2
 70
0
 62
8
  6
HIDDEN
370
-3
390
F
  0
LAYER
  5
1FC
100
AcDbSymbolTableRecord
100
AcDbLayerTableRecord
  2
DEFAULT_3
 70
0
 62
7
  6
PHANTOM
370
-3
390
F
  0
LAYER
  5
1FD
100
AcDbSymbolTableRecord
100
AcDbLayerTableRecord
  2
01___PRT_ALL_DTM_PLN
 70
0
 62
7
  6
CONTINUOUS
370
-3
390
F
  0
LAYER
  5
1FE
100
AcDbSymbolTableRecord
100
AcDbLayerTableRecord
  2
01___PRT_DEF_DTM_PLN
 70
0
 62
7
  6
CONTINUOUS
370
-3
390
F
  0
LAYER
  5
1FF
100
AcDbSymbolTableRecord
100
AcDbLayerTableRecord
  2
02___PRT_ALL_AXES
 70
0
 62
7
  6
CONTINUOUS
370
-3
390
F
  0
LAYER
  5
200
100
AcDbSymbolTableRecord
100
AcDbLayerTableRecord
  2
03___PRT_ALL_CURVES
 70
0
 62
7
  6
CONTINUOUS
370
-3
390
F
  0
LAYER
  5
201
100
AcDbSymbolTableRecord
100
AcDbLayerTableRecord
  2
04___PRT_ALL_DTM_PNT
 70
0
 62
7
  6
CONTINUOUS
370
-3
390
F
  0
LAYER
  5
202
100
AcDbSymbolTableRecord
100
AcDbLayerTableRecord
  2
05___PRT_ALL_DTM_CSYS
 70
0
 62
7
  6
CONTINUOUS
370
-3
390
F
  0
LAYER
  5
203
100
AcDbSymbolTableRecord
100
AcDbLayerTableRecord
  2
05___PRT_DEF_DTM_CSYS
 70
0
 62
7
  6
CONTINUOUS
370
-3
390
F
  0
LAYER
  5
204
100
AcDbSymbolTableRecord
100
AcDbLayerTableRecord
  2
06___PRT_ALL_SURFS
 70
0
 62
7
  6
CONTINUOUS
370
-3
390
F
  0
LAYER
  5
205
100
AcDbSymbolTableRecord
100
AcDbLayerTableRecord
  2
1_ALL_PLANES
 70
0
 62
7
  6
CONTINUOUS
370
-3
390
F
  0
LAYER
  5
206
100
AcDbSymbolTableRecord
100
AcDbLayerTableRecord
  2
1_SISCO
 70
0
 62
7
  6
CONTINUOUS
370
-3
390
F
  0
LAYER
  5
207
100
AcDbSymbolTableRecord
100
AcDbLayerTableRecord
  2
1__DEF_ASM_PLN
 70
0
 62
7
  6
CONTINUOUS
370
-3
390
F
  0
LAYER
  5
208
100
AcDbSymbolTableRecord
100
AcDbLayerTableRecord
  2
1__DEF_PLANES
 70
0
 62
7
  6
CONTINUOUS
370
-3
390
F
  0
LAYER
  5
209
100
AcDbSymbolTableRecord
100
AcDbLayerTableRecord
  2
2_ALL_CSYS
 70
0
 62
7
  6
CONTINUOUS
370
-3
390
F
  0
LAYER
  5
20A
100
AcDbSymbolTableRecord
100
AcDbLayerTableRecord
  2
2_PIANI
 70
0
 62
7
  6
CONTINUOUS
370
-3
390
F
  0
LAYER
  5
20B
100
AcDbSymbolTableRecord
100
AcDbLayerTableRecord
  2
2__DEF_ASM_CSYS
 70
0
 62
7
  6
CONTINUOUS
370
-3
390
F
  0
LAYER
  5
20C
100
AcDbSymbolTableRecord
100
AcDbLayerTableRecord
  2
2__DEF_CSYS
 70
0
 62
7
  6
CONTINUOUS
370
-3
390
F
  0
LAYER
  5
20D
100
AcDbSymbolTableRecord
100
AcDbLayerTableRecord
  2
3_ALL_AXES
 70
0
 62
7
  6
CONTINUOUS
370
-3
390
F
  0
LAYER
  5
20E
100
AcDbSymbolTableRecord
100
AcDbLayerTableRecord
  2
3_PUNTI
 70
0
 62
7
  6
CONTINUOUS
370
-3
390
F
  0
LAYER
  5
20F
100
AcDbSymbolTableRecord
100
AcDbLayerTableRecord
  2
4_ALL_POINTS
 70
0
 62
7
  6
CONTINUOUS
370
-3
390
F
  0
LAYER
  5
210
100
AcDbSymbolTableRecord
100
AcDbLayerTableRecord
  2
4_CURVE
 70
0
 62
7
  6
CONTINUOUS
370
-3
390
F
  0
LAYER
  5
211
100
AcDbSymbolTableRecord
100
AcDbLayerTableRecord
  2
5_ALL_CURVES
 70
0
 62
7
  6
CONTINUOUS
370
-3
390
F
  0
LAYER
  5
212
100
AcDbSymbolTableRecord
100
AcDbLayerTableRecord
  2
5_SUPERFICI
 70
0
 62
7
  6
CONTINUOUS
370
-3
390
F
  0
LAYER
  5
213
100
AcDbSymbolTableRecord
100
AcDbLayerTableRecord
  2
6_ALL_SURFS
 70
0
 62
7
  6
CONTINUOUS
370
-3
390
F
  0
LAYER
  5
214
100
AcDbSymbolTableRecord
100
AcDbLayerTableRecord
  2
7_ALL_QUILTS
 70
0
 62
7
  6
CONTINUOUS
370
-3
390
F
  0
LAYER
  5
215
100
AcDbSymbolTableRecord
100
AcDbLayerTableRecord
  2
8_ALL_CGFEAT
 70
0
 62
7
  6
CONTINUOUS
370
-3
390
F
  0
LAYER
  5
216
100
AcDbSymbolTableRecord
100
AcDbLayerTableRecord
  2
9_ALL_THREAD
 70
0
 62
7
  6
CONTINUOUS
370
-3
390
F
  0
LAYER
  5
217
100
AcDbSymbolTableRecord
100
AcDbLayerTableRecord
  2
ASSI_FORI
 70
0
 62
7
  6
CONTINUOUS
370
-3
390
F
  0
LAYER
  5
218
100
AcDbSymbolTableRecord
100
AcDbLayerTableRecord
  2
FILETTATURE
 70
0
 62
7
  6
CONTINUOUS
370
-3
390
F
  0
ENDTAB
  0
TABLE
  2
STYLE
  5
3
100
AcDbSymbolTable
 70
1
  0
STYLE
  5
11
100
AcDbSymbolTableRecord
100
AcDbTextStyleTableRecord
  2
STANDARD
 70
0
 40
0.0
 41
1.0
 50
0.0
 71
0
 42
0.2
  3
arial.ttf
  4

  0
STYLE
  5
219
100
AcDbSymbolTableRecord
100
AcDbTextStyleTableRecord
  2
TEXTSTYLE_1
 70
0
 40
0.0
 41
0.8
 50
0.0
 71
0
 42
0.2
  3
gdt
  4

  0
ENDTAB
  0
TABLE
  2
VIEW
  5
6
100
AcDbSymbolTable
 70
0
  0
ENDTAB
  0
TABLE
  2
UCS
  5
7
100
AcDbSymbolTable
 70
0
  0
ENDTAB
  0
TABLE
  2
APPID
  5
9
100
AcDbSymbolTable
 70
1
  0
APPID
  5
21A
100
AcDbSymbolTableRecord
100
AcDbRegAppTableRecord
  2
ACAD
 70
0
  0
ENDTAB
  0
TABLE
  2
BLOCK_RECORD
  5
1
100
AcDbSymbolTable
 70
0
  0
BLOCK_RECORD
  5
21B
100
AcDbSymbolTableRecord
100
AcDbBlockTableRecord
  2
*Model_Space
  0
BLOCK_RECORD
  5
21C
100
AcDbSymbolTableRecord
100
AcDbBlockTableRecord
  2
*Paper_Space
  0
ENDTAB
  0
TABLE
  2
DIMSTYLE
  5
A
100
AcDbSymbolTable
 70
1
100
AcDbDimStyleTable
 71
0
  0
DIMSTYLE
105
21D
100
AcDbSymbolTableRecord
100
AcDbDimStyleTableRecord
  2
STANDARD
 70
0
  3

  4

 40
1.0
 41
2.0
 42
0.0625
 43
0.38
 44
0.18
 45
0.0
 46
0.0
 47
0.01
 48
0.01
140
2.0
141
0.09
142
0.0
143
25.4
144
1.0
145
0.0
146
1.0
147
0.09
 71
0.0
 72
0.0
 73
1
 74
1
 75
0
 76
0
 77
0
 78
8
170
0
171
2
172
0
173
0
174
0
175
0
176
0
177
0
178
0
270
2
271
2
272
2
273
2
274
2
275
0
280
0
281
0
282
0
283
1
284
8
285
0
286
0
287
3
288
0
340
11
  0
ENDTAB
  0
ENDSEC
  0
SECTION
  2
BLOCKS
  0
BLOCK
  5
20
100
AcDbEntity
  8
0
100
AcDbBlockBegin
  2
*Model_Space
 70
0
 10
0.0
 20
0.0
 30
0.0
  3
*Model_Space
  1

  0
ENDBLK
  5
21
100
AcDbEntity
  8
0
100
AcDbBlockEnd
  0
BLOCK
  5
1C
100
AcDbEntity
  8
0
100
AcDbBlockBegin
  2
*Paper_Space
 70
0
 10
0.0
 20
0.0
 30
0.0
  3
*Paper_Space
  1

  0
ENDBLK
  5
1D
100
AcDbEntity
  8
0
100
AcDbBlockEnd
  0
ENDSEC
  0
SECTION
  2
ENTITIES
  0
LINE
  5
21E
100
AcDbEntity
  8
0
100
AcDbLine
 62
7
  6
CONTINUOUS
 10
623.4277888876
 20
59.0038358384
 11
631.712039497
 21
50.7195835622
  0
LINE
  5
21F
100
AcDbEntity
  8
0
100
AcDbLine
 62
7
  6
CONTINUOUS
 10
617.5699262733
 20
236.5774652805
 11
617.5699262733
 21
73.1459701987
  0
LINE
  5
220
100
AcDbEntity
  8
0
100
AcDbLine
 62
9
  6
CONTINUOUS
 10
623.4277888882
 20
59.0038358377
 11
623.4277888882
 21
250.7195996415
  0
LINE
  5
221
100
AcDbEntity
  8
0
100
AcDbLine
 62
9
  6
CONTINUOUS
 10
631.7120394945
 20
259.0038519143
 11
631.7120394945
 21
50.7195835649
  0
LINE
  5
222
100
AcDbEntity
  8
0
100
AcDbLine
 62
9
  6
CONTINUOUS
 10
645.8541765554
 20
264.8617177394
 11
645.8541765554
 21
44.8617177398
  0
LINE
  5
223
100
AcDbEntity
  8
0
100
AcDbLine
 62
7
  6
CONTINUOUS
 10
682.5699262733
 20
54.8617177396
 11
692.5699262733
 21
44.8617177396
  0
LINE
  5
224
100
AcDbEntity
  8
0
100
AcDbLine
 62
7
  6
CONTINUOUS
 10
682.5699262733
 20
264.8604285082
 11
682.5699262733
 21
44.863006971
  0
LINE
  5
225
100
AcDbEntity
  8
0
100
AcDbLine
 62
7
  6
CONTINUOUS
 10
623.4277888876
 20
250.7195996408
 11
631.712039497
 21
259.0038519171
  0
LINE
  5
226
100
AcDbEntity
  8
0
100
AcDbLine
 62
7
  6
CONTINUOUS
 10
692.5699262733
 20
264.8617177396
 11
692.5699262733
 21
44.8617177396
  0
LINE
  5
227
100
AcDbEntity
  8
0
100
AcDbLine
 62
3
  6
CONTINUOUS
 10
711.0699262733
 20
42.8617177396
 11
711.0699262733
 21
25.8617177396
  0
LINE
  5
228
100
AcDbEntity
  8
0
100
AcDbLine
 62
7
  6
CONTINUOUS
 10
711.0699262733
 20
22.8617177396
 11
711.0699262733
 21
25.8617177396
  0
LINE
  5
229
100
AcDbEntity
  8
0
100
AcDbLine
 62
7
  6
CONTINUOUS
 10
715.5699262733
 20
42.8617177396
 11
715.5699262733
 21
54.8617177396
  0
LINE
  5
22A
100
AcDbEntity
  8
0
100
AcDbLine
 62
9
  6
CONTINUOUS
 10
726.0699262733
 20
22.8617177396
 11
726.0699262733
 21
25.8617177396
  0
LINE
  5
22B
100
AcDbEntity
  8
0
100
AcDbLine
 62
7
  6
CONTINUOUS
 10
682.5699262733
 20
254.8617177396
 11
692.5699262733
 21
264.8617177396
  0
LINE
  5
22C
100
AcDbEntity
  8
0
100
AcDbLine
 62
7
  6
CONTINUOUS
 10
1100.0699262733
 20
22.8617177396
 11
1070.0699262733
 21
22.8617177396
  0
LINE
  5
22D
100
AcDbEntity
  8
0
100
AcDbLine
 62
7
  6
CONTINUOUS
 10
711.0699262733
 20
22.8617177396
 11
896.0699262733
 21
22.8617177396
  0
LINE
  5
22E
100
AcDbEntity
  8
0
100
AcDbLine
 62
7
  6
CONTINUOUS
 10
1161.0699262733
 20
23.8617177396
 11
1100.0699262733
 21
23.8617177396
  0
LINE
  5
22F
100
AcDbEntity
  8
0
100
AcDbLine
 62
7
  6
CONTINUOUS
 10
1070.0699262733
 20
23.8617177396
 11
1034.0699262733
 21
23.8617177396
  0
LINE
  5
230
100
AcDbEntity
  8
0
100
AcDbLine
 62
3
  6
CONTINUOUS
 10
711.0699262733
 20
25.8617177396
 11
896.0699262733
 21
25.8617177396
  0
LINE
  5
231
100
AcDbEntity
  8
0
100
AcDbLine
 62
9
  6
CONTINUOUS
 10
711.0699262733
 20
28.8617177396
 11
896.0699262733
 21
28.8617177396
  0
LINE
  5
232
100
AcDbEntity
  8
02___PRT_ALL_AXES
100
AcDbLine
 62
7
  6
CONTINUOUS
 10
1173.5267879702
 20
28.8617177396
 11
1186.0699262733
 21
28.8617177396
  0
LINE
  5
233
100
AcDbEntity
  8
0
100
AcDbLine
 62
7
  6
CONTINUOUS
 10
1010.5699262733
 20
32.3617177396
 11
1018.5699262733
 21
32.3617177396
  0
LINE
  5
234
100
AcDbEntity
  8
0
100
AcDbLine
 62
9
  6
CONTINUOUS
 10
711.0699262733
 20
36.8617177396
 11
896.0699262733
 21
36.8617177396
  0
LINE
  5
235
100
AcDbEntity
  8
0
100
AcDbLine
 62
7
  6
CONTINUOUS
 10
1173.526798598
 20
28.8617177396
 11
1173.5010934992
 21
28.8620295051
  0
LINE
  5
236
100
AcDbEntity
  8
0
100
AcDbLine
 62
7
  6
CONTINUOUS
 10
778.5699262733
 20
247.0571623125
 11
778.5699262733
 21
306.8617177396
  0
LINE
  5
237
100
AcDbEntity
  8
0
100
AcDbLine
 62
3
  6
CONTINUOUS
 10
711.0699262733
 20
42.8617177396
 11
715.5699262733
 21
42.8617177396
  0
LINE
  5
238
100
AcDbEntity
  8
0
100
AcDbLine
 62
7
  6
CONTINUOUS
 10
715.5699262733
 20
42.8617177396
 11
891.5699262733
 21
42.8617177396
  0
LINE
  5
239
100
AcDbEntity
  8
0
100
AcDbLine
 62
3
  6
CONTINUOUS
 10
891.5699262733
 20
42.8617177396
 11
896.0699262733
 21
42.8617177396
  0
LINE
  5
23A
100
AcDbEntity
  8
02___PRT_ALL_AXES
100
AcDbLine
 62
7
  6
CONTINUOUS
 10
645.8541765565
 20
44.8617177396
 11
682.5699262733
 21
44.8617177396
  0
LINE
  5
23B
100
AcDbEntity
  8
02___PRT_ALL_AXES
100
AcDbLine
 62
7
  6
CONTINUOUS
 10
692.5699262733
 20
44.8617177396
 11
715.5699262733
 21
44.8617177396
  0
LINE
  5
23C
100
AcDbEntity
  8
02___PRT_ALL_AXES
100
AcDbLine
 62
7
  6
CONTINUOUS
 10
891.5699262733
 20
44.8617177396
 11
923.569926229
 21
44.8617177396
  0
LINE
  5
23D
100
AcDbEntity
  8
3_ALL_AXES
100
AcDbLine
 62
7
  6
CONTINUOUS
 10
1019.0699262733
 20
49.8617177396
 11
1018.5699262733
 21
49.8617177396
  0
LINE
  5
23E
100
AcDbEntity
  8
0
100
AcDbLine
 62
7
  6
CONTINUOUS
 10
1100.0699262733
 20
51.1264778257
 11
1070.0699262733
 21
51.1264778257
  0
LINE
  5
23F
100
AcDbEntity
  8
0
100
AcDbLine
 62
7
  6
CONTINUOUS
 10
715.5699262733
 20
54.8617177396
 11
891.5699262733
 21
54.8617177396
  0
LINE
  5
240
100
AcDbEntity
  8
0
100
AcDbLine
 62
7
  6
CONTINUOUS
 10
1009.5699262733
 20
57.3617177396
 11
1008.5699262733
 21
57.3617177396
  0
LINE
  5
241
100
AcDbEntity
  8
02___PRT_ALL_AXES
100
AcDbLine
 62
7
  6
CONTINUOUS
 10
1186.0699262733
 20
88.8617177396
 11
1180.0699262733
 21
88.8617177396
  0
LINE
  5
242
100
AcDbEntity
  8
0
100
AcDbLine
 62
7
  6
CONTINUOUS
 10
1006.5699262733
 20
89.8617177396
 11
945.5699262733
 21
89.8617177396
  0
LINE
  5
243
100
AcDbEntity
  8
3_ALL_AXES
100
AcDbLine
 62
7
  6
CONTINUOUS
 10
955.5699262733
 20
89.8617177396
 11
945.5699262733
 21
89.8617177396
  0
LINE
  5
244
100
AcDbEntity
  8
0
100
AcDbLine
 62
9
  6
CONTINUOUS
 10
1008.5699262733
 20
91.8617177392
 11
957.5699262733
 21
91.8617177396
  0
LINE
  5
245
100
AcDbEntity
  8
0
100
AcDbLine
 62
9
  6
CONTINUOUS
 10
1008.5699262733
 20
103.4760366922
 11
1006.5699262733
 21
103.4760366922
  0
LINE
  5
246
100
AcDbEntity
  8
02___PRT_ALL_AXES
100
AcDbLine
 62
7
  6
CONTINUOUS
 10
1180.0699262733
 20
114.8617177396
 11
1186.0699262733
 21
114.8617177396
  0
LINE
  5
247
100
AcDbEntity
  8
0
100
AcDbLine
 62
9
  6
CONTINUOUS
 10
957.5699262733
 20
121.9109969584
 11
959.5699262733
 21
121.9109969584
  0
LINE
  5
248
100
AcDbEntity
  8
0
100
AcDbLine
 62
9
  6
CONTINUOUS
 10
980.5699262733
 20
123.0065768672
 11
960.5699262733
 21
123.0065768672
  0
LINE
  5
249
100
AcDbEntity
  8
0
100
AcDbLine
 62
9
  6
CONTINUOUS
 10
980.5699262733
 20
124.8268706314
 11
960.5699262733
 21
124.8268706314
  0
LINE
  5
24A
100
AcDbEntity
  8
0
100
AcDbLine
 62
9
  6
CONTINUOUS
 10
943.5699262733
 20
124.8617177396
 11
957.5699262733
 21
124.8617177396
  0
LINE
  5
24B
100
AcDbEntity
  8
0
100
AcDbLine
 62
9
  6
CONTINUOUS
 10
955.5699262733
 20
147.8617177396
 11
957.5699262733
 21
147.8617177396
  0
LINE
  5
24C
100
AcDbEntity
  8
0
100
AcDbLine
 62
9
  6
CONTINUOUS
 10
960.5699262733
 20
148.2617177396
 11
980.5699262733
 21
148.2617177396
  0
LINE
  5
24D
100
AcDbEntity
  8
0
100
AcDbLine
 62
7
  6
CONTINUOUS
 10
1006.5699262733
 20
149.8617177396
 11
959.5699262734
 21
149.8617177396
  0
LINE
  5
24E
100
AcDbEntity
  8
0
100
AcDbLine
 62
9
  6
CONTINUOUS
 10
1008.5699262733
 20
151.8617177392
 11
959.5699262733
 21
151.8617177396
  0
LINE
  5
24F
100
AcDbEntity
  8
0
100
AcDbLine
 62
9
  6
CONTINUOUS
 10
1019.0699262733
 20
154.8617177396
 11
1176.0699262733
 21
154.8617177396
  0
LINE
  5
250
100
AcDbEntity
  8
0
100
AcDbLine
 62
9
  6
CONTINUOUS
 10
959.5699262733
 20
157.8617177396
 11
1008.5699262733
 21
157.8617177395
  0
LINE
  5
251
100
AcDbEntity
  8
0
100
AcDbLine
 62
9
  6
CONTINUOUS
 10
881.0699262733
 20
22.8617177396
 11
881.0699262733
 21
25.8617177396
  0
LINE
  5
252
100
AcDbEntity
  8
0
100
AcDbLine
 62
7
  6
CONTINUOUS
 10
891.5699262733
 20
42.8617177396
 11
891.5699262733
 21
54.8617177396
  0
LINE
  5
253
100
AcDbEntity
  8
0
100
AcDbLine
 62
7
  6
CONTINUOUS
 10
1006.5699262733
 20
159.8617177396
 11
959.5699262733
 21
159.8617177396
  0
LINE
  5
254
100
AcDbEntity
  8
0
100
AcDbLine
 62
9
  6
CONTINUOUS
 10
980.5699262733
 20
161.4617177396
 11
960.5699262733
 21
161.4617177396
  0
LINE
  5
255
100
AcDbEntity
  8
0
100
AcDbLine
 62
9
  6
CONTINUOUS
 10
957.5699262733
 20
161.8617177397
 11
955.5699262733
 21
161.8617177397
  0
LINE
  5
256
100
AcDbEntity
  8
02___PRT_ALL_AXES
100
AcDbLine
 62
7
  6
CONTINUOUS
 10
1186.0699262733
 20
174.8617177396
 11
1180.0699262733
 21
174.8617177396
  0
LINE
  5
257
100
AcDbEntity
  8
0
100
AcDbLine
 62
3
  6
CONTINUOUS
 10
896.0699262733
 20
42.8617177396
 11
896.0699262733
 21
25.8617177396
  0
LINE
  5
258
100
AcDbEntity
  8
0
100
AcDbLine
 62
7
  6
CONTINUOUS
 10
896.0699262733
 20
22.8617177396
 11
896.0699262733
 21
25.8617177396
  0
LINE
  5
259
100
AcDbEntity
  8
0
100
AcDbLine
 62
7
  6
CONTINUOUS
 10
898.5699262733
 20
247.0571623125
 11
898.5699262733
 21
306.8617177396
  0
LINE
  5
25A
100
AcDbEntity
  8
0
100
AcDbLine
 62
9
  6
CONTINUOUS
 10
943.5699262733
 20
184.8617177396
 11
957.5699262733
 21
184.8617177396
  0
LINE
  5
25B
100
AcDbEntity
  8
0
100
AcDbLine
 62
9
  6
CONTINUOUS
 10
960.5699262733
 20
184.8965648479
 11
980.5699262733
 21
184.8965648479
  0
LINE
  5
25C
100
AcDbEntity
  8
0
100
AcDbLine
 62
9
  6
CONTINUOUS
 10
960.5699262733
 20
186.716858612
 11
980.5699262733
 21
186.716858612
  0
LINE
  5
25D
100
AcDbEntity
  8
0
100
AcDbLine
 62
9
  6
CONTINUOUS
 10
957.5699262733
 20
187.8124385208
 11
959.5699262733
 21
187.8124385208
  0
LINE
  5
25E
100
AcDbEntity
  8
0
100
AcDbLine
 62
7
  6
CONTINUOUS
 10
923.5699263269
 20
264.8617177396
 11
923.5699263269
 21
44.8617177396
  0
LINE
  5
25F
100
AcDbEntity
  8
0
100
AcDbLine
 62
9
  6
CONTINUOUS
 10
1008.5699262733
 20
206.247398787
 11
1006.5699262733
 21
206.247398787
  0
LINE
  5
260
100
AcDbEntity
  8
0
100
AcDbLine
 62
9
  6
CONTINUOUS
 10
957.5699262733
 20
217.8617177396
 11
1008.5699262733
 21
217.8617177395
  0
LINE
  5
261
100
AcDbEntity
  8
0
100
AcDbLine
 62
9
  6
CONTINUOUS
 10
1019.0699262733
 20
218.233095561
 11
1176.0699262733
 21
218.233095561
  0
LINE
  5
262
100
AcDbEntity
  8
0
100
AcDbLine
 62
7
  6
CONTINUOUS
 10
1006.5699262733
 20
219.8617177396
 11
945.5699262733
 21
219.8617177396
  0
LINE
  5
263
100
AcDbEntity
  8
0
100
AcDbLine
 62
7
  6
CONTINUOUS
 10
943.5699262733
 20
244.8606717405
 11
943.5699262733
 21
64.8627637387
  0
LINE
  5
264
100
AcDbEntity
  8
0
100
AcDbLine
 62
9
  6
CONTINUOUS
 10
945.5699262733
 20
89.8617177396
 11
945.5699262733
 21
219.8617177396
  0
LINE
  5
265
100
AcDbEntity
  8
0
100
AcDbLine
 62
9
  6
CONTINUOUS
 10
955.5699262733
 20
219.8617177396
 11
955.5699262733
 21
161.8617177396
  0
LINE
  5
266
100
AcDbEntity
  8
0
100
AcDbLine
 62
9
  6
CONTINUOUS
 10
955.5699262733
 20
147.8617177396
 11
955.5699262733
 21
89.8617177396
  0
LINE
  5
267
100
AcDbEntity
  8
0
100
AcDbLine
 62
7
  6
CONTINUOUS
 10
957.5699262733
 20
217.8617177396
 11
957.5699262733
 21
161.8617177396
  0
LINE
  5
268
100
AcDbEntity
  8
0
100
AcDbLine
 62
7
  6
CONTINUOUS
 10
957.5699262733
 20
147.8617177396
 11
957.5699262733
 21
91.8617177396
  0
LINE
  5
269
100
AcDbEntity
  8
0
100
AcDbLine
 62
9
  6
CONTINUOUS
 10
959.5699262729
 20
89.8617177396
 11
959.5699262733
 21
121.9109969584
  0
LINE
  5
26A
100
AcDbEntity
  8
0
100
AcDbLine
 62
9
  6
CONTINUOUS
 10
959.5699262734
 20
149.8617177396
 11
959.5699262734
 21
151.8617177396
  0
LINE
  5
26B
100
AcDbEntity
  8
0
100
AcDbLine
 62
9
  6
CONTINUOUS
 10
959.5699262729
 20
157.8617177396
 11
959.569926273
 21
159.8617177396
  0
LINE
  5
26C
100
AcDbEntity
  8
0
100
AcDbLine
 62
9
  6
CONTINUOUS
 10
959.5699262733
 20
187.8124385208
 11
959.5699262734
 21
219.8617177396
  0
LINE
  5
26D
100
AcDbEntity
  8
0
100
AcDbLine
 62
9
  6
CONTINUOUS
 10
960.5699262733
 20
123.0065768672
 11
960.5699262733
 21
149.8617177396
  0
LINE
  5
26E
100
AcDbEntity
  8
0
100
AcDbLine
 62
9
  6
CONTINUOUS
 10
960.5699262733
 20
159.8617177396
 11
960.5699262733
 21
186.716858612
  0
LINE
  5
26F
100
AcDbEntity
  8
0
100
AcDbLine
 62
7
  6
CONTINUOUS
 10
1196.0699262733
 20
244.8617177396
 11
1176.0699262733
 21
244.8617177396
  0
LINE
  5
270
100
AcDbEntity
  8
0
100
AcDbLine
 62
7
  6
CONTINUOUS
 10
778.5699262733
 20
247.0571623125
 11
898.5699262733
 21
247.0571623125
  0
LINE
  5
271
100
AcDbEntity
  8
0
100
AcDbLine
 62
9
  6
CONTINUOUS
 10
980.5699262733
 20
123.0065768672
 11
980.5699262733
 21
149.8617177396
  0
LINE
  5
272
100
AcDbEntity
  8
0
100
AcDbLine
 62
9
  6
CONTINUOUS
 10
980.5699262733
 20
159.8617177396
 11
980.5699262733
 21
186.716858612
  0
LINE
  5
273
100
AcDbEntity
  8
0
100
AcDbLine
 62
9
  6
CONTINUOUS
 10
985.5699262733
 20
123.4185237865
 11
985.5699262733
 21
148.1978350595
  0
LINE
  5
274
100
AcDbEntity
  8
0
100
AcDbLine
 62
9
  6
CONTINUOUS
 10
985.5699262733
 20
161.5256004197
 11
985.5699262733
 21
186.3049116928
  0
LINE
  5
275
100
AcDbEntity
  8
0
100
AcDbLine
 62
7
  6
CONTINUOUS
 10
1009.5699262733
 20
252.3617177396
 11
1008.5699262733
 21
252.3617177396
  0
LINE
  5
276
100
AcDbEntity
  8
0
100
AcDbLine
 62
9
  6
CONTINUOUS
 10
1198.0699262733
 20
252.8617177396
 11
1176.0699262733
 21
252.8617177396
  0
LINE
  5
277
100
AcDbEntity
  8
0
100
AcDbLine
 62
7
  6
CONTINUOUS
 10
1200.0699262733
 20
256.8617177396
 11
1213.0699262733
 21
256.8617177396
  0
LINE
  5
278
100
AcDbEntity
  8
3_ALL_AXES
100
AcDbLine
 62
7
  6
CONTINUOUS
 10
1019.0699262733
 20
259.8617177396
 11
1018.5699262733
 21
259.8617177396
  0
LINE
  5
279
100
AcDbEntity
  8
02___PRT_ALL_AXES
100
AcDbLine
 62
7
  6
CONTINUOUS
 10
645.8541765565
 20
264.8617177396
 11
682.5699262733
 21
264.8617177396
  0
LINE
  5
27A
100
AcDbEntity
  8
02___PRT_ALL_AXES
100
AcDbLine
 62
7
  6
CONTINUOUS
 10
692.5699262733
 20
264.8617177396
 11
778.5699262733
 21
264.8617177396
  0
LINE
  5
27B
100
AcDbEntity
  8
02___PRT_ALL_AXES
100
AcDbLine
 62
7
  6
CONTINUOUS
 10
898.5699262733
 20
264.8617177396
 11
923.569926229
 21
264.8617177396
  0
LINE
  5
27C
100
AcDbEntity
  8
0
100
AcDbLine
 62
7
  6
CONTINUOUS
 10
943.5699329155
 20
244.8617243474
 11
923.5699343483
 21
264.8617258589
  0
LINE
  5
27D
100
AcDbEntity
  8
0
100
AcDbLine
 62
9
  6
CONTINUOUS
 10
985.5699262461
 20
186.304911736
 11
984.5699262733
 21
187.8908642953
  0
LINE
  5
27E
100
AcDbEntity
  8
0
100
AcDbLine
 62
9
  6
CONTINUOUS
 10
1003.5699262733
 20
112.3636087952
 11
1003.5699262733
 21
148.1226580189
  0
LINE
  5
27F
100
AcDbEntity
  8
0
100
AcDbLine
 62
9
  6
CONTINUOUS
 10
1003.5699262733
 20
161.6007774603
 11
1003.5699262733
 21
197.359826684
  0
LINE
  5
280
100
AcDbEntity
  8
0
100
AcDbLine
 62
9
  6
CONTINUOUS
 10
1006.5699262733
 20
89.8617177396
 11
1006.5699262733
 21
103.4760366922
  0
LINE
  5
281
100
AcDbEntity
  8
0
100
AcDbLine
 62
9
  6
CONTINUOUS
 10
1006.5699262733
 20
149.8617177396
 11
1006.5699262733
 21
159.8617177396
  0
LINE
  5
282
100
AcDbEntity
  8
0
100
AcDbLine
 62
9
  6
CONTINUOUS
 10
1006.5699262733
 20
206.247398787
 11
1006.5699262733
 21
219.8617177396
  0
LINE
  5
283
100
AcDbEntity
  8
0
100
AcDbLine
 62
7
  6
CONTINUOUS
 10
1008.5699262733
 20
57.3617964745
 11
1008.5699262733
 21
252.3616390047
  0
LINE
  5
284
100
AcDbEntity
  8
0
100
AcDbLine
 62
7
  6
CONTINUOUS
 10
1009.5699262733
 20
32.629666932
 11
1009.5699262733
 21
277.0937685472
  0
LINE
  5
285
100
AcDbEntity
  8
0
100
AcDbLine
 62
9
  6
CONTINUOUS
 10
1010.5699262733
 20
277.3617177396
 11
1010.5699262733
 21
32.3617177396
  0
LINE
  5
286
100
AcDbEntity
  8
0
100
AcDbLine
 62
7
  6
CONTINUOUS
 10
1010.5699262733
 20
277.3617177396
 11
1018.5699262733
 21
277.3617177396
  0
LINE
  5
287
100
AcDbEntity
  8
0
100
AcDbLine
 62
9
  6
CONTINUOUS
 10
1003.5699244344
 20
197.3598297099
 11
1002.5699262733
 21
199.0053779741
  0
LINE
  5
288
100
AcDbEntity
  8
0
100
AcDbLine
 62
7
  6
CONTINUOUS
 10
1018.5699262733
 20
32.3617995065
 11
1018.5699262733
 21
277.3616359727
  0
LINE
  5
289
100
AcDbEntity
  8
0
100
AcDbLine
 62
7
  6
CONTINUOUS
 10
1019.0699262733
 20
38.8617177832
 11
1019.0699262733
 21
329.8617177396
  0
LINE
  5
28A
100
AcDbEntity
  8
0
100
AcDbLine
 62
7
  6
CONTINUOUS
 10
1020.0699262733
 20
344.8617177396
 11
1020.0699262733
 21
362.8617177396
  0
LINE
  5
28B
100
AcDbEntity
  8
0
100
AcDbLine
 62
9
  6
CONTINUOUS
 10
1028.0699262733
 20
344.8617177396
 11
1028.0699262733
 21
364.8617177396
  0
LINE
  5
28C
100
AcDbEntity
  8
0
100
AcDbLine
 62
7
  6
CONTINUOUS
 10
1032.0699262733
 20
366.8617177396
 11
1032.0699262733
 21
380.8617177396
  0
LINE
  5
28D
100
AcDbEntity
  8
0
100
AcDbLine
 62
9
  6
CONTINUOUS
 10
1034.0699262733
 20
23.8617177396
 11
1034.0699262985
 21
344.8617177396
  0
LINE
  5
28E
100
AcDbEntity
  8
0
100
AcDbLine
 62
9
  6
CONTINUOUS
 10
985.5699249616
 20
123.418521706
 11
984.5699262733
 21
121.8325711839
  0
LINE
  5
28F
100
AcDbEntity
  8
0
100
AcDbLine
 62
7
  6
CONTINUOUS
 10
943.5699329155
 20
64.8617111318
 11
923.5699343483
 21
44.8617096203
  0
LINE
  5
290
100
AcDbEntity
  8
0
100
AcDbLine
 62
7
  6
CONTINUOUS
 10
778.5699262733
 20
306.8617177396
 11
898.5699262733
 21
306.8617177396
  0
LINE
  5
291
100
AcDbEntity
  8
02___PRT_ALL_AXES
100
AcDbLine
 62
7
  6
CONTINUOUS
 10
1045.0699262733
 20
348.8617177396
 11
1045.0699262733
 21
354.8617177396
  0
LINE
  5
292
100
AcDbEntity
  8
0
100
AcDbLine
 62
9
  6
CONTINUOUS
 10
1003.5699262576
 20
112.3636087694
 11
1002.5699262733
 21
110.7180575051
  0
LINE
  5
293
100
AcDbEntity
  8
0
100
AcDbLine
 62
7
  6
CONTINUOUS
 10
1200.0699262733
 20
332.8617177396
 11
1213.0699262733
 21
332.8617177396
  0
LINE
  5
294
100
AcDbEntity
  8
0
100
AcDbLine
 62
9
  6
CONTINUOUS
 10
1172.798069338
 20
336.8617177396
 11
1198.0699262733
 21
336.8617177396
  0
LINE
  5
295
100
AcDbEntity
  8
0
100
AcDbLine
 62
7
  6
CONTINUOUS
 10
1070.0699262733
 20
22.8617177396
 11
1070.0699262733
 21
51.1264778257
  0
LINE
  5
296
100
AcDbEntity
  8
0
100
AcDbLine
 62
9
  6
CONTINUOUS
 10
1161.0699262733
 20
344.5774004829
 11
1098.6052295591
 21
344.5774004829
  0
LINE
  5
297
100
AcDbEntity
  8
0
100
AcDbLine
 62
9
  6
CONTINUOUS
 10
1041.5346229875
 20
344.577400483
 11
1034.0699262999
 21
344.5774068591
  0
LINE
  5
298
100
AcDbEntity
  8
0
100
AcDbLine
 62
7
  6
CONTINUOUS
 10
1196.0699262733
 20
344.8617177396
 11
1099.0008785563
 21
344.8617177396
  0
LINE
  5
299
100
AcDbEntity
  8
0
100
AcDbLine
 62
7
  6
CONTINUOUS
 10
1041.1389739903
 20
344.8617177396
 11
1020.0699262733
 21
344.8617177396
  0
LINE
  5
29A
100
AcDbEntity
  8
0
100
AcDbLine
 62
9
  6
CONTINUOUS
 10
1045.0699262733
 20
348.8617177396
 11
1045.1294501673
 21
348.8617177396
  0
LINE
  5
29B
100
AcDbEntity
  8
0
100
AcDbLine
 62
9
  6
CONTINUOUS
 10
1095.0104023793
 20
348.8617177396
 11
1095.0699262733
 21
348.8617177396
  0
LINE
  5
29C
100
AcDbEntity
  8
0
100
AcDbLine
 62
7
  6
CONTINUOUS
 10
1120.0699262733
 20
354.8617177396
 11
1095.0699262733
 21
354.8617177396
  0
LINE
  5
29D
100
AcDbEntity
  8
0
100
AcDbLine
 62
7
  6
CONTINUOUS
 10
1045.0699262733
 20
354.8617177396
 11
1020.0699262733
 21
354.8617177396
  0
LINE
  5
29E
100
AcDbEntity
  8
02___PRT_ALL_AXES
100
AcDbLine
 62
7
  6
CONTINUOUS
 10
1045.0699262733
 20
354.8617177396
 11
1095.0699262733
 21
354.8617177396
  0
LINE
  5
29F
100
AcDbEntity
  8
0
100
AcDbLine
 62
9
  6
CONTINUOUS
 10
1020.0699262733
 20
362.8617177396
 11
1120.0699262733
 21
362.8617177396
  0
LINE
  5
2A0
100
AcDbEntity
  8
0
100
AcDbLine
 62
7
  6
CONTINUOUS
 10
1022.0699262733
 20
364.8617177396
 11
1118.0699262733
 21
364.8617177396
  0
LINE
  5
2A1
100
AcDbEntity
  8
0
100
AcDbLine
 62
9
  6
CONTINUOUS
 10
1032.0699262733
 20
366.8617177396
 11
1108.0699262733
 21
366.8617177396
  0
LINE
  5
2A2
100
AcDbEntity
  8
02___PRT_ALL_AXES
100
AcDbLine
 62
7
  6
CONTINUOUS
 10
1095.0699262733
 20
348.8617177396
 11
1095.0699262733
 21
354.8617177396
  0
LINE
  5
2A3
100
AcDbEntity
  8
0
100
AcDbLine
 62
7
  6
CONTINUOUS
 10
1100.0699262733
 20
22.8617177396
 11
1100.0699262733
 21
51.1264778257
  0
LINE
  5
2A4
100
AcDbEntity
  8
0
100
AcDbLine
 62
7
  6
CONTINUOUS
 10
1032.0699262733
 20
380.8617177396
 11
1108.0699262733
 21
380.8617177396
  0
LINE
  5
2A5
100
AcDbEntity
  8
0
100
AcDbLine
 62
7
  6
CONTINUOUS
 10
1108.0699262733
 20
366.8617177396
 11
1108.0699262733
 21
380.8617177396
  0
LINE
  5
2A6
100
AcDbEntity
  8
0
100
AcDbLine
 62
9
  6
CONTINUOUS
 10
1112.0699262733
 20
344.8617177396
 11
1112.0699262733
 21
364.8617177396
  0
LINE
  5
2A7
100
AcDbEntity
  8
0
100
AcDbLine
 62
7
  6
CONTINUOUS
 10
1120.0699262733
 20
344.8617177396
 11
1120.0699262733
 21
362.8617177396
  0
LINE
  5
2A8
100
AcDbEntity
  8
0
100
AcDbLine
 62
9
  6
CONTINUOUS
 10
1161.0699262733
 20
344.5774004829
 11
1161.0699262733
 21
23.8617177396
  0
LINE
  5
2A9
100
AcDbEntity
  8
0
100
AcDbLine
 62
7
  6
CONTINUOUS
 10
1176.0699262733
 20
326.9333715496
 11
1176.0699262733
 21
55.0393326507
  0
LINE
  5
2AA
100
AcDbEntity
  8
0
100
AcDbLine
 62
9
  6
CONTINUOUS
 10
1180.0699262733
 20
174.8617177379
 11
1180.0699262733
 21
114.8617177396
  0
LINE
  5
2AB
100
AcDbEntity
  8
0
100
AcDbLine
 62
9
  6
CONTINUOUS
 10
1180.0699262733
 20
88.8617177379
 11
1180.0699262733
 21
55.8842387619
  0
LINE
  5
2AC
100
AcDbEntity
  8
0
100
AcDbLine
 62
7
  6
CONTINUOUS
 10
1186.0699262733
 20
344.8617177396
 11
1186.0699262733
 21
244.8617177396
  0
LINE
  5
2AD
100
AcDbEntity
  8
02___PRT_ALL_AXES
100
AcDbLine
 62
7
  6
CONTINUOUS
 10
1186.0699262733
 20
174.8615890075
 11
1186.0699262733
 21
114.8618464718
  0
LINE
  5
2AE
100
AcDbEntity
  8
02___PRT_ALL_AXES
100
AcDbLine
 62
7
  6
CONTINUOUS
 10
1186.0699262733
 20
88.8615890075
 11
1186.0699262733
 21
28.8618464718
  0
LINE
  5
2AF
100
AcDbEntity
  8
0
100
AcDbLine
 62
9
  6
CONTINUOUS
 10
1196.0699262733
 20
344.8617177396
 11
1196.0699262733
 21
244.8617177396
  0
LINE
  5
2B0
100
AcDbEntity
  8
0
100
AcDbLine
 62
7
  6
CONTINUOUS
 10
1198.0699262733
 20
342.8617177396
 11
1198.0699262733
 21
246.8617177396
  0
LINE
  5
2B1
100
AcDbEntity
  8
0
100
AcDbLine
 62
9
  6
CONTINUOUS
 10
1200.0699262733
 20
332.8617177396
 11
1200.0699262733
 21
256.8617177396
  0
LINE
  5
2B2
100
AcDbEntity
  8
0
100
AcDbLine
 62
7
  6
CONTINUOUS
 10
1213.0699262733
 20
332.8617177396
 11
1213.0699262733
 21
256.8617177396
  0
LINE
  5
2B3
100
AcDbEntity
  8
0
100
AcDbLine
 62
7
  6
CONTINUOUS
 10
1171.4838627999
 20
28.0660157059
 11
1171.4740316046
 21
28.056413858
  0
LWPOLYLINE
  5
2B4
100
AcDbEntity
  8
0
100
AcDbPolyline
 62
7
  6
CONTINUOUS
 90
3
 70
0
 10
1171.483864168
 20
28.0660160731
 10
1172.2697850407
 20
28.5898445121
 10
1173.5011040871
 20
28.862020505
  0
LINE
  5
2B5
100
AcDbEntity
  8
0
100
AcDbLine
 62
7
  6
CONTINUOUS
 10
309.6419997969
 20
22.8617177396
 11
282.6419997969
 21
22.8617177396
  0
LINE
  5
2B6
100
AcDbEntity
  8
0
100
AcDbLine
 62
7
  6
CONTINUOUS
 10
254.6419997969
 20
22.8617177396
 11
84.6419997969
 21
22.8617177396
  0
LINE
  5
2B7
100
AcDbEntity
  8
0
100
AcDbLine
 62
7
  6
CONTINUOUS
 10
46.6419997969
 20
22.8617177396
 11
19.6419997969
 21
22.8617177396
  0
LINE
  5
2B8
100
AcDbEntity
  8
0
100
AcDbLine
 62
3
  6
CONTINUOUS
 10
19.6419997969
 20
25.8617177396
 11
46.6419997969
 21
25.8617177396
  0
LINE
  5
2B9
100
AcDbEntity
  8
0
100
AcDbLine
 62
3
  6
CONTINUOUS
 10
282.6419997969
 20
25.8617177396
 11
309.6419997969
 21
25.8617177396
  0
LINE
  5
2BA
100
AcDbEntity
  8
0
100
AcDbLine
 62
9
  6
CONTINUOUS
 10
279.6419997969
 20
28.8617177396
 11
276.6419997969
 21
28.8617177396
  0
LINE
  5
2BB
100
AcDbEntity
  8
0
100
AcDbLine
 62
9
  6
CONTINUOUS
 10
49.6419997969
 20
28.8617177396
 11
52.6419997969
 21
28.8617177396
  0
LINE
  5
2BC
100
AcDbEntity
  8
0
100
AcDbLine
 62
9
  6
CONTINUOUS
 10
279.6419997969
 20
36.8617177396
 11
276.6419997969
 21
36.8617177396
  0
LINE
  5
2BD
100
AcDbEntity
  8
0
100
AcDbLine
 62
9
  6
CONTINUOUS
 10
49.6419997969
 20
36.8617177396
 11
52.6419997969
 21
36.8617177396
  0
LINE
  5
2BE
100
AcDbEntity
  8
0
100
AcDbLine
 62
7
  6
CONTINUOUS
 10
273.6419997969
 20
39.8617177396
 11
254.6419997969
 21
39.8617177396
  0
LINE
  5
2BF
100
AcDbEntity
  8
0
100
AcDbLine
 62
7
  6
CONTINUOUS
 10
84.6419997969
 20
39.8617177396
 11
55.6419997969
 21
39.8617177396
  0
LINE
  5
2C0
100
AcDbEntity
  8
0
100
AcDbLine
 62
3
  6
CONTINUOUS
 10
273.6419997969
 20
42.8617177396
 11
254.6419997969
 21
42.8617177396
  0
LINE
  5
2C1
100
AcDbEntity
  8
0
100
AcDbLine
 62
3
  6
CONTINUOUS
 10
84.6419997969
 20
42.8617177396
 11
55.6419997969
 21
42.8617177396
  0
LINE
  5
2C2
100
AcDbEntity
  8
0
100
AcDbLine
 62
7
  6
CONTINUOUS
 10
54.6419997969
 20
42.8617177396
 11
55.6419997969
 21
42.8617177396
  0
LINE
  5
2C3
100
AcDbEntity
  8
0
100
AcDbLine
 62
7
  6
CONTINUOUS
 10
273.6419997969
 20
42.8617177396
 11
274.6419997969
 21
42.8617177396
  0
LINE
  5
2C4
100
AcDbEntity
  8
0
100
AcDbLine
 62
7
  6
CONTINUOUS
 10
19.6419997969
 20
22.8617177396
 11
19.6419997969
 21
25.8617177396
  0
LINE
  5
2C5
100
AcDbEntity
  8
0
100
AcDbLine
 62
7
  6
CONTINUOUS
 10
54.6419997969
 20
54.8617177396
 11
80.0519681265
 21
54.8617177396
  0
LINE
  5
2C6
100
AcDbEntity
  8
0
100
AcDbLine
 62
7
  6
CONTINUOUS
 10
254.6419997969
 20
54.8617177396
 11
274.6419997969
 21
54.8617177396
  0
LINE
  5
2C7
100
AcDbEntity
  8
0
100
AcDbLine
 62
7
  6
CONTINUOUS
 10
33.6419997969
 20
218.233095561
 11
33.6419997969
 21
154.8617177396
  0
LINE
  5
2C8
100
AcDbEntity
  8
0
100
AcDbLine
 62
9
  6
CONTINUOUS
 10
34.6419997969
 20
22.8617177396
 11
34.6419997969
 21
25.8617177396
  0
LINE
  5
2C9
100
AcDbEntity
  8
0
100
AcDbLine
 62
9
  6
CONTINUOUS
 10
46.6419997969
 20
25.8617177396
 11
46.6419997969
 21
22.8617177396
  0
LINE
  5
2CA
100
AcDbEntity
  8
0
100
AcDbLine
 62
9
  6
CONTINUOUS
 10
105.5531861293
 20
55.0393150086
 11
109.4631779552
 21
55.8842922504
  0
LINE
  5
2CB
100
AcDbEntity
  8
0
100
AcDbLine
 62
9
  6
CONTINUOUS
 10
48.6419997969
 20
218.233095561
 11
48.6419997969
 21
154.8617177396
  0
LINE
  5
2CC
100
AcDbEntity
  8
0
100
AcDbLine
 62
3
  6
CONTINUOUS
 10
49.6419997969
 20
36.8617177396
 11
49.6419997969
 21
28.8617177396
  0
LINE
  5
2CD
100
AcDbEntity
  8
0
100
AcDbLine
 62
7
  6
CONTINUOUS
 10
52.6419997969
 20
36.8617177396
 11
52.6419997969
 21
28.8617177396
  0
LINE
  5
2CE
100
AcDbEntity
  8
0
100
AcDbLine
 62
7
  6
CONTINUOUS
 10
54.6419997969
 20
42.8617177396
 11
54.6419997969
 21
54.8617177396
  0
LINE
  5
2CF
100
AcDbEntity
  8
0
100
AcDbLine
 62
9
  6
CONTINUOUS
 10
55.6419997969
 20
42.8617177396
 11
55.6419997969
 21
39.8617177396
  0
LINE
  5
2D0
100
AcDbEntity
  8
0
100
AcDbLine
 62
7
  6
CONTINUOUS
 10
84.6419997969
 20
22.8617177396
 11
84.6419997969
 21
51.1264778257
  0
LINE
  5
2D1
100
AcDbEntity
  8
0
100
AcDbLine
 62
7
  6
CONTINUOUS
 10
109.1419997969
 20
354.8617177396
 11
109.1419997969
 21
339.4137458316
  0
LINE
  5
2D2
100
AcDbEntity
  8
02___PRT_ALL_AXES
100
AcDbLine
 62
7
  6
CONTINUOUS
 10
109.1419997969
 20
339.4137458316
 11
109.1419997969
 21
354.8617177396
  0
LINE
  5
2D3
100
AcDbEntity
  8
0
100
AcDbLine
 62
7
  6
CONTINUOUS
 10
124.1419997969
 20
336.8617177396
 11
124.1419997969
 21
252.8617177396
  0
LINE
  5
2D4
100
AcDbEntity
  8
0
100
AcDbLine
 62
9
  6
CONTINUOUS
 10
48.6419997969
 20
154.8617177396
 11
33.6419997969
 21
154.8617177397
  0
LINE
  5
2D5
100
AcDbEntity
  8
0
100
AcDbLine
 62
9
  6
CONTINUOUS
 10
280.6419997969
 20
154.8617177396
 11
295.6419997969
 21
154.8617177396
  0
LINE
  5
2D6
100
AcDbEntity
  8
0
100
AcDbLine
 62
9
  6
CONTINUOUS
 10
126.1419997969
 20
336.8617177396
 11
126.1419997969
 21
252.8617177396
  0
LINE
  5
2D7
100
AcDbEntity
  8
0
100
AcDbLine
 62
9
  6
CONTINUOUS
 10
132.1419997969
 20
246.8617177396
 11
132.1419997969
 21
244.8617177396
  0
LINE
  5
2D8
100
AcDbEntity
  8
0
100
AcDbLine
 62
9
  6
CONTINUOUS
 10
132.1419997969
 20
342.8617177396
 11
132.1419997969
 21
344.8617177396
  0
LINE
  5
2D9
100
AcDbEntity
  8
0
100
AcDbLine
 62
7
  6
CONTINUOUS
 10
159.1419997969
 20
354.8617177396
 11
159.1419997969
 21
348.8617177396
  0
LINE
  5
2DA
100
AcDbEntity
  8
02___PRT_ALL_AXES
100
AcDbLine
 62
7
  6
CONTINUOUS
 10
159.1419997969
 20
348.8617177396
 11
159.1419997969
 21
354.8617177396
  0
LINE
  5
2DB
100
AcDbEntity
  8
0
100
AcDbLine
 62
9
  6
CONTINUOUS
 10
48.6419997969
 20
218.233095561
 11
33.6419997969
 21
218.233095561
  0
LINE
  5
2DC
100
AcDbEntity
  8
0
100
AcDbLine
 62
9
  6
CONTINUOUS
 10
280.6419997969
 20
225.16234442
 11
295.6419997969
 21
225.1623444192
  0
LINE
  5
2DD
100
AcDbEntity
  8
0
100
AcDbLine
 62
9
  6
CONTINUOUS
 10
216.1419997969
 20
246.8617177396
 11
216.1419997969
 21
244.8617177396
  0
LINE
  5
2DE
100
AcDbEntity
  8
0
100
AcDbLine
 62
9
  6
CONTINUOUS
 10
216.1419997969
 20
342.8617177396
 11
216.1419997969
 21
344.8617177396
  0
LINE
  5
2DF
100
AcDbEntity
  8
0
100
AcDbLine
 62
7
  6
CONTINUOUS
 10
132.1419997969
 20
244.8617177396
 11
216.1419997969
 21
244.8617177396
  0
LINE
  5
2E0
100
AcDbEntity
  8
0
100
AcDbLine
 62
9
  6
CONTINUOUS
 10
132.1419997969
 20
246.8617177396
 11
216.1419997969
 21
246.8617177396
  0
LINE
  5
2E1
100
AcDbEntity
  8
0
100
AcDbLine
 62
7
  6
CONTINUOUS
 10
218.1419997969
 20
344.8617177396
 11
218.1419997969
 21
362.8617177396
  0
LINE
  5
2E2
100
AcDbEntity
  8
0
100
AcDbLine
 62
9
  6
CONTINUOUS
 10
222.1419997969
 20
252.8617177396
 11
222.1419997969
 21
336.8617177396
  0
LINE
  5
2E3
100
AcDbEntity
  8
0
100
AcDbLine
 62
7
  6
CONTINUOUS
 10
224.1419997969
 20
252.8617177396
 11
224.1419997969
 21
336.8617177396
  0
LINE
  5
2E4
100
AcDbEntity
  8
0
100
AcDbLine
 62
9
  6
CONTINUOUS
 10
226.1419997969
 20
344.8617177396
 11
226.1419997969
 21
364.8617177396
  0
LINE
  5
2E5
100
AcDbEntity
  8
0
100
AcDbLine
 62
7
  6
CONTINUOUS
 10
230.1419997969
 20
366.8617177396
 11
230.1419997969
 21
380.8617177396
  0
LINE
  5
2E6
100
AcDbEntity
  8
0
100
AcDbLine
 62
9
  6
CONTINUOUS
 10
126.1419997969
 20
252.8617177396
 11
124.1419997969
 21
252.8617177396
  0
LINE
  5
2E7
100
AcDbEntity
  8
0
100
AcDbLine
 62
9
  6
CONTINUOUS
 10
222.1419997969
 20
252.8617177396
 11
224.1419997969
 21
252.8617177396
  0
LINE
  5
2E8
100
AcDbEntity
  8
0
100
AcDbLine
 62
7
  6
CONTINUOUS
 10
240.6419997969
 20
331.8628598826
 11
240.6419997969
 21
344.8617177396
  0
LINE
  5
2E9
100
AcDbEntity
  8
0
100
AcDbLine
 62
9
  6
CONTINUOUS
 10
248.6419997969
 20
325.685973483
 11
248.6419997969
 21
344.8617177396
  0
LINE
  5
2EA
100
AcDbEntity
  8
0
100
AcDbLine
 62
7
  6
CONTINUOUS
 10
254.6419997969
 20
22.8617177396
 11
254.6419997969
 21
59.6724326283
  0
LINE
  5
2EB
100
AcDbEntity
  8
0
100
AcDbLine
 62
9
  6
CONTINUOUS
 10
273.6419997969
 20
42.8617177396
 11
273.6419997969
 21
39.8617177396
  0
LINE
  5
2EC
100
AcDbEntity
  8
0
100
AcDbLine
 62
7
  6
CONTINUOUS
 10
274.6419997969
 20
42.8617177396
 11
274.6419997969
 21
54.8617177396
  0
LINE
  5
2ED
100
AcDbEntity
  8
0
100
AcDbLine
 62
7
  6
CONTINUOUS
 10
276.6419997969
 20
28.8617177396
 11
276.6419997969
 21
36.8617177396
  0
LINE
  5
2EE
100
AcDbEntity
  8
0
100
AcDbLine
 62
3
  6
CONTINUOUS
 10
279.6419997969
 20
28.8617177396
 11
279.6419997969
 21
36.8617177396
  0
LINE
  5
2EF
100
AcDbEntity
  8
0
100
AcDbLine
 62
9
  6
CONTINUOUS
 10
280.6419997969
 20
154.8617177396
 11
280.6419997969
 21
225.16234442
  0
LINE
  5
2F0
100
AcDbEntity
  8
0
100
AcDbLine
 62
9
  6
CONTINUOUS
 10
282.6419997969
 20
25.8617177396
 11
282.6419997969
 21
22.8617177396
  0
LINE
  5
2F1
100
AcDbEntity
  8
0
100
AcDbLine
 62
9
  6
CONTINUOUS
 10
287.6419997969
 20
270.2400550983
 11
287.6419997969
 21
344.8617177396
  0
LINE
  5
2F2
100
AcDbEntity
  8
0
100
AcDbLine
 62
9
  6
CONTINUOUS
 10
294.6419997969
 20
22.8617177396
 11
294.6419997969
 21
25.8617177396
  0
LINE
  5
2F3
100
AcDbEntity
  8
0
100
AcDbLine
 62
7
  6
CONTINUOUS
 10
295.6419997969
 20
154.8617177396
 11
295.6419997969
 21
344.8617177396
  0
LINE
  5
2F4
100
AcDbEntity
  8
0
100
AcDbLine
 62
7
  6
CONTINUOUS
 10
306.1419997969
 20
366.8617177396
 11
306.1419997969
 21
380.8617177396
  0
LINE
  5
2F5
100
AcDbEntity
  8
0
100
AcDbLine
 62
7
  6
CONTINUOUS
 10
309.6419997969
 20
22.8617177396
 11
309.6419997969
 21
25.8617177396
  0
LINE
  5
2F6
100
AcDbEntity
  8
0
100
AcDbLine
 62
9
  6
CONTINUOUS
 10
310.1419997969
 20
344.8617177396
 11
310.1419997969
 21
364.8617177396
  0
LINE
  5
2F7
100
AcDbEntity
  8
0
100
AcDbLine
 62
9
  6
CONTINUOUS
 10
126.1419997969
 20
336.8617177396
 11
124.1419997969
 21
336.8617177396
  0
LINE
  5
2F8
100
AcDbEntity
  8
0
100
AcDbLine
 62
9
  6
CONTINUOUS
 10
222.1419997969
 20
336.8617177396
 11
224.1419997969
 21
336.8617177396
  0
LINE
  5
2F9
100
AcDbEntity
  8
0
100
AcDbLine
 62
9
  6
CONTINUOUS
 10
216.1419997969
 20
342.8617177396
 11
132.1419997969
 21
342.8617177396
  0
LINE
  5
2FA
100
AcDbEntity
  8
0
100
AcDbLine
 62
7
  6
CONTINUOUS
 10
318.1419997969
 20
344.8617177396
 11
318.1419997969
 21
362.8617177396
  0
LINE
  5
2FB
100
AcDbEntity
  8
0
100
AcDbLine
 62
9
  6
CONTINUOUS
 10
240.9887487272
 20
67.5280247454
 11
237.4231065466
 21
65.7151871771
  0
LINE
  5
2FC
100
AcDbEntity
  8
0
100
AcDbLine
 62
7
  6
CONTINUOUS
 10
318.1419997969
 20
344.8617177396
 11
218.1419997969
 21
344.8617177396
  0
LINE
  5
2FD
100
AcDbEntity
  8
0
100
AcDbLine
 62
7
  6
CONTINUOUS
 10
216.1419997969
 20
344.8617177396
 11
132.1419997969
 21
344.8617177396
  0
LINE
  5
2FE
100
AcDbEntity
  8
0
100
AcDbLine
 62
9
  6
CONTINUOUS
 10
132.4178618659
 20
348.8617177396
 11
159.1419997969
 21
348.8617177396
  0
LINE
  5
2FF
100
AcDbEntity
  8
0
100
AcDbLine
 62
7
  6
CONTINUOUS
 10
318.1419997969
 20
354.8617177396
 11
218.1419997969
 21
354.8617177396
  0
LINE
  5
300
100
AcDbEntity
  8
02___PRT_ALL_AXES
100
AcDbLine
 62
7
  6
CONTINUOUS
 10
109.1419997969
 20
354.8617177396
 11
159.1419997969
 21
354.8617177396
  0
LINE
  5
301
100
AcDbEntity
  8
0
100
AcDbLine
 62
9
  6
CONTINUOUS
 10
218.1419997969
 20
362.8617177396
 11
318.1419997969
 21
362.8617177396
  0
LINE
  5
302
100
AcDbEntity
  8
0
100
AcDbLine
 62
7
  6
CONTINUOUS
 10
220.1419997969
 20
364.8617177396
 11
316.1419997969
 21
364.8617177396
  0
LINE
  5
303
100
AcDbEntity
  8
0
100
AcDbLine
 62
9
  6
CONTINUOUS
 10
230.1419997969
 20
366.8617177396
 11
306.1419997969
 21
366.8617177396
  0
LINE
  5
304
100
AcDbEntity
  8
0
100
AcDbLine
 62
7
  6
CONTINUOUS
 10
230.1419997206
 20
380.8617177396
 11
306.1419998732
 21
380.8617177396
  0
LINE
  5
305
100
AcDbEntity
  8
0
100
AcDbLine
 62
7
  6
CONTINUOUS
 10
-790.8406579747
 20
28.0660157059
 11
-790.8308267795
 21
28.056413858
  0
LINE
  5
306
100
AcDbEntity
  8
0
100
AcDbLine
 62
7
  6
CONTINUOUS
 10
-832.4267214482
 20
256.8617177396
 11
-832.4267214482
 21
332.8617177396
  0
LINE
  5
307
100
AcDbEntity
  8
0
100
AcDbLine
 62
9
  6
CONTINUOUS
 10
-819.4267214482
 20
256.8617177396
 11
-819.4267214482
 21
332.8617177396
  0
LINE
  5
308
100
AcDbEntity
  8
0
100
AcDbLine
 62
7
  6
CONTINUOUS
 10
-817.4267214482
 20
246.8617177396
 11
-817.4267214482
 21
342.8617177396
  0
LINE
  5
309
100
AcDbEntity
  8
0
100
AcDbLine
 62
9
  6
CONTINUOUS
 10
-815.4267214482
 20
244.8617177396
 11
-815.4267214482
 21
344.8617177396
  0
LINE
  5
30A
100
AcDbEntity
  8
02___PRT_ALL_AXES
100
AcDbLine
 62
7
  6
CONTINUOUS
 10
-805.4267214482
 20
28.8618464718
 11
-805.4267214482
 21
88.8615890075
  0
LINE
  5
30B
100
AcDbEntity
  8
02___PRT_ALL_AXES
100
AcDbLine
 62
7
  6
CONTINUOUS
 10
-805.4267214482
 20
114.8618464718
 11
-805.4267214482
 21
174.8615890075
  0
LINE
  5
30C
100
AcDbEntity
  8
0
100
AcDbLine
 62
7
  6
CONTINUOUS
 10
-805.4267214482
 20
244.8617177396
 11
-805.4267214482
 21
344.8617177396
  0
LINE
  5
30D
100
AcDbEntity
  8
0
100
AcDbLine
 62
9
  6
CONTINUOUS
 10
-799.4267214482
 20
65.7151976153
 11
-799.4267214482
 21
88.8617177396
  0
LINE
  5
30E
100
AcDbEntity
  8
0
100
AcDbLine
 62
9
  6
CONTINUOUS
 10
-799.4267214482
 20
114.8617177413
 11
-799.4267214482
 21
174.8617177396
  0
LINE
  5
30F
100
AcDbEntity
  8
0
100
AcDbLine
 62
7
  6
CONTINUOUS
 10
-795.4267214482
 20
67.5280247637
 11
-795.4267214482
 21
324.7402034048
  0
LINE
  5
310
100
AcDbEntity
  8
0
100
AcDbLine
 62
9
  6
CONTINUOUS
 10
-780.4267214482
 20
23.8617177396
 11
-780.4267214482
 21
344.1267176303
  0
LWPOLYLINE
  5
311
100
AcDbEntity
  8
0
100
AcDbPolyline
 62
7
  6
CONTINUOUS
 90
3
 70
0
 10
-792.8578992619
 20
28.862020505
 10
-791.6265802155
 20
28.5898445121
 10
-790.8406593428
 20
28.0660160731
  0
LINE
  5
312
100
AcDbEntity
  8
0
100
AcDbLine
 62
7
  6
CONTINUOUS
 10
-739.4267214482
 20
344.8617177396
 11
-739.4267214482
 21
362.8617177396
  0
LINE
  5
313
100
AcDbEntity
  8
0
100
AcDbLine
 62
9
  6
CONTINUOUS
 10
-731.4267214482
 20
344.8617177396
 11
-731.4267214482
 21
364.8617177396
  0
LINE
  5
314
100
AcDbEntity
  8
0
100
AcDbLine
 62
7
  6
CONTINUOUS
 10
-727.4267214482
 20
366.8617177396
 11
-727.4267214482
 21
380.8617177396
  0
LINE
  5
315
100
AcDbEntity
  8
0
100
AcDbLine
 62
7
  6
CONTINUOUS
 10
-719.4267214482
 20
22.8617177396
 11
-719.4267214482
 21
59.6724326283
  0
LINE
  5
316
100
AcDbEntity
  8
0
100
AcDbLine
 62
7
  6
CONTINUOUS
 10
-716.9267214482
 20
270.2400550983
 11
-716.9267214482
 21
344.8617177396
  0
LINE
  5
317
100
AcDbEntity
  8
0
100
AcDbLine
 62
9
  6
CONTINUOUS
 10
-708.9267214482
 20
225.16234442
 11
-708.9267214482
 21
344.8617177396
  0
LINE
  5
318
100
AcDbEntity
  8
0
100
AcDbLine
 62
7
  6
CONTINUOUS
 10
-792.8835937729
 20
28.8617177396
 11
-792.8578886741
 21
28.8620295051
  0
LINE
  5
319
100
AcDbEntity
  8
0
100
AcDbLine
 62
7
  6
CONTINUOUS
 10
-330.4267214482
 20
22.8617177396
 11
-515.4267214482
 21
22.8617177396
  0
LINE
  5
31A
100
AcDbEntity
  8
0
100
AcDbLine
 62
7
  6
CONTINUOUS
 10
-689.4267214482
 20
22.8617177396
 11
-719.4267214482
 21
22.8617177396
  0
LINE
  5
31B
100
AcDbEntity
  8
0
100
AcDbLine
 62
7
  6
CONTINUOUS
 10
-780.4267214482
 20
23.8617177396
 11
-719.4267214482
 21
23.8617177396
  0
LINE
  5
31C
100
AcDbEntity
  8
0
100
AcDbLine
 62
7
  6
CONTINUOUS
 10
-689.4267214482
 20
23.8617177396
 11
-653.4267214482
 21
23.8617177396
  0
LINE
  5
31D
100
AcDbEntity
  8
0
100
AcDbLine
 62
3
  6
CONTINUOUS
 10
-330.4267214482
 20
25.8617177396
 11
-515.4267214482
 21
25.8617177396
  0
LINE
  5
31E
100
AcDbEntity
  8
02___PRT_ALL_AXES
100
AcDbLine
 62
7
  6
CONTINUOUS
 10
-805.4267214482
 20
28.8617177396
 11
-792.883583145
 21
28.8617177396
  0
LINE
  5
31F
100
AcDbEntity
  8
0
100
AcDbLine
 62
9
  6
CONTINUOUS
 10
-330.4267214482
 20
28.8617177396
 11
-515.4267214482
 21
28.8617177396
  0
LINE
  5
320
100
AcDbEntity
  8
0
100
AcDbLine
 62
7
  6
CONTINUOUS
 10
-629.9267214482
 20
32.3617177396
 11
-637.9267214482
 21
32.3617177396
  0
LINE
  5
321
100
AcDbEntity
  8
0
100
AcDbLine
 62
9
  6
CONTINUOUS
 10
-330.4267214482
 20
36.8617177396
 11
-515.4267214482
 21
36.8617177396
  0
LINE
  5
322
100
AcDbEntity
  8
0
100
AcDbLine
 62
7
  6
CONTINUOUS
 10
-689.4267214482
 20
22.8617177396
 11
-689.4267214482
 21
59.6724326283
  0
LINE
  5
323
100
AcDbEntity
  8
0
100
AcDbLine
 62
7
  6
CONTINUOUS
 10
-510.9267214482
 20
42.8617177396
 11
-334.9267214482
 21
42.8617177396
  0
LINE
  5
324
100
AcDbEntity
  8
0
100
AcDbLine
 62
3
  6
CONTINUOUS
 10
-330.4267214482
 20
42.8617177396
 11
-334.9267214482
 21
42.8617177396
  0
LINE
  5
325
100
AcDbEntity
  8
0
100
AcDbLine
 62
3
  6
CONTINUOUS
 10
-510.9267214482
 20
42.8617177396
 11
-515.4267214482
 21
42.8617177396
  0
LINE
  5
326
100
AcDbEntity
  8
02___PRT_ALL_AXES
100
AcDbLine
 62
7
  6
CONTINUOUS
 10
-265.2109717314
 20
44.8617177396
 11
-301.9267214482
 21
44.8617177396
  0
LINE
  5
327
100
AcDbEntity
  8
02___PRT_ALL_AXES
100
AcDbLine
 62
7
  6
CONTINUOUS
 10
-311.9267214482
 20
44.8617177396
 11
-334.9267214482
 21
44.8617177396
  0
LINE
  5
328
100
AcDbEntity
  8
02___PRT_ALL_AXES
100
AcDbLine
 62
7
  6
CONTINUOUS
 10
-510.9267214482
 20
44.8617177396
 11
-542.9267214038
 21
44.8617177396
  0
LINE
  5
329
100
AcDbEntity
  8
3_ALL_AXES
100
AcDbLine
 62
7
  6
CONTINUOUS
 10
-638.4267214482
 20
49.8617177396
 11
-637.9267214482
 21
49.8617177396
  0
LINE
  5
32A
100
AcDbEntity
  8
0
100
AcDbLine
 62
7
  6
CONTINUOUS
 10
-510.9267214482
 20
54.8617177396
 11
-334.9267214482
 21
54.8617177396
  0
LINE
  5
32B
100
AcDbEntity
  8
0
100
AcDbLine
 62
7
  6
CONTINUOUS
 10
-628.9267214482
 20
57.3617177396
 11
-627.9267214482
 21
57.3617177396
  0
LINE
  5
32C
100
AcDbEntity
  8
0
100
AcDbLine
 62
7
  6
CONTINUOUS
 10
-719.4267214482
 20
59.6724326283
 11
-689.4267214482
 21
59.6724326283
  0
LINE
  5
32D
100
AcDbEntity
  8
0
100
AcDbLine
 62
9
  6
CONTINUOUS
 10
-669.9267214482
 20
225.16234442
 11
-669.9267214482
 21
344.8617177396
  0
LINE
  5
32E
100
AcDbEntity
  8
0
100
AcDbLine
 62
7
  6
CONTINUOUS
 10
-661.9267214482
 20
270.2400550983
 11
-661.9267214482
 21
344.8617177396
  0
LINE
  5
32F
100
AcDbEntity
  8
0
100
AcDbLine
 62
9
  6
CONTINUOUS
 10
-653.4267214741
 20
344.8617177396
 11
-653.4267214482
 21
23.8617177396
  0
LINE
  5
330
100
AcDbEntity
  8
0
100
AcDbLine
 62
7
  6
CONTINUOUS
 10
-651.4267214482
 20
366.8617177396
 11
-651.4267214482
 21
380.8617177396
  0
LINE
  5
331
100
AcDbEntity
  8
0
100
AcDbLine
 62
9
  6
CONTINUOUS
 10
-647.4267214482
 20
344.8617177396
 11
-647.4267214482
 21
364.8617177396
  0
LINE
  5
332
100
AcDbEntity
  8
02___PRT_ALL_AXES
100
AcDbLine
 62
7
  6
CONTINUOUS
 10
-799.4267214482
 20
88.8617177396
 11
-805.4267214482
 21
88.8617177396
  0
LINE
  5
333
100
AcDbEntity
  8
0
100
AcDbLine
 62
7
  6
CONTINUOUS
 10
-562.9267280903
 20
64.8617111318
 11
-542.9267295232
 21
44.8617096203
  0
LINE
  5
334
100
AcDbEntity
  8
0
100
AcDbLine
 62
9
  6
CONTINUOUS
 10
-622.9267196092
 20
112.3636057694
 11
-621.9267214482
 21
110.7180575051
  0
LINE
  5
335
100
AcDbEntity
  8
0
100
AcDbLine
 62
7
  6
CONTINUOUS
 10
-639.4267214482
 20
344.8617177396
 11
-639.4267214482
 21
362.8617177396
  0
LINE
  5
336
100
AcDbEntity
  8
0
100
AcDbLine
 62
7
  6
CONTINUOUS
 10
-638.4267214482
 20
329.8617177396
 11
-638.4267214482
 21
38.8617177832
  0
LINE
  5
337
100
AcDbEntity
  8
0
100
AcDbLine
 62
7
  6
CONTINUOUS
 10
-637.9267214482
 20
32.3617995065
 11
-637.9267214482
 21
277.3616359727
  0
LINE
  5
338
100
AcDbEntity
  8
0
100
AcDbLine
 62
9
  6
CONTINUOUS
 10
-629.9267214482
 20
32.3617177396
 11
-629.9267214482
 21
277.3617177396
  0
LINE
  5
339
100
AcDbEntity
  8
0
100
AcDbLine
 62
7
  6
CONTINUOUS
 10
-628.9267214482
 20
277.0937685472
 11
-628.9267214482
 21
32.629666932
  0
LINE
  5
33A
100
AcDbEntity
  8
0
100
AcDbLine
 62
7
  6
CONTINUOUS
 10
-627.9267214482
 20
252.3616390047
 11
-627.9267214482
 21
57.3617964745
  0
LINE
  5
33B
100
AcDbEntity
  8
0
100
AcDbLine
 62
9
  6
CONTINUOUS
 10
-625.9267214482
 20
89.8617177396
 11
-625.9267214482
 21
103.4760366922
  0
LINE
  5
33C
100
AcDbEntity
  8
0
100
AcDbLine
 62
9
  6
CONTINUOUS
 10
-625.9267214482
 20
149.8617177396
 11
-625.9267214482
 21
159.8617177396
  0
LINE
  5
33D
100
AcDbEntity
  8
0
100
AcDbLine
 62
9
  6
CONTINUOUS
 10
-625.9267214482
 20
206.247398787
 11
-625.9267214482
 21
219.8617177396
  0
LINE
  5
33E
100
AcDbEntity
  8
0
100
AcDbLine
 62
7
  6
CONTINUOUS
 10
-625.9267214482
 20
89.8617177396
 11
-564.9267214482
 21
89.8617177396
  0
LINE
  5
33F
100
AcDbEntity
  8
0
100
AcDbLine
 62
9
  6
CONTINUOUS
 10
-576.9267214482
 20
91.8617177396
 11
-627.9267214482
 21
91.8617177397
  0
LINE
  5
340
100
AcDbEntity
  8
0
100
AcDbLine
 62
9
  6
CONTINUOUS
 10
-627.9267214482
 20
103.4760366922
 11
-625.9267214482
 21
103.4760366922
  0
LINE
  5
341
100
AcDbEntity
  8
0
100
AcDbLine
 62
9
  6
CONTINUOUS
 10
-604.9267214209
 20
123.4185237432
 11
-603.9267214482
 21
121.8325711839
  0
LINE
  5
342
100
AcDbEntity
  8
0
100
AcDbLine
 62
9
  6
CONTINUOUS
 10
-622.9267214482
 20
197.359826684
 11
-622.9267214482
 21
161.6007774603
  0
LINE
  5
343
100
AcDbEntity
  8
0
100
AcDbLine
 62
9
  6
CONTINUOUS
 10
-622.9267214482
 20
148.1226580189
 11
-622.9267214482
 21
112.3636087952
  0
LINE
  5
344
100
AcDbEntity
  8
0
100
AcDbLine
 62
9
  6
CONTINUOUS
 10
-604.9267214482
 20
186.3049116928
 11
-604.9267214482
 21
161.5256004197
  0
LINE
  5
345
100
AcDbEntity
  8
0
100
AcDbLine
 62
9
  6
CONTINUOUS
 10
-604.9267214482
 20
148.1978350595
 11
-604.9267214482
 21
123.4185237865
  0
LINE
  5
346
100
AcDbEntity
  8
0
100
AcDbLine
 62
9
  6
CONTINUOUS
 10
-622.9267214324
 20
197.3598267099
 11
-621.9267214482
 21
199.0053779741
  0
LINE
  5
347
100
AcDbEntity
  8
02___PRT_ALL_AXES
100
AcDbLine
 62
7
  6
CONTINUOUS
 10
-805.4267214482
 20
114.8617177396
 11
-799.4267214482
 21
114.8617177396
  0
LINE
  5
348
100
AcDbEntity
  8
0
100
AcDbLine
 62
9
  6
CONTINUOUS
 10
-576.9267214482
 20
121.9109969584
 11
-578.9267214482
 21
121.9109969584
  0
LINE
  5
349
100
AcDbEntity
  8
0
100
AcDbLine
 62
9
  6
CONTINUOUS
 10
-579.9267214482
 20
123.0065768672
 11
-599.9267214482
 21
123.0065768672
  0
LINE
  5
34A
100
AcDbEntity
  8
0
100
AcDbLine
 62
9
  6
CONTINUOUS
 10
-579.9267214482
 20
124.8268706314
 11
-599.9267214482
 21
124.8268706314
  0
LINE
  5
34B
100
AcDbEntity
  8
0
100
AcDbLine
 62
9
  6
CONTINUOUS
 10
-562.9267214482
 20
124.8617177396
 11
-576.9267214482
 21
124.8617177396
  0
LINE
  5
34C
100
AcDbEntity
  8
0
100
AcDbLine
 62
9
  6
CONTINUOUS
 10
-599.9267214482
 20
123.0065768672
 11
-599.9267214482
 21
149.8617177396
  0
LINE
  5
34D
100
AcDbEntity
  8
0
100
AcDbLine
 62
9
  6
CONTINUOUS
 10
-599.9267214482
 20
159.8617177396
 11
-599.9267214482
 21
186.716858612
  0
LINE
  5
34E
100
AcDbEntity
  8
0
100
AcDbLine
 62
9
  6
CONTINUOUS
 10
-579.9267214482
 20
123.0065768672
 11
-579.9267214482
 21
149.8617177396
  0
LINE
  5
34F
100
AcDbEntity
  8
0
100
AcDbLine
 62
9
  6
CONTINUOUS
 10
-579.9267214482
 20
159.8617177396
 11
-579.9267214482
 21
186.716858612
  0
LINE
  5
350
100
AcDbEntity
  8
0
100
AcDbLine
 62
9
  6
CONTINUOUS
 10
-578.9267214482
 20
159.8617177396
 11
-578.9267214483
 21
157.8617177396
  0
LINE
  5
351
100
AcDbEntity
  8
0
100
AcDbLine
 62
9
  6
CONTINUOUS
 10
-578.9267214477
 20
151.8617177396
 11
-578.9267214479
 21
149.8617177396
  0
LINE
  5
352
100
AcDbEntity
  8
0
100
AcDbLine
 62
9
  6
CONTINUOUS
 10
-578.9267214483
 20
89.8617177396
 11
-578.9267214482
 21
121.9109969584
  0
LINE
  5
353
100
AcDbEntity
  8
0
100
AcDbLine
 62
9
  6
CONTINUOUS
 10
-578.9267214482
 20
187.8124385208
 11
-578.9267214477
 21
219.8617177396
  0
LINE
  5
354
100
AcDbEntity
  8
0
100
AcDbLine
 62
9
  6
CONTINUOUS
 10
-604.9267201364
 20
186.3049137732
 11
-603.9267214482
 21
187.8908642953
  0
LINE
  5
355
100
AcDbEntity
  8
0
100
AcDbLine
 62
7
  6
CONTINUOUS
 10
-562.9267280903
 20
244.8617243474
 11
-542.9267295232
 21
264.8617258589
  0
LINE
  5
356
100
AcDbEntity
  8
0
100
AcDbLine
 62
9
  6
CONTINUOUS
 10
-576.9267214482
 20
147.8617177396
 11
-574.9267214482
 21
147.8617177395
  0
LINE
  5
357
100
AcDbEntity
  8
0
100
AcDbLine
 62
9
  6
CONTINUOUS
 10
-599.9267214482
 20
148.2617177396
 11
-579.9267214482
 21
148.2617177396
  0
LINE
  5
358
100
AcDbEntity
  8
0
100
AcDbLine
 62
7
  6
CONTINUOUS
 10
-625.9267214482
 20
149.8617177396
 11
-578.9267214482
 21
149.8617177396
  0
LINE
  5
359
100
AcDbEntity
  8
0
100
AcDbLine
 62
9
  6
CONTINUOUS
 10
-578.9267214482
 20
151.8617177396
 11
-627.9267214482
 21
151.8617177397
  0
LINE
  5
35A
100
AcDbEntity
  8
0
100
AcDbLine
 62
9
  6
CONTINUOUS
 10
-638.4267214482
 20
154.8617177396
 11
-795.4267214482
 21
154.8617177396
  0
LINE
  5
35B
100
AcDbEntity
  8
0
100
AcDbLine
 62
9
  6
CONTINUOUS
 10
-627.9267214482
 20
157.8617177401
 11
-578.9267214482
 21
157.8617177396
  0
LINE
  5
35C
100
AcDbEntity
  8
0
100
AcDbLine
 62
7
  6
CONTINUOUS
 10
-576.9267214482
 20
91.8617177396
 11
-576.9267214482
 21
147.8617177396
  0
LINE
  5
35D
100
AcDbEntity
  8
0
100
AcDbLine
 62
7
  6
CONTINUOUS
 10
-576.9267214482
 20
161.8617177396
 11
-576.9267214482
 21
217.8617177396
  0
LINE
  5
35E
100
AcDbEntity
  8
0
100
AcDbLine
 62
9
  6
CONTINUOUS
 10
-574.9267214482
 20
89.8617177396
 11
-574.9267214482
 21
147.8617177396
  0
LINE
  5
35F
100
AcDbEntity
  8
0
100
AcDbLine
 62
9
  6
CONTINUOUS
 10
-574.9267214482
 20
161.8617177396
 11
-574.9267214482
 21
219.8617177396
  0
LINE
  5
360
100
AcDbEntity
  8
0
100
AcDbLine
 62
9
  6
CONTINUOUS
 10
-564.9267214482
 20
219.8617177396
 11
-564.9267214482
 21
89.8617177396
  0
LINE
  5
361
100
AcDbEntity
  8
0
100
AcDbLine
 62
7
  6
CONTINUOUS
 10
-562.9267214482
 20
64.8627637387
 11
-562.9267214482
 21
244.8606717405
  0
LINE
  5
362
100
AcDbEntity
  8
0
100
AcDbLine
 62
7
  6
CONTINUOUS
 10
-625.9267214482
 20
159.8617177396
 11
-578.9267214482
 21
159.8617177396
  0
LINE
  5
363
100
AcDbEntity
  8
0
100
AcDbLine
 62
9
  6
CONTINUOUS
 10
-579.9267214482
 20
161.4617177396
 11
-599.9267214482
 21
161.4617177396
  0
LINE
  5
364
100
AcDbEntity
  8
0
100
AcDbLine
 62
9
  6
CONTINUOUS
 10
-574.9267214482
 20
161.8617177396
 11
-576.9267214482
 21
161.8617177396
  0
LINE
  5
365
100
AcDbEntity
  8
02___PRT_ALL_AXES
100
AcDbLine
 62
7
  6
CONTINUOUS
 10
-799.4267214482
 20
174.8617177396
 11
-805.4267214482
 21
174.8617177396
  0
LINE
  5
366
100
AcDbEntity
  8
0
100
AcDbLine
 62
7
  6
CONTINUOUS
 10
-542.9267215017
 20
44.8617177396
 11
-542.9267215017
 21
264.8617177396
  0
LINE
  5
367
100
AcDbEntity
  8
0
100
AcDbLine
 62
9
  6
CONTINUOUS
 10
-562.9267214482
 20
184.8617177396
 11
-576.9267214482
 21
184.8617177396
  0
LINE
  5
368
100
AcDbEntity
  8
0
100
AcDbLine
 62
9
  6
CONTINUOUS
 10
-599.9267214482
 20
184.8965648479
 11
-579.9267214482
 21
184.8965648479
  0
LINE
  5
369
100
AcDbEntity
  8
0
100
AcDbLine
 62
9
  6
CONTINUOUS
 10
-599.9267214482
 20
186.716858612
 11
-579.9267214482
 21
186.716858612
  0
LINE
  5
36A
100
AcDbEntity
  8
0
100
AcDbLine
 62
9
  6
CONTINUOUS
 10
-576.9267214482
 20
187.8124385208
 11
-578.9267214482
 21
187.8124385208
  0
LINE
  5
36B
100
AcDbEntity
  8
0
100
AcDbLine
 62
7
  6
CONTINUOUS
 10
-517.9267214482
 20
247.0571623125
 11
-517.9267214482
 21
306.8617177396
  0
LINE
  5
36C
100
AcDbEntity
  8
0
100
AcDbLine
 62
7
  6
CONTINUOUS
 10
-515.4267214482
 20
22.8617177396
 11
-515.4267214482
 21
25.8617177396
  0
LINE
  5
36D
100
AcDbEntity
  8
0
100
AcDbLine
 62
3
  6
CONTINUOUS
 10
-515.4267214482
 20
25.8617177396
 11
-515.4267214482
 21
42.8617177396
  0
LINE
  5
36E
100
AcDbEntity
  8
0
100
AcDbLine
 62
7
  6
CONTINUOUS
 10
-510.9267214482
 20
42.8617177396
 11
-510.9267214482
 21
54.8617177396
  0
LINE
  5
36F
100
AcDbEntity
  8
0
100
AcDbLine
 62
9
  6
CONTINUOUS
 10
-627.9267214482
 20
206.247398787
 11
-625.9267214482
 21
206.247398787
  0
LINE
  5
370
100
AcDbEntity
  8
0
100
AcDbLine
 62
9
  6
CONTINUOUS
 10
-627.9267214482
 20
217.8617177401
 11
-576.9267214482
 21
217.8617177396
  0
LINE
  5
371
100
AcDbEntity
  8
0
100
AcDbLine
 62
7
  6
CONTINUOUS
 10
-625.9267214482
 20
219.8617177396
 11
-564.9267214482
 21
219.8617177396
  0
LINE
  5
372
100
AcDbEntity
  8
3_ALL_AXES
100
AcDbLine
 62
7
  6
CONTINUOUS
 10
-574.9267214482
 20
219.8617177396
 11
-564.9267214482
 21
219.8617177396
  0
LINE
  5
373
100
AcDbEntity
  8
0
100
AcDbLine
 62
9
  6
CONTINUOUS
 10
-638.4267214482
 20
225.16234442
 11
-669.9267214482
 21
225.16234442
  0
LINE
  5
374
100
AcDbEntity
  8
0
100
AcDbLine
 62
9
  6
CONTINUOUS
 10
-708.9267214482
 20
225.16234442
 11
-795.4267214482
 21
225.16234442
  0
LINE
  5
375
100
AcDbEntity
  8
0
100
AcDbLine
 62
9
  6
CONTINUOUS
 10
-500.4267214482
 20
22.8617177396
 11
-500.4267214482
 21
25.8617177396
  0
LINE
  5
376
100
AcDbEntity
  8
0
100
AcDbLine
 62
7
  6
CONTINUOUS
 10
-815.4267214482
 20
244.8617177396
 11
-795.4267214482
 21
244.8617177396
  0
LINE
  5
377
100
AcDbEntity
  8
0
100
AcDbLine
 62
7
  6
CONTINUOUS
 10
-397.9267214482
 20
247.0571623125
 11
-517.9267214482
 21
247.0571623125
  0
LINE
  5
378
100
AcDbEntity
  8
0
100
AcDbLine
 62
7
  6
CONTINUOUS
 10
-628.9267214482
 20
252.3617177396
 11
-627.9267214482
 21
252.3617177396
  0
LINE
  5
379
100
AcDbEntity
  8
0
100
AcDbLine
 62
9
  6
CONTINUOUS
 10
-817.4267214482
 20
252.8617177396
 11
-795.4267214482
 21
252.8617177396
  0
LINE
  5
37A
100
AcDbEntity
  8
0
100
AcDbLine
 62
7
  6
CONTINUOUS
 10
-819.4267214482
 20
256.8617177396
 11
-832.4267214482
 21
256.8617177396
  0
LINE
  5
37B
100
AcDbEntity
  8
3_ALL_AXES
100
AcDbLine
 62
7
  6
CONTINUOUS
 10
-638.4267214482
 20
259.8617177396
 11
-637.9267214482
 21
259.8617177396
  0
LINE
  5
37C
100
AcDbEntity
  8
02___PRT_ALL_AXES
100
AcDbLine
 62
7
  6
CONTINUOUS
 10
-265.2109717314
 20
264.8617177396
 11
-301.9267214482
 21
264.8617177396
  0
LINE
  5
37D
100
AcDbEntity
  8
02___PRT_ALL_AXES
100
AcDbLine
 62
7
  6
CONTINUOUS
 10
-311.9267214482
 20
264.8617177396
 11
-397.9267214482
 21
264.8617177396
  0
LINE
  5
37E
100
AcDbEntity
  8
02___PRT_ALL_AXES
100
AcDbLine
 62
7
  6
CONTINUOUS
 10
-517.9267214482
 20
264.8617177396
 11
-542.9267214038
 21
264.8617177396
  0
LINE
  5
37F
100
AcDbEntity
  8
0
100
AcDbLine
 62
7
  6
CONTINUOUS
 10
-629.9267214482
 20
277.3617177396
 11
-637.9267214482
 21
277.3617177396
  0
LINE
  5
380
100
AcDbEntity
  8
0
100
AcDbLine
 62
7
  6
CONTINUOUS
 10
-517.9267214482
 20
306.8617177396
 11
-397.9267214482
 21
306.8617177396
  0
LINE
  5
381
100
AcDbEntity
  8
0
100
AcDbLine
 62
7
  6
CONTINUOUS
 10
-397.9267214482
 20
247.0571623125
 11
-397.9267214482
 21
306.8617177396
  0
LINE
  5
382
100
AcDbEntity
  8
0
100
AcDbLine
 62
7
  6
CONTINUOUS
 10
-819.4267214482
 20
332.8617177396
 11
-832.4267214482
 21
332.8617177396
  0
LINE
  5
383
100
AcDbEntity
  8
0
100
AcDbLine
 62
9
  6
CONTINUOUS
 10
-791.0814188312
 20
336.8617177396
 11
-817.4267214482
 21
336.8617177396
  0
LINE
  5
384
100
AcDbEntity
  8
0
100
AcDbLine
 62
9
  6
CONTINUOUS
 10
-780.4267214482
 20
344.1267176303
 11
-716.9267214482
 21
344.1267267864
  0
LINE
  5
385
100
AcDbEntity
  8
0
100
AcDbLine
 62
9
  6
CONTINUOUS
 10
-661.9267214482
 20
344.1267347168
 11
-653.4267214785
 21
344.1267359425
  0
LINE
  5
386
100
AcDbEntity
  8
0
100
AcDbLine
 62
7
  6
CONTINUOUS
 10
-639.4267214482
 20
344.8617177396
 11
-815.4267214482
 21
344.8617177396
  0
LINE
  5
387
100
AcDbEntity
  8
0
100
AcDbLine
 62
7
  6
CONTINUOUS
 10
-739.4267214482
 20
354.8617177396
 11
-639.4267214482
 21
354.8617177396
  0
LINE
  5
388
100
AcDbEntity
  8
0
100
AcDbLine
 62
9
  6
CONTINUOUS
 10
-739.4267214482
 20
362.8617177396
 11
-639.4267214482
 21
362.8617177396
  0
LINE
  5
389
100
AcDbEntity
  8
0
100
AcDbLine
 62
7
  6
CONTINUOUS
 10
-737.4267214482
 20
364.8617177396
 11
-641.4267214482
 21
364.8617177396
  0
LINE
  5
38A
100
AcDbEntity
  8
0
100
AcDbLine
 62
9
  6
CONTINUOUS
 10
-727.4267214482
 20
366.8617177396
 11
-651.4267214482
 21
366.8617177396
  0
LINE
  5
38B
100
AcDbEntity
  8
0
100
AcDbLine
 62
7
  6
CONTINUOUS
 10
-727.4267214482
 20
380.8617177396
 11
-651.4267214482
 21
380.8617177396
  0
LINE
  5
38C
100
AcDbEntity
  8
0
100
AcDbLine
 62
9
  6
CONTINUOUS
 10
-345.4267214482
 20
22.8617177396
 11
-345.4267214482
 21
25.8617177396
  0
LINE
  5
38D
100
AcDbEntity
  8
0
100
AcDbLine
 62
7
  6
CONTINUOUS
 10
-334.9267214482
 20
42.8617177396
 11
-334.9267214482
 21
54.8617177396
  0
LINE
  5
38E
100
AcDbEntity
  8
0
100
AcDbLine
 62
7
  6
CONTINUOUS
 10
-330.4267214482
 20
22.8617177396
 11
-330.4267214482
 21
25.8617177396
  0
LINE
  5
38F
100
AcDbEntity
  8
0
100
AcDbLine
 62
3
  6
CONTINUOUS
 10
-330.4267214482
 20
25.8617177396
 11
-330.4267214482
 21
42.8617177396
  0
LINE
  5
390
100
AcDbEntity
  8
0
100
AcDbLine
 62
7
  6
CONTINUOUS
 10
-301.9267214482
 20
254.8617177396
 11
-311.9267214482
 21
264.8617177396
  0
LINE
  5
391
100
AcDbEntity
  8
0
100
AcDbLine
 62
7
  6
CONTINUOUS
 10
-311.9267214482
 20
44.8617177396
 11
-311.9267214482
 21
264.8617177396
  0
LINE
  5
392
100
AcDbEntity
  8
0
100
AcDbLine
 62
7
  6
CONTINUOUS
 10
-301.9267214482
 20
44.863006971
 11
-301.9267214482
 21
264.8604285082
  0
LINE
  5
393
100
AcDbEntity
  8
0
100
AcDbLine
 62
7
  6
CONTINUOUS
 10
-242.7845840624
 20
250.7195996408
 11
-251.0688346718
 21
259.0038519171
  0
LINE
  5
394
100
AcDbEntity
  8
0
100
AcDbLine
 62
9
  6
CONTINUOUS
 10
-265.2109717302
 20
44.8617177398
 11
-265.2109717302
 21
264.8617177394
  0
LINE
  5
395
100
AcDbEntity
  8
0
100
AcDbLine
 62
7
  6
CONTINUOUS
 10
-301.9267214482
 20
54.8617177396
 11
-311.9267214482
 21
44.8617177396
  0
LINE
  5
396
100
AcDbEntity
  8
0
100
AcDbLine
 62
9
  6
CONTINUOUS
 10
-251.0688346693
 20
50.7195835649
 11
-251.0688346693
 21
259.0038519143
  0
LINE
  5
397
100
AcDbEntity
  8
0
100
AcDbLine
 62
9
  6
CONTINUOUS
 10
-242.7845840631
 20
250.7195996415
 11
-242.7845840631
 21
59.0038358377
  0
LINE
  5
398
100
AcDbEntity
  8
0
100
AcDbLine
 62
7
  6
CONTINUOUS
 10
-236.9267214482
 20
236.5774586249
 11
-236.9267214482
 21
73.1459768543
  0
LINE
  5
399
100
AcDbEntity
  8
0
100
AcDbLine
 62
7
  6
CONTINUOUS
 10
-242.7845840624
 20
59.0038358384
 11
-251.0688346718
 21
50.7195835622
  0
LINE
  5
39A
100
AcDbEntity
  8
0
100
AcDbLine
 62
7
  6
CONTINUOUS
 10
1693.5722022861
 20
22.8617177396
 11
1523.5722022861
 21
22.8617177396
  0
LINE
  5
39B
100
AcDbEntity
  8
0
100
AcDbLine
 62
7
  6
CONTINUOUS
 10
1468.5722022861
 20
22.8617177396
 11
1495.5722022861
 21
22.8617177396
  0
LINE
  5
39C
100
AcDbEntity
  8
0
100
AcDbLine
 62
7
  6
CONTINUOUS
 10
1731.5722022861
 20
22.8617177396
 11
1758.5722022861
 21
22.8617177396
  0
LINE
  5
39D
100
AcDbEntity
  8
0
100
AcDbLine
 62
3
  6
CONTINUOUS
 10
1468.5722022861
 20
25.8617177396
 11
1495.5722022861
 21
25.8617177396
  0
LINE
  5
39E
100
AcDbEntity
  8
0
100
AcDbLine
 62
3
  6
CONTINUOUS
 10
1731.5722022861
 20
25.8617177396
 11
1758.5722022861
 21
25.8617177396
  0
LINE
  5
39F
100
AcDbEntity
  8
0
100
AcDbLine
 62
9
  6
CONTINUOUS
 10
1728.5722022861
 20
28.8617177396
 11
1725.5722022861
 21
28.8617177396
  0
LINE
  5
3A0
100
AcDbEntity
  8
0
100
AcDbLine
 62
9
  6
CONTINUOUS
 10
1498.5722022861
 20
28.8617177396
 11
1501.5722022861
 21
28.8617177396
  0
LINE
  5
3A1
100
AcDbEntity
  8
0
100
AcDbLine
 62
9
  6
CONTINUOUS
 10
1728.5722022861
 20
36.8617177396
 11
1725.5722022861
 21
36.8617177396
  0
LINE
  5
3A2
100
AcDbEntity
  8
0
100
AcDbLine
 62
9
  6
CONTINUOUS
 10
1498.5722022861
 20
36.8617177396
 11
1501.5722022861
 21
36.8617177396
  0
LINE
  5
3A3
100
AcDbEntity
  8
0
100
AcDbLine
 62
7
  6
CONTINUOUS
 10
1504.5722022861
 20
39.8617177396
 11
1722.5722022861
 21
39.8617177396
  0
LINE
  5
3A4
100
AcDbEntity
  8
0
100
AcDbLine
 62
7
  6
CONTINUOUS
 10
1503.5722022861
 20
42.8617177396
 11
1504.5722022861
 21
42.8617177396
  0
LINE
  5
3A5
100
AcDbEntity
  8
0
100
AcDbLine
 62
3
  6
CONTINUOUS
 10
1504.5722022861
 20
42.8617177396
 11
1722.5722022861
 21
42.8617177396
  0
LINE
  5
3A6
100
AcDbEntity
  8
0
100
AcDbLine
 62
7
  6
CONTINUOUS
 10
1722.5722022861
 20
42.8617177396
 11
1723.5722022861
 21
42.8617177396
  0
LINE
  5
3A7
100
AcDbEntity
  8
0
100
AcDbLine
 62
7
  6
CONTINUOUS
 10
1460.0722022861
 20
344.8617177396
 11
1460.0722022861
 21
362.8617177396
  0
LINE
  5
3A8
100
AcDbEntity
  8
0
100
AcDbLine
 62
9
  6
CONTINUOUS
 10
1468.0722022861
 20
344.8617177396
 11
1468.0722022861
 21
364.8617177396
  0
LINE
  5
3A9
100
AcDbEntity
  8
0
100
AcDbLine
 62
7
  6
CONTINUOUS
 10
1468.5722022861
 20
22.8617177396
 11
1468.5722022861
 21
25.8617177396
  0
LINE
  5
3AA
100
AcDbEntity
  8
0
100
AcDbLine
 62
7
  6
CONTINUOUS
 10
1503.5722022861
 20
54.8617177396
 11
1567.7464453366
 21
54.8617177396
  0
LINE
  5
3AB
100
AcDbEntity
  8
0
100
AcDbLine
 62
7
  6
CONTINUOUS
 10
1659.3979592357
 20
54.8617177396
 11
1723.5722022861
 21
54.8617177396
  0
LINE
  5
3AC
100
AcDbEntity
  8
0
100
AcDbLine
 62
7
  6
CONTINUOUS
 10
1472.0722022861
 20
366.8617177396
 11
1472.0722022861
 21
380.8617177396
  0
LINE
  5
3AD
100
AcDbEntity
  8
0
100
AcDbLine
 62
7
  6
CONTINUOUS
 10
1482.5722022861
 20
154.8617177396
 11
1482.5722022861
 21
344.8617177396
  0
LINE
  5
3AE
100
AcDbEntity
  8
0
100
AcDbLine
 62
9
  6
CONTINUOUS
 10
1483.5722022861
 20
22.8617177396
 11
1483.5722022861
 21
25.8617177396
  0
LINE
  5
3AF
100
AcDbEntity
  8
0
100
AcDbLine
 62
9
  6
CONTINUOUS
 10
1490.5722022861
 20
270.2400550983
 11
1490.5722022861
 21
344.8617177396
  0
LINE
  5
3B0
100
AcDbEntity
  8
0
100
AcDbLine
 62
9
  6
CONTINUOUS
 10
1495.5722022861
 20
25.8617177396
 11
1495.5722022861
 21
22.8617177396
  0
LINE
  5
3B1
100
AcDbEntity
  8
0
100
AcDbLine
 62
9
  6
CONTINUOUS
 10
1497.5722022861
 20
225.16234442
 11
1497.5722022861
 21
194.2113872143
  0
LINE
  5
3B2
100
AcDbEntity
  8
0
100
AcDbLine
 62
3
  6
CONTINUOUS
 10
1498.5722022861
 20
28.8617177396
 11
1498.5722022861
 21
36.8617177396
  0
LINE
  5
3B3
100
AcDbEntity
  8
0
100
AcDbLine
 62
7
  6
CONTINUOUS
 10
1501.5722022861
 20
28.8617177396
 11
1501.5722022861
 21
36.8617177396
  0
LINE
  5
3B4
100
AcDbEntity
  8
0
100
AcDbLine
 62
7
  6
CONTINUOUS
 10
1503.5722022861
 20
42.8617177396
 11
1503.5722022861
 21
54.8617177396
  0
LINE
  5
3B5
100
AcDbEntity
  8
0
100
AcDbLine
 62
9
  6
CONTINUOUS
 10
1504.5722022861
 20
42.8617177396
 11
1504.5722022861
 21
39.8617177396
  0
LINE
  5
3B6
100
AcDbEntity
  8
0
100
AcDbLine
 62
7
  6
CONTINUOUS
 10
1523.5722022861
 20
22.8617177396
 11
1523.5722022861
 21
39.8617177396
  0
LINE
  5
3B7
100
AcDbEntity
  8
0
100
AcDbLine
 62
7
  6
CONTINUOUS
 10
1523.5722022861
 20
54.8617177396
 11
1523.5722022861
 21
59.6724326283
  0
LINE
  5
3B8
100
AcDbEntity
  8
0
100
AcDbLine
 62
9
  6
CONTINUOUS
 10
1529.5722022861
 20
325.685973483
 11
1529.5722022861
 21
344.8617177396
  0
LINE
  5
3B9
100
AcDbEntity
  8
0
100
AcDbLine
 62
7
  6
CONTINUOUS
 10
1537.5722022861
 20
331.8628598826
 11
1537.5722022861
 21
344.8617177396
  0
LINE
  5
3BA
100
AcDbEntity
  8
0
100
AcDbLine
 62
7
  6
CONTINUOUS
 10
1548.0722022861
 20
366.8617177396
 11
1548.0722022861
 21
380.8617177396
  0
LINE
  5
3BB
100
AcDbEntity
  8
0
100
AcDbLine
 62
9
  6
CONTINUOUS
 10
1552.0722022861
 20
344.8617177396
 11
1552.0722022861
 21
364.8617177396
  0
LINE
  5
3BC
100
AcDbEntity
  8
0
100
AcDbLine
 62
7
  6
CONTINUOUS
 10
1553.5722022861
 20
247.0571623125
 11
1553.5722022861
 21
306.8617177396
  0
LINE
  5
3BD
100
AcDbEntity
  8
0
100
AcDbLine
 62
7
  6
CONTINUOUS
 10
1560.0722022861
 20
344.8617177396
 11
1560.0722022861
 21
362.8617177396
  0
LINE
  5
3BE
100
AcDbEntity
  8
0
100
AcDbLine
 62
9
  6
CONTINUOUS
 10
1491.1539283608
 20
154.8617177396
 11
1482.5722022861
 21
154.8617177396
  0
LINE
  5
3BF
100
AcDbEntity
  8
0
100
AcDbLine
 62
9
  6
CONTINUOUS
 10
1735.9904762115
 20
154.8617177396
 11
1744.5722022861
 21
154.8617177396
  0
LINE
  5
3C0
100
AcDbEntity
  8
0
100
AcDbLine
 62
7
  6
CONTINUOUS
 10
1619.0722022861
 20
354.8617177396
 11
1619.0722022861
 21
348.8617177396
  0
LINE
  5
3C1
100
AcDbEntity
  8
02___PRT_ALL_AXES
100
AcDbLine
 62
7
  6
CONTINUOUS
 10
1619.0722022861
 20
348.8617177396
 11
1619.0722022861
 21
354.8617177396
  0
LINE
  5
3C2
100
AcDbEntity
  8
0
100
AcDbLine
 62
9
  6
CONTINUOUS
 10
1729.5722022861
 20
218.233095561
 11
1744.5722022861
 21
218.233095561
  0
LINE
  5
3C3
100
AcDbEntity
  8
0
100
AcDbLine
 62
9
  6
CONTINUOUS
 10
1497.5722022861
 20
225.16234442
 11
1482.5722022861
 21
225.16234442
  0
LINE
  5
3C4
100
AcDbEntity
  8
0
100
AcDbLine
 62
7
  6
CONTINUOUS
 10
1669.0722022861
 20
354.8617177396
 11
1669.0722022861
 21
339.4137458316
  0
LINE
  5
3C5
100
AcDbEntity
  8
02___PRT_ALL_AXES
100
AcDbLine
 62
7
  6
CONTINUOUS
 10
1669.0722022861
 20
339.4137458316
 11
1669.0722022861
 21
354.8617177396
  0
LINE
  5
3C6
100
AcDbEntity
  8
0
100
AcDbLine
 62
7
  6
CONTINUOUS
 10
1673.5722022861
 20
247.0571623125
 11
1673.5722022861
 21
306.8617177396
  0
LINE
  5
3C7
100
AcDbEntity
  8
0
100
AcDbLine
 62
7
  6
CONTINUOUS
 10
1693.5722022861
 20
22.8617177396
 11
1693.5722022861
 21
39.8617177396
  0
LINE
  5
3C8
100
AcDbEntity
  8
0
100
AcDbLine
 62
7
  6
CONTINUOUS
 10
1553.5722022861
 20
306.8617177396
 11
1673.5722022861
 21
306.8617177396
  0
LINE
  5
3C9
100
AcDbEntity
  8
0
100
AcDbLine
 62
9
  6
CONTINUOUS
 10
1722.5722022861
 20
42.8617177396
 11
1722.5722022861
 21
39.8617177396
  0
LINE
  5
3CA
100
AcDbEntity
  8
0
100
AcDbLine
 62
7
  6
CONTINUOUS
 10
1723.5722022861
 20
42.8617177396
 11
1723.5722022861
 21
54.8617177396
  0
LINE
  5
3CB
100
AcDbEntity
  8
0
100
AcDbLine
 62
7
  6
CONTINUOUS
 10
1725.5722022861
 20
36.8617177396
 11
1725.5722022861
 21
28.8617177396
  0
LINE
  5
3CC
100
AcDbEntity
  8
0
100
AcDbLine
 62
3
  6
CONTINUOUS
 10
1728.5722022861
 20
36.8617177396
 11
1728.5722022861
 21
28.8617177396
  0
LINE
  5
3CD
100
AcDbEntity
  8
0
100
AcDbLine
 62
9
  6
CONTINUOUS
 10
1729.5722022861
 20
194.2113872143
 11
1729.5722022861
 21
218.233095561
  0
LINE
  5
3CE
100
AcDbEntity
  8
0
100
AcDbLine
 62
9
  6
CONTINUOUS
 10
1731.5722022861
 20
25.8617177396
 11
1731.5722022861
 21
22.8617177396
  0
LINE
  5
3CF
100
AcDbEntity
  8
0
100
AcDbLine
 62
9
  6
CONTINUOUS
 10
1743.5722022861
 20
22.8617177396
 11
1743.5722022861
 21
25.8617177396
  0
LINE
  5
3D0
100
AcDbEntity
  8
0
100
AcDbLine
 62
7
  6
CONTINUOUS
 10
1744.5722022861
 20
154.8617177396
 11
1744.5722022861
 21
218.233095561
  0
LINE
  5
3D1
100
AcDbEntity
  8
0
100
AcDbLine
 62
9
  6
CONTINUOUS
 10
1645.1163629861
 20
329.8617177396
 11
1563.6320526001
 21
329.8617177396
  0
LINE
  5
3D2
100
AcDbEntity
  8
0
100
AcDbLine
 62
7
  6
CONTINUOUS
 10
1758.5722022861
 20
22.8617177396
 11
1758.5722022861
 21
25.8617177396
  0
LINE
  5
3D3
100
AcDbEntity
  8
0
100
AcDbLine
 62
7
  6
CONTINUOUS
 10
1646.0721987138
 20
344.8617177396
 11
1562.0722081904
 21
344.8617177396
  0
LINE
  5
3D4
100
AcDbEntity
  8
0
100
AcDbLine
 62
7
  6
CONTINUOUS
 10
1560.0722022861
 20
344.8617177396
 11
1460.0722022861
 21
344.8617177396
  0
LINE
  5
3D5
100
AcDbEntity
  8
0
100
AcDbLine
 62
9
  6
CONTINUOUS
 10
1619.0722022861
 20
348.8617177396
 11
1645.7963402172
 21
348.8617177396
  0
LINE
  5
3D6
100
AcDbEntity
  8
0
100
AcDbLine
 62
7
  6
CONTINUOUS
 10
1560.0722022861
 20
354.8617177396
 11
1460.0722022861
 21
354.8617177396
  0
LINE
  5
3D7
100
AcDbEntity
  8
02___PRT_ALL_AXES
100
AcDbLine
 62
7
  6
CONTINUOUS
 10
1619.0722022861
 20
354.8617177396
 11
1669.0722022861
 21
354.8617177396
  0
LINE
  5
3D8
100
AcDbEntity
  8
0
100
AcDbLine
 62
9
  6
CONTINUOUS
 10
1460.0722022861
 20
362.8617177396
 11
1560.0722022861
 21
362.8617177396
  0
LINE
  5
3D9
100
AcDbEntity
  8
0
100
AcDbLine
 62
7
  6
CONTINUOUS
 10
1462.0722022861
 20
364.8617177396
 11
1558.0722022861
 21
364.8617177396
  0
LINE
  5
3DA
100
AcDbEntity
  8
0
100
AcDbLine
 62
9
  6
CONTINUOUS
 10
1472.0722022861
 20
366.8617177396
 11
1548.0722022861
 21
366.8617177396
  0
LINE
  5
3DB
100
AcDbEntity
  8
0
100
AcDbLine
 62
7
  6
CONTINUOUS
 10
1472.0722022098
 20
380.8617177396
 11
1548.0722023624
 21
380.8617177396
  0
LINE
  5
3DC
100
AcDbEntity
  8
0
100
AcDbLine
 62
7
  6
CONTINUOUS
 10
617.5699262733
 20
-388.8616555308
 11
617.5699262733
 21
-225.4301594521
  0
LINE
  5
3DD
100
AcDbEntity
  8
0
100
AcDbLine
 62
9
  6
CONTINUOUS
 10
623.4277892269
 20
-403.0037897322
 11
623.4277892269
 21
-211.2880252511
  0
LINE
  5
3DE
100
AcDbEntity
  8
0
100
AcDbLine
 62
9
  6
CONTINUOUS
 10
631.7120395205
 20
-203.0037732906
 11
631.7120395205
 21
-411.2880416927
  0
LINE
  5
3DF
100
AcDbEntity
  8
0
100
AcDbLine
 62
9
  6
CONTINUOUS
 10
645.854176567
 20
-197.1459074917
 11
645.854176567
 21
-417.1459074917
  0
LINE
  5
3E0
100
AcDbEntity
  8
0
100
AcDbLine
 62
7
  6
CONTINUOUS
 10
623.4277892269
 20
-211.2880252511
 11
631.7120395205
 21
-203.0037732906
  0
LINE
  5
3E1
100
AcDbEntity
  8
0
100
AcDbLine
 62
7
  6
CONTINUOUS
 10
623.4277892269
 20
-403.0037897322
 11
631.7120395205
 21
-411.2880416927
  0
LINE
  5
3E2
100
AcDbEntity
  8
0
100
AcDbLine
 62
7
  6
CONTINUOUS
 10
682.5699262733
 20
-197.1459074917
 11
682.5699262733
 21
-417.1459074917
  0
LINE
  5
3E3
100
AcDbEntity
  8
0
100
AcDbLine
 62
7
  6
CONTINUOUS
 10
692.5699262733
 20
-197.1459074917
 11
692.5699262733
 21
-417.1459074917
  0
LINE
  5
3E4
100
AcDbEntity
  8
0
100
AcDbLine
 62
7
  6
CONTINUOUS
 10
682.5699262733
 20
-207.1459074917
 11
692.5699262733
 21
-197.1459074917
  0
LINE
  5
3E5
100
AcDbEntity
  8
0
100
AcDbLine
 62
7
  6
CONTINUOUS
 10
682.5699262733
 20
-407.1459074917
 11
692.5699262733
 21
-417.1459074917
  0
LINE
  5
3E6
100
AcDbEntity
  8
0
100
AcDbLine
 62
3
  6
CONTINUOUS
 10
711.0699262733
 20
-177.1459074917
 11
711.0699262733
 21
-197.1459074917
  0
LINE
  5
3E7
100
AcDbEntity
  8
0
100
AcDbLine
 62
3
  6
CONTINUOUS
 10
711.0699262733
 20
-417.1459074917
 11
711.0699262733
 21
-437.1459074917
  0
LINE
  5
3E8
100
AcDbEntity
  8
02___PRT_ALL_AXES
100
AcDbLine
 62
3
  6
CONTINUOUS
 10
727.5699262733
 20
-438.6459074917
 11
727.5699262733
 21
-435.6459074917
  0
LINE
  5
3E9
100
AcDbEntity
  8
02___PRT_ALL_AXES
100
AcDbLine
 62
3
  6
CONTINUOUS
 10
727.5699262733
 20
-178.6459074917
 11
727.5699262733
 21
-175.6459074917
  0
LINE
  5
3EA
100
AcDbEntity
  8
02___PRT_ALL_AXES
100
AcDbLine
 62
3
  6
CONTINUOUS
 10
739.5699262733
 20
-175.6459074917
 11
739.5699262733
 21
-178.6459074917
  0
LINE
  5
3EB
100
AcDbEntity
  8
02___PRT_ALL_AXES
100
AcDbLine
 62
3
  6
CONTINUOUS
 10
739.5699262733
 20
-435.6459074917
 11
739.5699262733
 21
-438.6459074917
  0
LINE
  5
3EC
100
AcDbEntity
  8
0
100
AcDbLine
 62
7
  6
CONTINUOUS
 10
778.5699262733
 20
-247.1459074917
 11
778.5699262733
 21
-367.1459074917
  0
LINE
  5
3ED
100
AcDbEntity
  8
0
100
AcDbLine
 62
3
  6
CONTINUOUS
 10
726.0699262733
 20
-452.1459074917
 11
881.0699262733
 21
-452.1459074917
  0
LINE
  5
3EE
100
AcDbEntity
  8
0
100
AcDbLine
 62
7
  6
CONTINUOUS
 10
1161.0699262733
 20
-438.1459074917
 11
1034.0699262733
 21
-438.1459074917
  0
LINE
  5
3EF
100
AcDbEntity
  8
0
100
AcDbLine
 62
7
  6
CONTINUOUS
 10
1018.5699262733
 20
-429.6459074917
 11
1010.5699262733
 21
-429.6459074917
  0
LINE
  5
3F0
100
AcDbEntity
  8
0
100
AcDbLine
 62
9
  6
CONTINUOUS
 10
711.0699262733
 20
-425.1459074917
 11
896.0699262733
 21
-425.1459074917
  0
LINE
  5
3F1
100
AcDbEntity
  8
0
100
AcDbLine
 62
3
  6
CONTINUOUS
 10
711.0699262733
 20
-422.1459074917
 11
896.0699262733
 21
-422.1459074917
  0
LINE
  5
3F2
100
AcDbEntity
  8
0
100
AcDbLine
 62
7
  6
CONTINUOUS
 10
645.854176567
 20
-417.1459074917
 11
682.5699262733
 21
-417.1459074917
  0
LINE
  5
3F3
100
AcDbEntity
  8
02___PRT_ALL_AXES
100
AcDbLine
 62
7
  6
CONTINUOUS
 10
645.854176567
 20
-417.1459074917
 11
682.5699262733
 21
-417.1459074917
  0
LINE
  5
3F4
100
AcDbEntity
  8
02___PRT_ALL_AXES
100
AcDbLine
 62
7
  6
CONTINUOUS
 10
692.5699262733
 20
-417.1459074917
 11
923.5699262733
 21
-417.1459074917
  0
LINE
  5
3F5
100
AcDbEntity
  8
0
100
AcDbLine
 62
7
  6
CONTINUOUS
 10
692.5699262733
 20
-417.1459074917
 11
923.5699262733
 21
-417.1459074917
  0
LINE
  5
3F6
100
AcDbEntity
  8
3_ALL_AXES
100
AcDbLine
 62
7
  6
CONTINUOUS
 10
1018.5699262733
 20
-412.1459074917
 11
1019.0699262733
 21
-412.1459074917
  0
LINE
  5
3F7
100
AcDbEntity
  8
0
100
AcDbLine
 62
7
  6
CONTINUOUS
 10
1009.5699262733
 20
-404.6459074917
 11
1008.5699262733
 21
-404.6459074917
  0
LINE
  5
3F8
100
AcDbEntity
  8
0
100
AcDbLine
 62
7
  6
CONTINUOUS
 10
1006.5699262733
 20
-372.1459074917
 11
945.5699262733
 21
-372.1459074917
  0
LINE
  5
3F9
100
AcDbEntity
  8
3_ALL_AXES
100
AcDbLine
 62
7
  6
CONTINUOUS
 10
955.5699262733
 20
-372.1459074917
 11
945.5699262733
 21
-372.1459074917
  0
LINE
  5
3FA
100
AcDbEntity
  8
0
100
AcDbLine
 62
9
  6
CONTINUOUS
 10
1008.5699262733
 20
-370.1459074921
 11
957.5699262733
 21
-370.1459074917
  0
LINE
  5
3FB
100
AcDbEntity
  8
0
100
AcDbLine
 62
7
  6
CONTINUOUS
 10
778.5699262733
 20
-367.1459074917
 11
898.5699262733
 21
-367.1459074917
  0
LINE
  5
3FC
100
AcDbEntity
  8
02___PRT_ALL_AXES
100
AcDbLine
 62
3
  6
CONTINUOUS
 10
867.5699262733
 20
-438.6459074917
 11
867.5699262733
 21
-435.6459074917
  0
LINE
  5
3FD
100
AcDbEntity
  8
02___PRT_ALL_AXES
100
AcDbLine
 62
3
  6
CONTINUOUS
 10
867.5699262733
 20
-178.6459074917
 11
867.5699262733
 21
-175.6459074917
  0
LINE
  5
3FE
100
AcDbEntity
  8
0
100
AcDbLine
 62
9
  6
CONTINUOUS
 10
1041.1389739907
 20
-339.6459074921
 11
1045.129450168
 21
-339.3700454325
  0
LINE
  5
3FF
100
AcDbEntity
  8
0
100
AcDbLine
 62
7
  6
CONTINUOUS
 10
1186.0699262733
 20
-362.6459074917
 11
1180.0699262733
 21
-362.6459074917
  0
LINE
  5
400
100
AcDbEntity
  8
0
100
AcDbLine
 62
9
  6
CONTINUOUS
 10
1008.5699262733
 20
-360.0773557687
 11
1006.5699262733
 21
-360.0773557687
  0
LINE
  5
401
100
AcDbEntity
  8
0
100
AcDbLine
 62
7
  6
CONTINUOUS
 10
1196.0699262733
 20
-347.6459074917
 11
1172.798069338
 21
-347.6459074917
  0
LINE
  5
402
100
AcDbEntity
  8
02___PRT_ALL_AXES
100
AcDbLine
 62
3
  6
CONTINUOUS
 10
879.5699262733
 20
-175.6459074917
 11
879.5699262733
 21
-178.6459074917
  0
LINE
  5
403
100
AcDbEntity
  8
02___PRT_ALL_AXES
100
AcDbLine
 62
3
  6
CONTINUOUS
 10
879.5699262733
 20
-435.6459074917
 11
879.5699262733
 21
-438.6459074917
  0
LINE
  5
404
100
AcDbEntity
  8
0
100
AcDbLine
 62
3
  6
CONTINUOUS
 10
896.0699262733
 20
-177.1459074917
 11
896.0699262733
 21
-197.1459074917
  0
LINE
  5
405
100
AcDbEntity
  8
0
100
AcDbLine
 62
3
  6
CONTINUOUS
 10
896.0699262733
 20
-417.1459074917
 11
896.0699262733
 21
-437.1459074917
  0
LINE
  5
406
100
AcDbEntity
  8
0
100
AcDbLine
 62
9
  6
CONTINUOUS
 10
957.5699262733
 20
-342.4587946577
 11
959.5699262733
 21
-342.4587946577
  0
LINE
  5
407
100
AcDbEntity
  8
0
100
AcDbLine
 62
9
  6
CONTINUOUS
 10
1161.0699262733
 20
-341.7597286299
 11
1098.6052295591
 21
-341.7597286299
  0
LINE
  5
408
100
AcDbEntity
  8
0
100
AcDbLine
 62
9
  6
CONTINUOUS
 10
1041.5346229875
 20
-341.7597286297
 11
1034.0699262999
 21
-341.7597053561
  0
LINE
  5
409
100
AcDbEntity
  8
0
100
AcDbLine
 62
9
  6
CONTINUOUS
 10
980.5699262733
 20
-341.4387638906
 11
960.5699262733
 21
-341.4387638906
  0
LINE
  5
40A
100
AcDbEntity
  8
0
100
AcDbLine
 62
9
  6
CONTINUOUS
 10
1198.0699262733
 20
-339.6459074917
 11
1099.0008785563
 21
-339.6459074917
  0
LINE
  5
40B
100
AcDbEntity
  8
0
100
AcDbLine
 62
9
  6
CONTINUOUS
 10
1041.1389739903
 20
-339.6459074916
 11
1034.0699262733
 21
-339.6459039194
  0
LINE
  5
40C
100
AcDbEntity
  8
0
100
AcDbLine
 62
9
  6
CONTINUOUS
 10
980.5699262733
 20
-339.4791720964
 11
960.5699262733
 21
-339.4791720964
  0
LINE
  5
40D
100
AcDbEntity
  8
0
100
AcDbLine
 62
9
  6
CONTINUOUS
 10
943.5699262733
 20
-337.1459074917
 11
957.5699262733
 21
-337.1459074917
  0
LINE
  5
40E
100
AcDbEntity
  8
0
100
AcDbLine
 62
7
  6
CONTINUOUS
 10
1200.0699262733
 20
-335.6459074917
 11
1213.0699262733
 21
-335.6459074917
  0
LINE
  5
40F
100
AcDbEntity
  8
0
100
AcDbLine
 62
9
  6
CONTINUOUS
 10
1099.0008785561
 20
-339.6459074919
 11
1095.010402379
 21
-339.370045428
  0
LINE
  5
410
100
AcDbEntity
  8
0
100
AcDbLine
 62
7
  6
CONTINUOUS
 10
898.5699262733
 20
-367.1459074917
 11
898.5699262733
 21
-247.1459074917
  0
LINE
  5
411
100
AcDbEntity
  8
0
100
AcDbLine
 62
9
  6
CONTINUOUS
 10
955.5699262733
 20
-321.6459074916
 11
957.5699262733
 21
-321.6459074916
  0
LINE
  5
412
100
AcDbEntity
  8
0
100
AcDbLine
 62
9
  6
CONTINUOUS
 10
960.5699262733
 20
-320.8173360631
 11
980.5699262733
 21
-320.8173360631
  0
LINE
  5
413
100
AcDbEntity
  8
0
100
AcDbLine
 62
7
  6
CONTINUOUS
 10
1006.5699262733
 20
-319.6459074917
 11
959.5699262734
 21
-319.6459074917
  0
LINE
  5
414
100
AcDbEntity
  8
0
100
AcDbLine
 62
9
  6
CONTINUOUS
 10
1008.5699262733
 20
-317.6459074921
 11
959.5699262733
 21
-317.6459074917
  0
LINE
  5
415
100
AcDbEntity
  8
0
100
AcDbLine
 62
7
  6
CONTINUOUS
 10
923.5699262733
 20
-197.1459074917
 11
923.5699262733
 21
-417.1459074917
  0
LINE
  5
416
100
AcDbEntity
  8
0
100
AcDbLine
 62
9
  6
CONTINUOUS
 10
959.5699262733
 20
-296.6459074917
 11
1008.5699262733
 21
-296.6459074918
  0
LINE
  5
417
100
AcDbEntity
  8
0
100
AcDbLine
 62
7
  6
CONTINUOUS
 10
1006.5699262733
 20
-294.6459074917
 11
959.5699262733
 21
-294.6459074917
  0
LINE
  5
418
100
AcDbEntity
  8
0
100
AcDbLine
 62
9
  6
CONTINUOUS
 10
980.5699262733
 20
-293.4744789202
 11
960.5699262733
 21
-293.4744789202
  0
LINE
  5
419
100
AcDbEntity
  8
0
100
AcDbLine
 62
9
  6
CONTINUOUS
 10
957.5699262733
 20
-292.6459074916
 11
955.5699262733
 21
-292.6459074915
  0
LINE
  5
41A
100
AcDbEntity
  8
0
100
AcDbLine
 62
7
  6
CONTINUOUS
 10
943.5699262733
 20
-217.1459074917
 11
943.5699262733
 21
-397.1459074916
  0
LINE
  5
41B
100
AcDbEntity
  8
0
100
AcDbLine
 62
9
  6
CONTINUOUS
 10
945.5699262733
 20
-372.1459074917
 11
945.5699262733
 21
-242.1459074917
  0
LINE
  5
41C
100
AcDbEntity
  8
0
100
AcDbLine
 62
9
  6
CONTINUOUS
 10
955.5699262733
 20
-242.1459074917
 11
955.5699262733
 21
-292.6459074917
  0
LINE
  5
41D
100
AcDbEntity
  8
0
100
AcDbLine
 62
9
  6
CONTINUOUS
 10
955.5699262733
 20
-321.6459074917
 11
955.5699262733
 21
-372.1459074917
  0
LINE
  5
41E
100
AcDbEntity
  8
0
100
AcDbLine
 62
7
  6
CONTINUOUS
 10
957.5699262733
 20
-244.1459074917
 11
957.5699262733
 21
-292.6459074917
  0
LINE
  5
41F
100
AcDbEntity
  8
0
100
AcDbLine
 62
7
  6
CONTINUOUS
 10
957.5699262733
 20
-321.6459074917
 11
957.5699262733
 21
-370.1459074917
  0
LINE
  5
420
100
AcDbEntity
  8
0
100
AcDbLine
 62
9
  6
CONTINUOUS
 10
959.5699262734
 20
-319.6459074917
 11
959.5699262734
 21
-317.6459074917
  0
LINE
  5
421
100
AcDbEntity
  8
0
100
AcDbLine
 62
9
  6
CONTINUOUS
 10
959.5699262729
 20
-296.6459074917
 11
959.569926273
 21
-294.6459074917
  0
LINE
  5
422
100
AcDbEntity
  8
0
100
AcDbLine
 62
9
  6
CONTINUOUS
 10
959.5699262734
 20
-242.1459074917
 11
959.5699262733
 21
-271.8330203256
  0
LINE
  5
423
100
AcDbEntity
  8
0
100
AcDbLine
 62
9
  6
CONTINUOUS
 10
959.5699262733
 20
-342.4587946577
 11
959.5699262729
 21
-372.1459074917
  0
LINE
  5
424
100
AcDbEntity
  8
0
100
AcDbLine
 62
9
  6
CONTINUOUS
 10
960.5699262733
 20
-272.8530510927
 11
960.5699262733
 21
-294.6459074917
  0
LINE
  5
425
100
AcDbEntity
  8
0
100
AcDbLine
 62
9
  6
CONTINUOUS
 10
960.5699262733
 20
-319.6459074917
 11
960.5699262733
 21
-341.4387638906
  0
LINE
  5
426
100
AcDbEntity
  8
0
100
AcDbLine
 62
9
  6
CONTINUOUS
 10
943.5699262733
 20
-277.1459074917
 11
957.5699262733
 21
-277.1459074917
  0
LINE
  5
427
100
AcDbEntity
  8
0
100
AcDbLine
 62
9
  6
CONTINUOUS
 10
960.5699262733
 20
-274.8126428869
 11
980.5699262733
 21
-274.8126428869
  0
LINE
  5
428
100
AcDbEntity
  8
0
100
AcDbLine
 62
9
  6
CONTINUOUS
 10
960.5699262733
 20
-272.8530510927
 11
980.5699262733
 21
-272.8530510927
  0
LINE
  5
429
100
AcDbEntity
  8
0
100
AcDbLine
 62
9
  6
CONTINUOUS
 10
957.5699262733
 20
-271.8330203256
 11
959.5699262733
 21
-271.8330203256
  0
LINE
  5
42A
100
AcDbEntity
  8
0
100
AcDbLine
 62
7
  6
CONTINUOUS
 10
1200.0699262733
 20
-259.6459074917
 11
1213.0699262733
 21
-259.6459074917
  0
LINE
  5
42B
100
AcDbEntity
  8
0
100
AcDbLine
 62
9
  6
CONTINUOUS
 10
1198.0699262733
 20
-255.6459074917
 11
1034.0699262733
 21
-255.6459133959
  0
LINE
  5
42C
100
AcDbEntity
  8
0
100
AcDbLine
 62
7
  6
CONTINUOUS
 10
963.0340278885
 20
-304.1937167533
 11
963.0340278885
 21
-310.09809823
  0
LINE
  5
42D
100
AcDbEntity
  8
0
100
AcDbLine
 62
9
  6
CONTINUOUS
 10
980.5699262733
 20
-272.8530510927
 11
980.5699262733
 21
-294.6459074917
  0
LINE
  5
42E
100
AcDbEntity
  8
0
100
AcDbLine
 62
9
  6
CONTINUOUS
 10
980.5699262733
 20
-319.6459074917
 11
980.5699262733
 21
-341.4387638906
  0
LINE
  5
42F
100
AcDbEntity
  8
0
100
AcDbLine
 62
9
  6
CONTINUOUS
 10
1008.5699262733
 20
-254.2144592146
 11
1006.5699262733
 21
-254.2144592146
  0
LINE
  5
430
100
AcDbEntity
  8
0
100
AcDbLine
 62
7
  6
CONTINUOUS
 10
1028.0699262733
 20
-253.6459074917
 11
1112.0699262733
 21
-253.6459074917
  0
LINE
  5
431
100
AcDbEntity
  8
0
100
AcDbLine
 62
9
  6
CONTINUOUS
 10
1161.0699262733
 20
-252.2963139957
 11
1116.5108238609
 21
-252.2963279311
  0
LINE
  5
432
100
AcDbEntity
  8
0
100
AcDbLine
 62
9
  6
CONTINUOUS
 10
1028.0699262733
 20
-251.6459074917
 11
1112.0699262733
 21
-251.6459074917
  0
LINE
  5
433
100
AcDbEntity
  8
0
100
AcDbLine
 62
7
  6
CONTINUOUS
 10
1171.7246236564
 20
-247.6459074917
 11
1196.0699262733
 21
-247.6459074917
  0
LINE
  5
434
100
AcDbEntity
  8
0
100
AcDbLine
 62
7
  6
CONTINUOUS
 10
898.5699262733
 20
-247.1459074917
 11
778.5699262733
 21
-247.1459074917
  0
LINE
  5
435
100
AcDbEntity
  8
0
100
AcDbLine
 62
9
  6
CONTINUOUS
 10
1022.0699262733
 20
-245.6459074917
 11
1020.0699262733
 21
-245.6459074917
  0
LINE
  5
436
100
AcDbEntity
  8
0
100
AcDbLine
 62
9
  6
CONTINUOUS
 10
1118.0699262733
 20
-245.6459074917
 11
1120.0699262733
 21
-245.6459074917
  0
LINE
  5
437
100
AcDbEntity
  8
0
100
AcDbLine
 62
9
  6
CONTINUOUS
 10
957.5699262733
 20
-244.1459074917
 11
1008.5699262733
 21
-244.1459074918
  0
LINE
  5
438
100
AcDbEntity
  8
0
100
AcDbLine
 62
7
  6
CONTINUOUS
 10
1006.5699262733
 20
-242.1459074917
 11
945.5699262733
 21
-242.1459074917
  0
LINE
  5
439
100
AcDbEntity
  8
0
100
AcDbLine
 62
9
  6
CONTINUOUS
 10
985.5699262733
 20
-340.832860758
 11
985.5699262733
 21
-320.9496644719
  0
LINE
  5
43A
100
AcDbEntity
  8
0
100
AcDbLine
 62
9
  6
CONTINUOUS
 10
985.5699262733
 20
-293.3421505114
 11
985.5699262733
 21
-273.4589542253
  0
LINE
  5
43B
100
AcDbEntity
  8
0
100
AcDbLine
 62
9
  6
CONTINUOUS
 10
1003.5699262733
 20
-351.3674118027
 11
1003.5699262733
 21
-321.1053883417
  0
LINE
  5
43C
100
AcDbEntity
  8
0
100
AcDbLine
 62
9
  6
CONTINUOUS
 10
1003.5699262733
 20
-293.1864266416
 11
1003.5699262733
 21
-262.9244031806
  0
LINE
  5
43D
100
AcDbEntity
  8
0
100
AcDbLine
 62
9
  6
CONTINUOUS
 10
1006.5699262733
 20
-242.1459074917
 11
1006.5699262733
 21
-254.2144592146
  0
LINE
  5
43E
100
AcDbEntity
  8
0
100
AcDbLine
 62
9
  6
CONTINUOUS
 10
1006.5699262733
 20
-294.6459074917
 11
1006.5699262733
 21
-319.6459074917
  0
LINE
  5
43F
100
AcDbEntity
  8
0
100
AcDbLine
 62
9
  6
CONTINUOUS
 10
1006.5699262733
 20
-360.0773557687
 11
1006.5699262733
 21
-372.1459074917
  0
LINE
  5
440
100
AcDbEntity
  8
0
100
AcDbLine
 62
9
  6
CONTINUOUS
 10
985.5699250724
 20
-340.8328627986
 11
984.5699262733
 21
-342.5319855761
  0
LINE
  5
441
100
AcDbEntity
  8
0
100
AcDbLine
 62
7
  6
CONTINUOUS
 10
943.5699328987
 20
-397.1459141162
 11
923.569934371
 21
-417.1459155883
  0
LINE
  5
442
100
AcDbEntity
  8
0
100
AcDbLine
 62
7
  6
CONTINUOUS
 10
1186.0699262733
 20
-232.6459074917
 11
1180.0699262733
 21
-232.6459074917
  0
LINE
  5
443
100
AcDbEntity
  8
0
100
AcDbLine
 62
7
  6
CONTINUOUS
 10
943.5699328985
 20
-217.1459008669
 11
923.5699343708
 21
-197.1458993948
  0
LINE
  5
444
100
AcDbEntity
  8
0
100
AcDbLine
 62
9
  6
CONTINUOUS
 10
985.5699262701
 20
-273.4589542198
 11
984.5699262733
 21
-271.7598294072
  0
LINE
  5
445
100
AcDbEntity
  8
0
100
AcDbLine
 62
7
  6
CONTINUOUS
 10
1008.5699262733
 20
-404.6459074917
 11
1008.5699262733
 21
-209.6459074917
  0
LINE
  5
446
100
AcDbEntity
  8
0
100
AcDbLine
 62
7
  6
CONTINUOUS
 10
1009.5699262733
 20
-429.3778767107
 11
1009.5699262733
 21
-184.9139382726
  0
LINE
  5
447
100
AcDbEntity
  8
0
100
AcDbLine
 62
9
  6
CONTINUOUS
 10
1010.5699262733
 20
-184.6459074917
 11
1010.5699262733
 21
-429.6459074917
  0
LINE
  5
448
100
AcDbEntity
  8
0
100
AcDbLine
 62
7
  6
CONTINUOUS
 10
1018.5699262733
 20
-184.6459074917
 11
1018.5699262733
 21
-429.6459074917
  0
LINE
  5
449
100
AcDbEntity
  8
0
100
AcDbLine
 62
7
  6
CONTINUOUS
 10
1019.0699262733
 20
-423.1459074917
 11
1019.0699262733
 21
-191.1459074917
  0
LINE
  5
44A
100
AcDbEntity
  8
0
100
AcDbLine
 62
7
  6
CONTINUOUS
 10
1020.0699262733
 20
-161.6459074917
 11
1020.0699262733
 21
-245.6459074917
  0
LINE
  5
44B
100
AcDbEntity
  8
0
100
AcDbLine
 62
9
  6
CONTINUOUS
 10
1022.0699262733
 20
-161.6459074917
 11
1022.0699262733
 21
-245.6459074917
  0
LINE
  5
44C
100
AcDbEntity
  8
0
100
AcDbLine
 62
9
  6
CONTINUOUS
 10
1028.0699262733
 20
-155.6459074917
 11
1028.0699262733
 21
-153.6459074917
  0
LINE
  5
44D
100
AcDbEntity
  8
0
100
AcDbLine
 62
9
  6
CONTINUOUS
 10
1028.0699262733
 20
-251.6459074917
 11
1028.0699262733
 21
-253.6459074917
  0
LINE
  5
44E
100
AcDbEntity
  8
0
100
AcDbLine
 62
9
  6
CONTINUOUS
 10
1003.5699262718
 20
-351.3674118052
 11
1002.5699262733
 21
-353.0796939554
  0
LINE
  5
44F
100
AcDbEntity
  8
0
100
AcDbLine
 62
7
  6
CONTINUOUS
 10
1009.5699262733
 20
-209.6459074917
 11
1008.5699262733
 21
-209.6459074917
  0
LINE
  5
450
100
AcDbEntity
  8
3_ALL_AXES
100
AcDbLine
 62
7
  6
CONTINUOUS
 10
1018.5699262733
 20
-202.1459074917
 11
1019.0699262733
 21
-202.1459074917
  0
LINE
  5
451
100
AcDbEntity
  8
0
100
AcDbLine
 62
7
  6
CONTINUOUS
 10
645.854176567
 20
-197.1459074917
 11
682.5699262733
 21
-197.1459074917
  0
LINE
  5
452
100
AcDbEntity
  8
02___PRT_ALL_AXES
100
AcDbLine
 62
7
  6
CONTINUOUS
 10
645.854176567
 20
-197.1459074917
 11
682.5699262733
 21
-197.1459074917
  0
LINE
  5
453
100
AcDbEntity
  8
0
100
AcDbLine
 62
7
  6
CONTINUOUS
 10
692.5699262733
 20
-197.1459074917
 11
923.5699262733
 21
-197.1459074917
  0
LINE
  5
454
100
AcDbEntity
  8
02___PRT_ALL_AXES
100
AcDbLine
 62
7
  6
CONTINUOUS
 10
692.5699262733
 20
-197.1459074917
 11
923.5699262733
 21
-197.1459074917
  0
LINE
  5
455
100
AcDbEntity
  8
0
100
AcDbLine
 62
3
  6
CONTINUOUS
 10
711.0699262733
 20
-192.1459074917
 11
896.0699262733
 21
-192.1459074917
  0
LINE
  5
456
100
AcDbEntity
  8
0
100
AcDbLine
 62
9
  6
CONTINUOUS
 10
711.0699262733
 20
-189.1459074917
 11
896.0699262733
 21
-189.1459074917
  0
LINE
  5
457
100
AcDbEntity
  8
0
100
AcDbLine
 62
9
  6
CONTINUOUS
 10
1003.5699243755
 20
-262.9243999314
 11
1002.5699262733
 21
-261.2121210279
  0
LINE
  5
458
100
AcDbEntity
  8
0
100
AcDbLine
 62
9
  6
CONTINUOUS
 10
1034.0699263023
 20
-253.6459074917
 11
1034.0699262733
 21
-438.1459074917
  0
LINE
  5
459
100
AcDbEntity
  8
0
100
AcDbLine
 62
7
  6
CONTINUOUS
 10
1018.5699262733
 20
-184.6459074917
 11
1010.5699262733
 21
-184.6459074917
  0
LINE
  5
45A
100
AcDbEntity
  8
0
100
AcDbLine
 62
7
  6
CONTINUOUS
 10
1120.0699262733
 20
-176.1459074917
 11
1161.0699262733
 21
-176.1459074917
  0
LINE
  5
45B
100
AcDbEntity
  8
0
100
AcDbLine
 62
3
  6
CONTINUOUS
 10
726.0699262733
 20
-162.1459074917
 11
881.0699262733
 21
-162.1459074917
  0
LINE
  5
45C
100
AcDbEntity
  8
0
100
AcDbLine
 62
9
  6
CONTINUOUS
 10
1022.0699262733
 20
-161.6459074917
 11
1020.0699262733
 21
-161.6459074917
  0
LINE
  5
45D
100
AcDbEntity
  8
0
100
AcDbLine
 62
9
  6
CONTINUOUS
 10
1118.0699262733
 20
-161.6459074917
 11
1120.0699262733
 21
-161.6459074917
  0
LINE
  5
45E
100
AcDbEntity
  8
0
100
AcDbLine
 62
9
  6
CONTINUOUS
 10
1112.0699262733
 20
-155.6459074917
 11
1028.0699262733
 21
-155.6459074917
  0
LINE
  5
45F
100
AcDbEntity
  8
0
100
AcDbLine
 62
7
  6
CONTINUOUS
 10
1112.0699262733
 20
-153.6459074917
 11
1028.0699262733
 21
-153.6459074917
  0
LINE
  5
460
100
AcDbEntity
  8
0
100
AcDbLine
 62
9
  6
CONTINUOUS
 10
1112.0699262733
 20
-155.6459074917
 11
1112.0699262733
 21
-153.6459074917
  0
LINE
  5
461
100
AcDbEntity
  8
0
100
AcDbLine
 62
9
  6
CONTINUOUS
 10
1112.0699262733
 20
-251.6459074917
 11
1112.0699262733
 21
-253.6459074917
  0
LINE
  5
462
100
AcDbEntity
  8
0
100
AcDbLine
 62
9
  6
CONTINUOUS
 10
1118.0699262733
 20
-245.6459074917
 11
1118.0699262733
 21
-161.6459074917
  0
LINE
  5
463
100
AcDbEntity
  8
0
100
AcDbLine
 62
7
  6
CONTINUOUS
 10
1120.0699262733
 20
-245.6459074917
 11
1120.0699262733
 21
-161.6459074917
  0
LINE
  5
464
100
AcDbEntity
  8
0
100
AcDbLine
 62
9
  6
CONTINUOUS
 10
1161.0699262733
 20
-176.1459074917
 11
1161.0699262733
 21
-252.2963139957
  0
LINE
  5
465
100
AcDbEntity
  8
0
100
AcDbLine
 62
9
  6
CONTINUOUS
 10
1161.0699262733
 20
-341.7597286299
 11
1161.0699262733
 21
-438.1459074917
  0
LINE
  5
466
100
AcDbEntity
  8
0
100
AcDbLine
 62
7
  6
CONTINUOUS
 10
1176.0699262733
 20
-423.1459074917
 11
1176.0699262733
 21
-347.6459074917
  0
LINE
  5
467
100
AcDbEntity
  8
0
100
AcDbLine
 62
7
  6
CONTINUOUS
 10
1176.0699262733
 20
-247.6459074917
 11
1176.0699262733
 21
-191.1459074917
  0
LINE
  5
468
100
AcDbEntity
  8
0
100
AcDbLine
 62
9
  6
CONTINUOUS
 10
1180.0699262733
 20
-232.6459074917
 11
1180.0699262733
 21
-247.6459074917
  0
LINE
  5
469
100
AcDbEntity
  8
0
100
AcDbLine
 62
9
  6
CONTINUOUS
 10
1180.0699262733
 20
-347.6459074917
 11
1180.0699262733
 21
-362.6459074917
  0
LINE
  5
46A
100
AcDbEntity
  8
02___PRT_ALL_AXES
100
AcDbLine
 62
7
  6
CONTINUOUS
 10
1186.0699262733
 20
-232.6459074917
 11
1186.0699262733
 21
-247.6459074917
  0
LINE
  5
46B
100
AcDbEntity
  8
0
100
AcDbLine
 62
7
  6
CONTINUOUS
 10
1186.0699262733
 20
-247.6459074917
 11
1186.0699262733
 21
-347.6459074917
  0
LINE
  5
46C
100
AcDbEntity
  8
02___PRT_ALL_AXES
100
AcDbLine
 62
7
  6
CONTINUOUS
 10
1186.0699262733
 20
-347.6459074917
 11
1186.0699262733
 21
-362.6459074917
  0
LINE
  5
46D
100
AcDbEntity
  8
0
100
AcDbLine
 62
9
  6
CONTINUOUS
 10
1196.0699262733
 20
-247.6459074917
 11
1196.0699262733
 21
-347.6459074917
  0
LINE
  5
46E
100
AcDbEntity
  8
0
100
AcDbLine
 62
7
  6
CONTINUOUS
 10
1198.0699262733
 20
-249.6459074917
 11
1198.0699262733
 21
-345.6459074917
  0
LINE
  5
46F
100
AcDbEntity
  8
0
100
AcDbLine
 62
9
  6
CONTINUOUS
 10
1200.0699262733
 20
-259.6459074917
 11
1200.0699262733
 21
-335.6459074917
  0
LINE
  5
470
100
AcDbEntity
  8
0
100
AcDbLine
 62
7
  6
CONTINUOUS
 10
1213.0699262733
 20
-259.6459074154
 11
1213.0699262733
 21
-335.6459075679
  0
ARC
  5
471
100
AcDbEntity
  8
0
100
AcDbCircle
 62
7
  6
CONTINUOUS
 10
637.5699262733
 20
73.1459697001
 40
20.0
100
AcDbArc
 50
179.9999985716
 51
224.9999928613
  0
ARC
  5
472
100
AcDbEntity
  8
0
100
AcDbCircle
 62
7
  6
CONTINUOUS
 10
645.854176567
 20
64.8617177396
 40
20.0
100
AcDbArc
 50
224.9999941405
 51
270.0
  0
ARC
  5
473
100
AcDbEntity
  8
0
100
AcDbCircle
 62
7
  6
CONTINUOUS
 10
637.5699262733
 20
236.5774657791
 40
20.0
100
AcDbArc
 50
135.0000071387
 51
180.0000014284
  0
ARC
  5
474
100
AcDbEntity
  8
0
100
AcDbCircle
 62
7
  6
CONTINUOUS
 10
645.854176567
 20
244.8617177396
 40
20.0
100
AcDbArc
 50
90.0
 51
135.0000058595
  0
ARC
  5
475
100
AcDbEntity
  8
0
100
AcDbCircle
 62
9
  6
CONTINUOUS
 10
980.6013043803
 20
-44.9854963368
 40
193.2472166239
100
AcDbArc
 50
88.5266931948
 51
90.0093032807
  0
ARC
  5
476
100
AcDbEntity
  8
0
100
AcDbCircle
 62
7
  6
CONTINUOUS
 10
1034.0699262733
 20
38.8617177396
 40
15.0
100
AcDbArc
 50
179.9999999031
 51
270.0
  0
ARC
  5
477
100
AcDbEntity
  8
0
100
AcDbCircle
 62
7
  6
CONTINUOUS
 10
1161.0699262733
 20
38.8617177396
 40
15.0
100
AcDbArc
 50
270.0
 51
313.9022452007
  0
ARC
  5
478
100
AcDbEntity
  8
0
100
AcDbCircle
 62
7
  6
CONTINUOUS
 10
1180.0699262733
 20
92.8617296567
 40
4.0000013401
100
AcDbArc
 50
179.9999999278
 51
270.0
  0
ARC
  5
479
100
AcDbEntity
  8
0
100
AcDbCircle
 62
7
  6
CONTINUOUS
 10
1180.0699262733
 20
110.8617058225
 40
4.0000013401
100
AcDbArc
 50
90.0
 51
179.9991673739
  0
ARC
  5
47A
100
AcDbEntity
  8
0
100
AcDbCircle
 62
9
  6
CONTINUOUS
 10
959.5699262733
 20
147.8617177396
 40
4.0
100
AcDbArc
 50
90.0
 51
180.0
  0
ARC
  5
47B
100
AcDbEntity
  8
0
100
AcDbCircle
 62
7
  6
CONTINUOUS
 10
945.5699262733
 20
92.8617177396
 40
3.0
100
AcDbArc
 50
228.1896851042
 51
270.0
  0
ARC
  5
47C
100
AcDbEntity
  8
0
100
AcDbCircle
 62
7
  6
CONTINUOUS
 10
1010.5699262733
 20
34.3617177396
 40
2.0
100
AcDbArc
 50
240.0
 51
270.0
  0
ARC
  5
47D
100
AcDbEntity
  8
0
100
AcDbCircle
 62
7
  6
CONTINUOUS
 10
955.5699262733
 20
91.8617177396
 40
2.0
100
AcDbArc
 50
270.0
 51
360.0
  0
ARC
  5
47E
100
AcDbEntity
  8
0
100
AcDbCircle
 62
7
  6
CONTINUOUS
 10
1006.5699262733
 20
147.8617177396
 40
2.0
100
AcDbArc
 50
0.0
 51
90.0
  0
ARC
  5
47F
100
AcDbEntity
  8
0
100
AcDbCircle
 62
7
  6
CONTINUOUS
 10
959.5699262733
 20
147.8617177396
 40
2.0
100
AcDbArc
 50
90.0
 51
180.0
  0
ARC
  5
480
100
AcDbEntity
  8
0
100
AcDbCircle
 62
7
  6
CONTINUOUS
 10
1006.5699262733
 20
87.8617177396
 40
2.0
100
AcDbArc
 50
0.0
 51
90.0
  0
ARC
  5
481
100
AcDbEntity
  8
0
100
AcDbCircle
 62
9
  6
CONTINUOUS
 10
980.7041740225
 20
346.6574817167
 40
185.1958126349
100
AcDbArc
 50
269.9584665009
 51
271.5055370236
  0
ARC
  5
482
100
AcDbEntity
  8
0
100
AcDbCircle
 62
7
  6
CONTINUOUS
 10
1034.0699262733
 20
329.8617177396
 40
15.0
100
AcDbArc
 50
89.9874885102
 51
180.0
  0
ARC
  5
483
100
AcDbEntity
  8
0
100
AcDbCircle
 62
7
  6
CONTINUOUS
 10
1180.0699262733
 20
178.8617296567
 40
4.0000013401
100
AcDbArc
 50
180.0008326261
 51
270.0
  0
ARC
  5
484
100
AcDbEntity
  8
0
100
AcDbCircle
 62
9
  6
CONTINUOUS
 10
959.5699262733
 20
161.8617177396
 40
4.0
100
AcDbArc
 50
180.0
 51
270.0
  0
ARC
  5
485
100
AcDbEntity
  8
0
100
AcDbCircle
 62
7
  6
CONTINUOUS
 10
1041.0699262733
 20
348.8617177396
 40
4.0
100
AcDbArc
 50
270.9808877879
 51
360.0
  0
ARC
  5
486
100
AcDbEntity
  8
0
100
AcDbCircle
 62
7
  6
CONTINUOUS
 10
1099.0699262733
 20
348.8617177396
 40
4.0
100
AcDbArc
 50
180.0
 51
269.0191122122
  0
ARC
  5
487
100
AcDbEntity
  8
0
100
AcDbCircle
 62
7
  6
CONTINUOUS
 10
945.5699262733
 20
216.8617177396
 40
3.0
100
AcDbArc
 50
90.0
 51
131.8103148958
  0
ARC
  5
488
100
AcDbEntity
  8
0
100
AcDbCircle
 62
7
  6
CONTINUOUS
 10
1118.0699262733
 20
362.8617177396
 40
2.0
100
AcDbArc
 50
0.0
 51
90.0
  0
ARC
  5
489
100
AcDbEntity
  8
0
100
AcDbCircle
 62
7
  6
CONTINUOUS
 10
1022.0699262733
 20
362.8617177396
 40
2.0
100
AcDbArc
 50
90.0
 51
180.0
  0
ARC
  5
48A
100
AcDbEntity
  8
0
100
AcDbCircle
 62
7
  6
CONTINUOUS
 10
1030.0699262733
 20
366.8617177396
 40
2.0
100
AcDbArc
 50
270.0
 51
360.0
  0
ARC
  5
48B
100
AcDbEntity
  8
0
100
AcDbCircle
 62
7
  6
CONTINUOUS
 10
1110.0699262733
 20
366.8617177396
 40
2.0
100
AcDbArc
 50
180.0
 51
270.0
  0
ARC
  5
48C
100
AcDbEntity
  8
0
100
AcDbCircle
 62
7
  6
CONTINUOUS
 10
1196.0699262733
 20
246.8617177396
 40
2.0
100
AcDbArc
 50
270.0
 51
360.0
  0
ARC
  5
48D
100
AcDbEntity
  8
0
100
AcDbCircle
 62
7
  6
CONTINUOUS
 10
1196.0699262733
 20
342.8617177396
 40
2.0
100
AcDbArc
 50
0.0
 51
90.0
  0
ARC
  5
48E
100
AcDbEntity
  8
0
100
AcDbCircle
 62
7
  6
CONTINUOUS
 10
1200.0699262733
 20
334.8617177396
 40
2.0
100
AcDbArc
 50
180.0
 51
270.0
  0
ARC
  5
48F
100
AcDbEntity
  8
0
100
AcDbCircle
 62
7
  6
CONTINUOUS
 10
1200.0699262733
 20
254.8617177396
 40
2.0
100
AcDbArc
 50
90.0
 51
180.0
  0
ARC
  5
490
100
AcDbEntity
  8
0
100
AcDbCircle
 62
7
  6
CONTINUOUS
 10
955.5699262733
 20
217.8617177396
 40
2.0
100
AcDbArc
 50
0.0
 51
90.0
  0
ARC
  5
491
100
AcDbEntity
  8
0
100
AcDbCircle
 62
7
  6
CONTINUOUS
 10
1010.5699262733
 20
275.3617177396
 40
2.0
100
AcDbArc
 50
90.0
 51
120.0
  0
ARC
  5
492
100
AcDbEntity
  8
0
100
AcDbCircle
 62
7
  6
CONTINUOUS
 10
1006.5699262733
 20
221.8617177396
 40
2.0
100
AcDbArc
 50
270.0
 51
360.0
  0
ARC
  5
493
100
AcDbEntity
  8
0
100
AcDbCircle
 62
7
  6
CONTINUOUS
 10
1006.5699262733
 20
161.8617177396
 40
2.0
100
AcDbArc
 50
270.0
 51
360.0
  0
ARC
  5
494
100
AcDbEntity
  8
0
100
AcDbCircle
 62
7
  6
CONTINUOUS
 10
959.5699262733
 20
161.8617177396
 40
2.0
100
AcDbArc
 50
180.0
 51
270.0
  0
ARC
  5
495
100
AcDbEntity
  8
0
100
AcDbCircle
 62
9
  6
CONTINUOUS
 10
1028.0572277549
 20
8166.1857254735
 40
8018.1004596858
100
AcDbArc
 50
269.6963926229
 51
269.8250182553
  0
ARC
  5
496
100
AcDbEntity
  8
0
100
AcDbCircle
 62
9
  6
CONTINUOUS
 10
1765.4760095367
 20
1373.1073668892
 40
1473.0837394006
100
AcDbArc
 50
238.0325288977
 51
238.8541453456
  0
ARC
  5
497
100
AcDbEntity
  8
0
100
AcDbCircle
 62
9
  6
CONTINUOUS
 10
1765.4760095321
 20
-1063.3839314026
 40
1473.083739392
100
AcDbArc
 50
121.1458546544
 51
121.9674711023
  0
ARC
  5
498
100
AcDbEntity
  8
0
100
AcDbCircle
 62
9
  6
CONTINUOUS
 10
1680.2589977084
 20
-918.6476162923
 40
1307.0618551298
100
AcDbArc
 50
121.2305346673
 51
122.1578842491
  0
ARC
  5
499
100
AcDbEntity
  8
0
100
AcDbCircle
 62
9
  6
CONTINUOUS
 10
1680.258997708
 20
1228.3710517709
 40
1307.0618551291
100
AcDbArc
 50
237.8421157509
 51
238.7694653327
  0
ARC
  5
49A
100
AcDbEntity
  8
0
100
AcDbCircle
 62
7
  6
CONTINUOUS
 10
164.6419997969
 20
154.8617177396
 40
131.0
100
AcDbArc
 50
180.0
 51
360.0
  0
ARC
  5
49B
100
AcDbEntity
  8
0
100
AcDbCircle
 62
9
  6
CONTINUOUS
 10
164.6419997969
 20
154.8617177396
 40
116.0
100
AcDbArc
 50
180.0
 51
239.3770324135
  0
ARC
  5
49C
100
AcDbEntity
  8
0
100
AcDbCircle
 62
9
  6
CONTINUOUS
 10
164.6419997969
 20
154.8617177396
 40
116.0
100
AcDbArc
 50
311.159818515
 51
360.0
  0
ARC
  5
49D
100
AcDbEntity
  8
0
100
AcDbCircle
 62
9
  6
CONTINUOUS
 10
123.2927290107
 20
58.8809268064
 40
18.1507393783
100
AcDbArc
 50
180.0606365746
 51
192.2190322436
  0
ARC
  5
49E
100
AcDbEntity
  8
0
100
AcDbCircle
 62
7
  6
CONTINUOUS
 10
46.6419997969
 20
28.8617177396
 40
6.0
100
AcDbArc
 50
270.0
 51
360.0
  0
ARC
  5
49F
100
AcDbEntity
  8
0
100
AcDbCircle
 62
3
  6
CONTINUOUS
 10
55.6419997969
 20
36.8617177396
 40
6.0
100
AcDbArc
 50
90.0
 51
180.0
  0
ARC
  5
4A0
100
AcDbEntity
  8
0
100
AcDbCircle
 62
7
  6
CONTINUOUS
 10
55.6419997969
 20
36.8617177396
 40
3.0
100
AcDbArc
 50
90.0
 51
180.0
  0
ARC
  5
4A1
100
AcDbEntity
  8
0
100
AcDbCircle
 62
3
  6
CONTINUOUS
 10
46.6419997969
 20
28.8617177396
 40
3.0
100
AcDbArc
 50
270.0
 51
360.0
  0
ARC
  5
4A2
100
AcDbEntity
  8
0
100
AcDbCircle
 62
7
  6
CONTINUOUS
 10
164.6419997969
 20
225.16234442
 40
131.0
100
AcDbArc
 50
0.0
 51
65.1251107555
  0
ARC
  5
4A3
100
AcDbEntity
  8
0
100
AcDbCircle
 62
7
  6
CONTINUOUS
 10
164.6419997969
 20
218.233095561
 40
131.0
100
AcDbArc
 50
105.321064236
 51
180.0
  0
ARC
  5
4A4
100
AcDbEntity
  8
0
100
AcDbCircle
 62
9
  6
CONTINUOUS
 10
164.6419997969
 20
218.233095561
 40
116.0
100
AcDbArc
 50
110.4345961958
 51
180.0
  0
ARC
  5
4A5
100
AcDbEntity
  8
0
100
AcDbCircle
 62
9
  6
CONTINUOUS
 10
164.6419997969
 20
225.16234442
 40
116.0
100
AcDbArc
 50
0.0
 51
59.1407375446
  0
CIRCLE
  5
4A6
100
AcDbEntity
  8
0
100
AcDbCircle
 62
9
  6
CONTINUOUS
 10
174.1419997969
 20
294.8617177396
 40
40.0
  0
CIRCLE
  5
4A7
100
AcDbEntity
  8
0
100
AcDbCircle
 62
7
  6
CONTINUOUS
 10
174.1419997969
 20
294.8617177396
 40
38.0
  0
ARC
  5
4A8
100
AcDbEntity
  8
0
100
AcDbCircle
 62
2
  6
CONTINUOUS
 10
174.1419997969
 20
294.8617177396
 40
31.5
100
AcDbArc
 50
255.0
 51
195.0
  0
CIRCLE
  5
4A9
100
AcDbEntity
  8
02___PRT_ALL_AXES
100
AcDbCircle
 62
7
  6
CONTINUOUS
 10
174.1419997969
 20
294.8617177396
 40
30.0
  0
CIRCLE
  5
4AA
100
AcDbEntity
  8
02___PRT_ALL_AXES
100
AcDbCircle
 62
7
  6
CONTINUOUS
 10
174.1419997969
 20
294.8617177396
 40
28.6
  0
ARC
  5
4AB
100
AcDbEntity
  8
0
100
AcDbCircle
 62
9
  6
CONTINUOUS
 10
132.4292217519
 20
339.8161871913
 40
9.0455376815
100
AcDbArc
 50
90.0719552243
 51
107.6641446096
  0
ARC
  5
4AC
100
AcDbEntity
  8
0
100
AcDbCircle
 62
7
  6
CONTINUOUS
 10
132.1419997969
 20
336.8617177396
 40
8.0
100
AcDbArc
 50
90.0
 51
180.0
  0
ARC
  5
4AD
100
AcDbEntity
  8
0
100
AcDbCircle
 62
7
  6
CONTINUOUS
 10
132.1419997969
 20
252.8617177396
 40
8.0
100
AcDbArc
 50
180.0
 51
270.0
  0
ARC
  5
4AE
100
AcDbEntity
  8
0
100
AcDbCircle
 62
9
  6
CONTINUOUS
 10
132.1419997969
 20
252.8617177396
 40
5.9999999997
100
AcDbArc
 50
180.0
 51
270.0
  0
ARC
  5
4AF
100
AcDbEntity
  8
0
100
AcDbCircle
 62
9
  6
CONTINUOUS
 10
132.1419997969
 20
336.8617177396
 40
5.9999999997
100
AcDbArc
 50
90.0
 51
180.0
  0
ARC
  5
4B0
100
AcDbEntity
  8
0
100
AcDbCircle
 62
7
  6
CONTINUOUS
 10
163.1419997969
 20
348.8617177396
 40
4.0
100
AcDbArc
 50
180.0
 51
270.0
  0
ARC
  5
4B1
100
AcDbEntity
  8
0
100
AcDbCircle
 62
7
  6
CONTINUOUS
 10
105.1420972959
 20
339.4138134501
 40
3.9999865519
100
AcDbArc
 50
296.1494723776
 51
359.9990314118
  0
ARC
  5
4B2
100
AcDbEntity
  8
0
100
AcDbCircle
 62
7
  6
CONTINUOUS
 10
282.6419997969
 20
28.8617177396
 40
6.0
100
AcDbArc
 50
180.0
 51
270.0
  0
ARC
  5
4B3
100
AcDbEntity
  8
0
100
AcDbCircle
 62
3
  6
CONTINUOUS
 10
273.6419997969
 20
36.8617177396
 40
6.0
100
AcDbArc
 50
0.0
 51
90.0
  0
ARC
  5
4B4
100
AcDbEntity
  8
0
100
AcDbCircle
 62
7
  6
CONTINUOUS
 10
273.6419997969
 20
36.8617177396
 40
3.0
100
AcDbArc
 50
0.0
 51
90.0
  0
ARC
  5
4B5
100
AcDbEntity
  8
0
100
AcDbCircle
 62
3
  6
CONTINUOUS
 10
282.6419997969
 20
28.8617177396
 40
3.0
100
AcDbArc
 50
180.0
 51
270.0
  0
ARC
  5
4B6
100
AcDbEntity
  8
0
100
AcDbCircle
 62
7
  6
CONTINUOUS
 10
216.1419997969
 20
336.8617177396
 40
8.0
100
AcDbArc
 50
0.0
 51
90.0
  0
ARC
  5
4B7
100
AcDbEntity
  8
0
100
AcDbCircle
 62
7
  6
CONTINUOUS
 10
216.1419997969
 20
252.8617177396
 40
8.0
100
AcDbArc
 50
270.0
 51
360.0
  0
ARC
  5
4B8
100
AcDbEntity
  8
0
100
AcDbCircle
 62
9
  6
CONTINUOUS
 10
216.1419997969
 20
336.8617177396
 40
5.9999999997
100
AcDbArc
 50
0.0
 51
90.0
  0
ARC
  5
4B9
100
AcDbEntity
  8
0
100
AcDbCircle
 62
9
  6
CONTINUOUS
 10
216.1419997969
 20
252.8617177396
 40
5.9999999997
100
AcDbArc
 50
270.0
 51
360.0
  0
ARC
  5
4BA
100
AcDbEntity
  8
0
100
AcDbCircle
 62
7
  6
CONTINUOUS
 10
316.1419997969
 20
362.8617177396
 40
2.0
100
AcDbArc
 50
0.0
 51
90.0
  0
ARC
  5
4BB
100
AcDbEntity
  8
0
100
AcDbCircle
 62
7
  6
CONTINUOUS
 10
220.1419997969
 20
362.8617177396
 40
2.0
100
AcDbArc
 50
90.0
 51
180.0
  0
ARC
  5
4BC
100
AcDbEntity
  8
0
100
AcDbCircle
 62
7
  6
CONTINUOUS
 10
228.1419997969
 20
366.8617177396
 40
2.0
100
AcDbArc
 50
270.0000000005
 51
360.0
  0
ARC
  5
4BD
100
AcDbEntity
  8
0
100
AcDbCircle
 62
7
  6
CONTINUOUS
 10
308.1419997969
 20
366.8617177396
 40
2.0
100
AcDbArc
 50
180.0
 51
269.9999999995
  0
ARC
  5
4BE
100
AcDbEntity
  8
0
100
AcDbCircle
 62
9
  6
CONTINUOUS
 10
-1384.8328047127
 20
-1063.3839314119
 40
1473.0837394029
100
AcDbArc
 50
58.0325288977
 51
58.8541453456
  0
ARC
  5
4BF
100
AcDbEntity
  8
0
100
AcDbCircle
 62
9
  6
CONTINUOUS
 10
-1384.8328047073
 20
1373.1073668822
 40
1473.0837393925
100
AcDbArc
 50
301.1458546544
 51
301.9674711023
  0
ARC
  5
4C0
100
AcDbEntity
  8
0
100
AcDbCircle
 62
9
  6
CONTINUOUS
 10
-1299.6157928832
 20
1228.3710517715
 40
1307.0618551298
100
AcDbArc
 50
301.2305346673
 51
302.1578842491
  0
ARC
  5
4C1
100
AcDbEntity
  8
0
100
AcDbCircle
 62
9
  6
CONTINUOUS
 10
-1299.6157928811
 20
-918.6476162889
 40
1307.0618551257
100
AcDbArc
 50
57.8421157509
 51
58.7694653327
  0
ARC
  5
4C2
100
AcDbEntity
  8
0
100
AcDbCircle
 62
9
  6
CONTINUOUS
 10
-647.4140229296
 20
-7856.4622899503
 40
8018.1004596418
100
AcDbArc
 50
89.6963926229
 51
89.8250182553
  0
ARC
  5
4C3
100
AcDbEntity
  8
0
100
AcDbCircle
 62
9
  6
CONTINUOUS
 10
-600.0609691974
 20
-36.9340462373
 40
185.1958126347
100
AcDbArc
 50
89.9584665009
 51
91.5055370236
  0
ARC
  5
4C4
100
AcDbEntity
  8
0
100
AcDbCircle
 62
7
  6
CONTINUOUS
 10
-653.4267214482
 20
38.8617177396
 40
15.0
100
AcDbArc
 50
270.0
 51
0.0000000969
  0
ARC
  5
4C5
100
AcDbEntity
  8
0
100
AcDbCircle
 62
7
  6
CONTINUOUS
 10
-780.4267214482
 20
38.8617177396
 40
15.0
100
AcDbArc
 50
226.0977547993
 51
270.0
  0
ARC
  5
4C6
100
AcDbEntity
  8
0
100
AcDbCircle
 62
7
  6
CONTINUOUS
 10
-799.4267214482
 20
92.8617296567
 40
4.0000013401
100
AcDbArc
 50
270.0
 51
0.0000000722
  0
ARC
  5
4C7
100
AcDbEntity
  8
0
100
AcDbCircle
 62
7
  6
CONTINUOUS
 10
-799.4267214482
 20
110.8617058225
 40
4.0000013401
100
AcDbArc
 50
0.0008326261
 51
90.0
  0
ARC
  5
4C8
100
AcDbEntity
  8
0
100
AcDbCircle
 62
9
  6
CONTINUOUS
 10
-578.9267214482
 20
147.8617177396
 40
4.0
100
AcDbArc
 50
0.0
 51
90.0
  0
ARC
  5
4C9
100
AcDbEntity
  8
0
100
AcDbCircle
 62
9
  6
CONTINUOUS
 10
-578.9267214482
 20
161.8617177396
 40
4.0
100
AcDbArc
 50
270.0
 51
360.0
  0
ARC
  5
4CA
100
AcDbEntity
  8
0
100
AcDbCircle
 62
7
  6
CONTINUOUS
 10
-564.9267214482
 20
92.8617177396
 40
3.0
100
AcDbArc
 50
270.0
 51
311.8103148958
  0
ARC
  5
4CB
100
AcDbEntity
  8
0
100
AcDbCircle
 62
7
  6
CONTINUOUS
 10
-629.9267214482
 20
34.3617177396
 40
2.0
100
AcDbArc
 50
270.0
 51
300.0
  0
ARC
  5
4CC
100
AcDbEntity
  8
0
100
AcDbCircle
 62
7
  6
CONTINUOUS
 10
-578.9267214482
 20
147.8617177396
 40
2.0
100
AcDbArc
 50
0.0
 51
90.0
  0
ARC
  5
4CD
100
AcDbEntity
  8
0
100
AcDbCircle
 62
7
  6
CONTINUOUS
 10
-625.9267214482
 20
161.8617177396
 40
2.0
100
AcDbArc
 50
180.0
 51
270.0
  0
ARC
  5
4CE
100
AcDbEntity
  8
0
100
AcDbCircle
 62
7
  6
CONTINUOUS
 10
-578.9267214482
 20
161.8617177396
 40
2.0
100
AcDbArc
 50
270.0
 51
360.0
  0
ARC
  5
4CF
100
AcDbEntity
  8
0
100
AcDbCircle
 62
7
  6
CONTINUOUS
 10
-625.9267214482
 20
87.8617177396
 40
2.0
100
AcDbArc
 50
90.0
 51
180.0
  0
ARC
  5
4D0
100
AcDbEntity
  8
0
100
AcDbCircle
 62
7
  6
CONTINUOUS
 10
-574.9267214482
 20
91.8617177396
 40
2.0
100
AcDbArc
 50
180.0
 51
270.0
  0
ARC
  5
4D1
100
AcDbEntity
  8
0
100
AcDbCircle
 62
7
  6
CONTINUOUS
 10
-625.9267214482
 20
147.8617177396
 40
2.0
100
AcDbArc
 50
90.0
 51
180.0
  0
ARC
  5
4D2
100
AcDbEntity
  8
0
100
AcDbCircle
 62
9
  6
CONTINUOUS
 10
-599.9580995551
 20
354.7089318161
 40
193.2472166239
100
AcDbArc
 50
268.5266931948
 51
270.0093032807
  0
ARC
  5
4D3
100
AcDbEntity
  8
0
100
AcDbCircle
 62
7
  6
CONTINUOUS
 10
-653.4267214482
 20
329.8617177396
 40
15.0
100
AcDbArc
 50
0.0
 51
90.0123170388
  0
ARC
  5
4D4
100
AcDbEntity
  8
0
100
AcDbCircle
 62
7
  6
CONTINUOUS
 10
-799.4267214482
 20
178.8617296567
 40
4.0000013401
100
AcDbArc
 50
270.0
 51
359.9991673739
  0
ARC
  5
4D5
100
AcDbEntity
  8
0
100
AcDbCircle
 62
7
  6
CONTINUOUS
 10
-564.9267214482
 20
216.8617177396
 40
3.0
100
AcDbArc
 50
48.1896851042
 51
90.0
  0
ARC
  5
4D6
100
AcDbEntity
  8
0
100
AcDbCircle
 62
7
  6
CONTINUOUS
 10
-815.4267214482
 20
342.8617177396
 40
2.0
100
AcDbArc
 50
90.0
 51
180.0
  0
ARC
  5
4D7
100
AcDbEntity
  8
0
100
AcDbCircle
 62
7
  6
CONTINUOUS
 10
-815.4267214482
 20
246.8617177396
 40
2.0
100
AcDbArc
 50
180.0
 51
270.0
  0
ARC
  5
4D8
100
AcDbEntity
  8
0
100
AcDbCircle
 62
7
  6
CONTINUOUS
 10
-819.4267214482
 20
334.8617177396
 40
2.0
100
AcDbArc
 50
270.0
 51
360.0
  0
ARC
  5
4D9
100
AcDbEntity
  8
0
100
AcDbCircle
 62
7
  6
CONTINUOUS
 10
-819.4267214482
 20
254.8617177396
 40
2.0
100
AcDbArc
 50
0.0
 51
90.0
  0
ARC
  5
4DA
100
AcDbEntity
  8
0
100
AcDbCircle
 62
7
  6
CONTINUOUS
 10
-641.4267214482
 20
362.8617177396
 40
2.0
100
AcDbArc
 50
0.0
 51
90.0
  0
ARC
  5
4DB
100
AcDbEntity
  8
0
100
AcDbCircle
 62
7
  6
CONTINUOUS
 10
-737.4267214482
 20
362.8617177396
 40
2.0
100
AcDbArc
 50
90.0
 51
180.0
  0
ARC
  5
4DC
100
AcDbEntity
  8
0
100
AcDbCircle
 62
7
  6
CONTINUOUS
 10
-649.4267214482
 20
366.8617177396
 40
2.0
100
AcDbArc
 50
180.0
 51
270.0
  0
ARC
  5
4DD
100
AcDbEntity
  8
0
100
AcDbCircle
 62
7
  6
CONTINUOUS
 10
-729.4267214482
 20
366.8617177396
 40
2.0
100
AcDbArc
 50
270.0
 51
360.0
  0
ARC
  5
4DE
100
AcDbEntity
  8
0
100
AcDbCircle
 62
7
  6
CONTINUOUS
 10
-629.9267214482
 20
275.3617177396
 40
2.0
100
AcDbArc
 50
60.0
 51
90.0
  0
ARC
  5
4DF
100
AcDbEntity
  8
0
100
AcDbCircle
 62
7
  6
CONTINUOUS
 10
-625.9267214482
 20
221.8617177396
 40
2.0
100
AcDbArc
 50
180.0
 51
270.0
  0
ARC
  5
4E0
100
AcDbEntity
  8
0
100
AcDbCircle
 62
7
  6
CONTINUOUS
 10
-574.9267214482
 20
217.8617177396
 40
2.0
100
AcDbArc
 50
90.0
 51
180.0
  0
ARC
  5
4E1
100
AcDbEntity
  8
0
100
AcDbCircle
 62
7
  6
CONTINUOUS
 10
-256.9267214482
 20
73.1459697001
 40
20.0
100
AcDbArc
 50
315.0000071387
 51
0.0000014284
  0
ARC
  5
4E2
100
AcDbEntity
  8
0
100
AcDbCircle
 62
7
  6
CONTINUOUS
 10
-265.2109717418
 20
64.8617177396
 40
20.0
100
AcDbArc
 50
270.0
 51
315.0000058595
  0
ARC
  5
4E3
100
AcDbEntity
  8
0
100
AcDbCircle
 62
7
  6
CONTINUOUS
 10
-256.9267214482
 20
236.5774657791
 40
20.0
100
AcDbArc
 50
359.9999985716
 51
44.9999928613
  0
ARC
  5
4E4
100
AcDbEntity
  8
0
100
AcDbCircle
 62
7
  6
CONTINUOUS
 10
-265.2109717418
 20
244.8617177396
 40
20.0
100
AcDbArc
 50
44.9999941405
 51
90.0
  0
ARC
  5
4E5
100
AcDbEntity
  8
0
100
AcDbCircle
 62
7
  6
CONTINUOUS
 10
1495.5722022861
 20
28.8617177396
 40
6.0
100
AcDbArc
 50
270.0
 51
360.0
  0
ARC
  5
4E6
100
AcDbEntity
  8
0
100
AcDbCircle
 62
3
  6
CONTINUOUS
 10
1504.5722022861
 20
36.8617177396
 40
6.0
100
AcDbArc
 50
90.0
 51
180.0
  0
ARC
  5
4E7
100
AcDbEntity
  8
3_ALL_AXES
100
AcDbCircle
 62
7
  6
CONTINUOUS
 10
1511.9454537099
 20
196.9568952998
 40
5.0
100
AcDbArc
 50
65.7994315019
 51
251.9547783298
  0
ARC
  5
4E8
100
AcDbEntity
  8
3_ALL_AXES
100
AcDbCircle
 62
7
  6
CONTINUOUS
 10
1571.477024726
 20
53.2349691634
 40
5.0
100
AcDbArc
 50
155.3873078491
 51
160.98892659
  0
ARC
  5
4E9
100
AcDbEntity
  8
3_ALL_AXES
100
AcDbCircle
 62
7
  6
CONTINUOUS
 10
1511.9454537099
 20
112.7665401795
 40
5.0
100
AcDbArc
 50
108.0481895756
 51
294.6548369788
  0
ARC
  5
4EA
100
AcDbEntity
  8
0
100
AcDbCircle
 62
7
  6
CONTINUOUS
 10
1504.5722022861
 20
36.8617177396
 40
3.0
100
AcDbArc
 50
90.0
 51
180.0
  0
ARC
  5
4EB
100
AcDbEntity
  8
0
100
AcDbCircle
 62
3
  6
CONTINUOUS
 10
1495.5722022861
 20
28.8617177396
 40
3.0
100
AcDbArc
 50
270.0
 51
360.0
  0
ARC
  5
4EC
100
AcDbEntity
  8
0
100
AcDbCircle
 62
7
  6
CONTINUOUS
 10
1562.0722022861
 20
336.8617177396
 40
8.0
100
AcDbArc
 50
89.9999577138
 51
114.7521756993
  0
ARC
  5
4ED
100
AcDbEntity
  8
0
100
AcDbCircle
 62
7
  6
CONTINUOUS
 10
1462.0722022861
 20
362.8617177396
 40
2.0
100
AcDbArc
 50
90.0
 51
180.0
  0
ARC
  5
4EE
100
AcDbEntity
  8
0
100
AcDbCircle
 62
7
  6
CONTINUOUS
 10
1558.0722022861
 20
362.8617177396
 40
2.0
100
AcDbArc
 50
0.0
 51
90.0
  0
ARC
  5
4EF
100
AcDbEntity
  8
0
100
AcDbCircle
 62
7
  6
CONTINUOUS
 10
1550.0722022861
 20
366.8617177396
 40
2.0
100
AcDbArc
 50
180.0
 51
269.9999999995
  0
ARC
  5
4F0
100
AcDbEntity
  8
0
100
AcDbCircle
 62
7
  6
CONTINUOUS
 10
1470.0722022861
 20
366.8617177396
 40
2.0
100
AcDbArc
 50
270.0000000005
 51
360.0
  0
ARC
  5
4F1
100
AcDbEntity
  8
3_ALL_AXES
100
AcDbCircle
 62
7
  6
CONTINUOUS
 10
1655.6673798463
 20
53.2349691634
 40
5.0
100
AcDbArc
 50
19.01107341
 51
24.6126921509
  0
ARC
  5
4F2
100
AcDbEntity
  8
0
100
AcDbCircle
 62
7
  6
CONTINUOUS
 10
1613.5722022861
 20
154.8617177396
 40
131.0
100
AcDbArc
 50
241.4629418648
 51
298.5373724403
  0
ARC
  5
4F3
100
AcDbEntity
  8
0
100
AcDbCircle
 62
7
  6
CONTINUOUS
 10
1613.5722022861
 20
154.8617177396
 40
131.0
100
AcDbArc
 50
310.1809711007
 51
360.0
  0
ARC
  5
4F4
100
AcDbEntity
  8
0
100
AcDbCircle
 62
7
  6
CONTINUOUS
 10
1613.5722022861
 20
154.8617177396
 40
131.0
100
AcDbArc
 50
180.0
 51
229.8190288993
  0
ARC
  5
4F5
100
AcDbEntity
  8
0
100
AcDbCircle
 62
7
  6
CONTINUOUS
 10
1613.5722022861
 20
154.8617177396
 40
122.5
100
AcDbArc
 50
305.2288548349
 51
60.6722915324
  0
ARC
  5
4F6
100
AcDbEntity
  8
0
100
AcDbCircle
 62
7
  6
CONTINUOUS
 10
1613.5722022861
 20
154.8617177396
 40
122.5
100
AcDbArc
 50
249.9145207383
 51
290.085479298
  0
ARC
  5
4F7
100
AcDbEntity
  8
0
100
AcDbCircle
 62
7
  6
CONTINUOUS
 10
1613.5722022861
 20
154.8617177396
 40
122.5
100
AcDbArc
 50
119.327708481
 51
234.7711451581
  0
ARC
  5
4F8
100
AcDbEntity
  8
0
100
AcDbCircle
 62
7
  6
CONTINUOUS
 10
1613.5722022861
 20
154.8617177396
 40
122.2320508076
100
AcDbArc
 50
305.0523830362
 51
60.6002862666
  0
ARC
  5
4F9
100
AcDbEntity
  8
0
100
AcDbCircle
 62
7
  6
CONTINUOUS
 10
1613.5722022861
 20
154.8617177396
 40
122.2320508076
100
AcDbArc
 50
119.3997137334
 51
234.9476169638
  0
ARC
  5
4FA
100
AcDbEntity
  8
0
100
AcDbCircle
 62
7
  6
CONTINUOUS
 10
1613.5722022861
 20
154.8617177396
 40
122.2320508076
100
AcDbArc
 50
250.2794615214
 51
289.7205384786
  0
CIRCLE
  5
4FB
100
AcDbEntity
  8
0
100
AcDbCircle
 62
7
  6
CONTINUOUS
 10
1613.5722022861
 20
154.8617177396
 40
110.0
  0
CIRCLE
  5
4FC
100
AcDbEntity
  8
0
100
AcDbCircle
 62
9
  6
CONTINUOUS
 10
1613.5722022861
 20
154.8617177396
 40
104.1421341824
  0
CIRCLE
  5
4FD
100
AcDbEntity
  8
0
100
AcDbCircle
 62
9
  6
CONTINUOUS
 10
1613.5722022861
 20
154.8617177396
 40
95.8578819024
  0
CIRCLE
  5
4FE
100
AcDbEntity
  8
0
100
AcDbCircle
 62
9
  6
CONTINUOUS
 10
1613.5722022861
 20
154.8617177396
 40
81.7157475513
  0
ARC
  5
4FF
100
AcDbEntity
  8
0
100
AcDbCircle
 62
7
  6
CONTINUOUS
 10
1731.5722022861
 20
28.8617177396
 40
6.0
100
AcDbArc
 50
180.0
 51
270.0
  0
ARC
  5
500
100
AcDbEntity
  8
0
100
AcDbCircle
 62
3
  6
CONTINUOUS
 10
1722.5722022861
 20
36.8617177396
 40
6.0
100
AcDbArc
 50
0.0
 51
90.0
  0
ARC
  5
501
100
AcDbEntity
  8
3_ALL_AXES
100
AcDbCircle
 62
7
  6
CONTINUOUS
 10
1715.1989508624
 20
112.7665401795
 40
5.0
100
AcDbArc
 50
245.799431501
 51
71.9547783298
  0
ARC
  5
502
100
AcDbEntity
  8
0
100
AcDbCircle
 62
7
  6
CONTINUOUS
 10
1722.5722022861
 20
36.8617177396
 40
3.0
100
AcDbArc
 50
0.0
 51
90.0
  0
ARC
  5
503
100
AcDbEntity
  8
0
100
AcDbCircle
 62
3
  6
CONTINUOUS
 10
1731.5722022861
 20
28.8617177396
 40
3.0
100
AcDbArc
 50
180.0
 51
270.0
  0
ARC
  5
504
100
AcDbEntity
  8
3_ALL_AXES
100
AcDbCircle
 62
7
  6
CONTINUOUS
 10
1715.1989508624
 20
196.9568952998
 40
5.0
100
AcDbArc
 50
288.0481895759
 51
114.6548369795
  0
ARC
  5
505
100
AcDbEntity
  8
0
100
AcDbCircle
 62
7
  6
CONTINUOUS
 10
1613.5722022861
 20
225.16234442
 40
131.0
100
AcDbArc
 50
114.7524698067
 51
180.0
  0
ARC
  5
506
100
AcDbEntity
  8
0
100
AcDbCircle
 62
7
  6
CONTINUOUS
 10
1613.5722022861
 20
218.233095561
 40
131.0
100
AcDbArc
 50
0.0
 51
74.6789463184
  0
ARC
  5
507
100
AcDbEntity
  8
0
100
AcDbCircle
 62
9
  6
CONTINUOUS
 10
1613.5722022861
 20
225.16234442
 40
116.0
100
AcDbArc
 50
115.5004949974
 51
180.0
  0
ARC
  5
508
100
AcDbEntity
  8
0
100
AcDbCircle
 62
9
  6
CONTINUOUS
 10
1613.5722022861
 20
218.233095561
 40
116.0
100
AcDbArc
 50
0.0
 51
74.220700488
  0
ARC
  5
509
100
AcDbEntity
  8
0
100
AcDbCircle
 62
9
  6
CONTINUOUS
 10
1645.7920807396
 20
339.8616954647
 40
9.0000232829
100
AcDbArc
 50
72.2910167731
 51
89.972883393
  0
ARC
  5
50A
100
AcDbEntity
  8
0
100
AcDbCircle
 62
7
  6
CONTINUOUS
 10
1646.0722022861
 20
336.8617177396
 40
8.0
100
AcDbArc
 50
74.679108592
 51
90.0000255846
  0
ARC
  5
50B
100
AcDbEntity
  8
0
100
AcDbCircle
 62
7
  6
CONTINUOUS
 10
1615.0722022861
 20
348.8617177396
 40
4.0
100
AcDbArc
 50
270.0
 51
360.0
  0
ARC
  5
50C
100
AcDbEntity
  8
0
100
AcDbCircle
 62
7
  6
CONTINUOUS
 10
1673.0721047872
 20
339.4138134501
 40
3.9999865519
100
AcDbArc
 50
180.0009685882
 51
243.8505276224
  0
ARC
  5
50D
100
AcDbEntity
  8
0
100
AcDbCircle
 62
7
  6
CONTINUOUS
 10
645.854176567
 20
-397.1459074917
 40
20.0
100
AcDbArc
 50
224.9999942359
 51
270.0
  0
ARC
  5
50E
100
AcDbEntity
  8
0
100
AcDbCircle
 62
7
  6
CONTINUOUS
 10
637.5699262733
 20
-388.8616555312
 40
20.0
100
AcDbArc
 50
180.0
 51
224.9999942359
  0
ARC
  5
50F
100
AcDbEntity
  8
0
100
AcDbCircle
 62
3
  6
CONTINUOUS
 10
881.0699262733
 20
-437.1459074917
 40
15.0
100
AcDbArc
 50
270.0
 51
360.0
  0
ARC
  5
510
100
AcDbEntity
  8
0
100
AcDbCircle
 62
3
  6
CONTINUOUS
 10
726.0699262733
 20
-437.1459074917
 40
15.0
100
AcDbArc
 50
180.0
 51
270.0
  0
ARC
  5
511
100
AcDbEntity
  8
02___PRT_ALL_AXES
100
AcDbCircle
 62
3
  6
CONTINUOUS
 10
873.5699262733
 20
-438.6459074917
 40
6.0
100
AcDbArc
 50
180.0
 51
360.0
  0
ARC
  5
512
100
AcDbEntity
  8
02___PRT_ALL_AXES
100
AcDbCircle
 62
3
  6
CONTINUOUS
 10
873.5699262733
 20
-435.6459074917
 40
6.0
100
AcDbArc
 50
0.0
 51
180.0
  0
ARC
  5
513
100
AcDbEntity
  8
02___PRT_ALL_AXES
100
AcDbCircle
 62
3
  6
CONTINUOUS
 10
733.5699262733
 20
-438.6459074917
 40
6.0
100
AcDbArc
 50
180.0
 51
360.0
  0
ARC
  5
514
100
AcDbEntity
  8
02___PRT_ALL_AXES
100
AcDbCircle
 62
3
  6
CONTINUOUS
 10
733.5699262733
 20
-435.6459074917
 40
6.0
100
AcDbArc
 50
0.0
 51
180.0
  0
ARC
  5
515
100
AcDbEntity
  8
0
100
AcDbCircle
 62
9
  6
CONTINUOUS
 10
1032.5545138567
 20
-4683.872983622
 40
4390.7822250672
100
AcDbArc
 50
90.3782256818
 51
90.6131185312
  0
ARC
  5
516
100
AcDbEntity
  8
0
100
AcDbCircle
 62
7
  6
CONTINUOUS
 10
1034.0699262733
 20
-423.1459074917
 40
15.0
100
AcDbArc
 50
180.0
 51
270.0
  0
ARC
  5
517
100
AcDbEntity
  8
0
100
AcDbCircle
 62
7
  6
CONTINUOUS
 10
945.5699262733
 20
-369.1459074917
 40
3.0
100
AcDbArc
 50
228.1896851042
 51
270.0
  0
ARC
  5
518
100
AcDbEntity
  8
0
100
AcDbCircle
 62
7
  6
CONTINUOUS
 10
955.5699262733
 20
-370.1459074917
 40
2.0
100
AcDbArc
 50
270.0
 51
360.0
  0
ARC
  5
519
100
AcDbEntity
  8
0
100
AcDbCircle
 62
7
  6
CONTINUOUS
 10
1010.5699262733
 20
-427.6459074917
 40
2.0
100
AcDbArc
 50
240.0
 51
270.0
  0
ARC
  5
51A
100
AcDbEntity
  8
0
100
AcDbCircle
 62
7
  6
CONTINUOUS
 10
1006.5699262733
 20
-374.1459074917
 40
2.0
100
AcDbArc
 50
0.0
 51
90.0
  0
ARC
  5
51B
100
AcDbEntity
  8
0
100
AcDbCircle
 62
9
  6
CONTINUOUS
 10
980.5668318391
 20
-349.4014748003
 40
9.9223031864
100
AcDbArc
 50
59.7199392021
 51
89.9821313638
  0
ARC
  5
51C
100
AcDbEntity
  8
0
100
AcDbCircle
 62
9
  6
CONTINUOUS
 10
980.5647764281
 20
-349.3220379991
 40
7.8832757906
100
AcDbArc
 50
59.465536463
 51
89.9625708365
  0
ARC
  5
51D
100
AcDbEntity
  8
0
100
AcDbCircle
 62
2
  6
CONTINUOUS
 10
962.5699262733
 20
-307.1459074917
 40
6.6
100
AcDbArc
 50
255.0
 51
195.0
  0
CIRCLE
  5
51E
100
AcDbEntity
  8
3_ALL_AXES
100
AcDbCircle
 62
7
  6
CONTINUOUS
 10
962.5699262733
 20
-307.1459074917
 40
5.875
  0
ARC
  5
51F
100
AcDbEntity
  8
0
100
AcDbCircle
 62
9
  6
CONTINUOUS
 10
959.5699262733
 20
-321.6459074917
 40
4.0
100
AcDbArc
 50
90.0
 51
180.0
  0
CIRCLE
  5
520
100
AcDbEntity
  8
3_ALL_AXES
100
AcDbCircle
 62
7
  6
CONTINUOUS
 10
962.5699262733
 20
-307.1459074917
 40
3.0
  0
ARC
  5
521
100
AcDbEntity
  8
0
100
AcDbCircle
 62
7
  6
CONTINUOUS
 10
1006.5699262733
 20
-321.6459074917
 40
2.0
100
AcDbArc
 50
0.0
 51
90.0
  0
ARC
  5
522
100
AcDbEntity
  8
0
100
AcDbCircle
 62
7
  6
CONTINUOUS
 10
959.5699262733
 20
-321.6459074917
 40
2.0
100
AcDbArc
 50
90.0
 51
180.0
  0
ARC
  5
523
100
AcDbEntity
  8
0
100
AcDbCircle
 62
9
  6
CONTINUOUS
 10
1070.0699262733
 20
-337.6459074917
 40
29.0
100
AcDbArc
 50
356.0454278779
 51
183.954572122
  0
CIRCLE
  5
524
100
AcDbEntity
  8
02___PRT_ALL_AXES
100
AcDbCircle
 62
7
  6
CONTINUOUS
 10
1070.0699262733
 20
-337.6459074917
 40
25.0
  0
ARC
  5
525
100
AcDbEntity
  8
0
100
AcDbCircle
 62
9
  6
CONTINUOUS
 10
1054.3366460347
 20
-338.2696052631
 40
13.2692409435
100
AcDbArc
 50
185.9534971829
 51
195.2495471045
  0
ARC
  5
526
100
AcDbEntity
  8
0
100
AcDbCircle
 62
7
  6
CONTINUOUS
 10
1161.0699262733
 20
-423.1459074917
 40
15.0
100
AcDbArc
 50
270.0
 51
360.0
  0
ARC
  5
527
100
AcDbEntity
  8
0
100
AcDbCircle
 62
9
  6
CONTINUOUS
 10
1085.7330241288
 20
-338.2564690573
 40
13.3404085497
100
AcDbArc
 50
344.7753029983
 51
354.0216527138
  0
ARC
  5
528
100
AcDbEntity
  8
0
100
AcDbCircle
 62
7
  6
CONTINUOUS
 10
1180.0699262733
 20
-366.6458043702
 40
3.9999604567
100
AcDbArc
 50
90.0
 51
180.0014771063
  0
ARC
  5
529
100
AcDbEntity
  8
0
100
AcDbCircle
 62
7
  6
CONTINUOUS
 10
1196.0699262733
 20
-345.6459074917
 40
2.0
100
AcDbArc
 50
270.0
 51
360.0
  0
ARC
  5
52A
100
AcDbEntity
  8
0
100
AcDbCircle
 62
7
  6
CONTINUOUS
 10
1200.0699262733
 20
-337.6459074917
 40
2.0
100
AcDbArc
 50
90.0
 51
179.9999999995
  0
ARC
  5
52B
100
AcDbEntity
  8
0
100
AcDbCircle
 62
7
  6
CONTINUOUS
 10
645.854176567
 20
-217.1459074917
 40
20.0
100
AcDbArc
 50
90.0
 51
135.0000057641
  0
ARC
  5
52C
100
AcDbEntity
  8
0
100
AcDbCircle
 62
7
  6
CONTINUOUS
 10
637.5699262733
 20
-225.4301594521
 40
20.0
100
AcDbArc
 50
135.0000057641
 51
180.0
  0
ARC
  5
52D
100
AcDbEntity
  8
0
100
AcDbCircle
 62
3
  6
CONTINUOUS
 10
881.0699262733
 20
-177.1459074917
 40
15.0
100
AcDbArc
 50
0.0
 51
90.0
  0
ARC
  5
52E
100
AcDbEntity
  8
0
100
AcDbCircle
 62
3
  6
CONTINUOUS
 10
726.0699262733
 20
-177.1459074917
 40
15.0
100
AcDbArc
 50
90.0
 51
180.0
  0
ARC
  5
52F
100
AcDbEntity
  8
02___PRT_ALL_AXES
100
AcDbCircle
 62
3
  6
CONTINUOUS
 10
733.5699262733
 20
-175.6459074917
 40
6.0
100
AcDbArc
 50
0.0
 51
180.0
  0
ARC
  5
530
100
AcDbEntity
  8
02___PRT_ALL_AXES
100
AcDbCircle
 62
3
  6
CONTINUOUS
 10
733.5699262733
 20
-178.6459074917
 40
6.0
100
AcDbArc
 50
180.0
 51
360.0
  0
ARC
  5
531
100
AcDbEntity
  8
02___PRT_ALL_AXES
100
AcDbCircle
 62
3
  6
CONTINUOUS
 10
873.5699262733
 20
-175.6459074917
 40
6.0
100
AcDbArc
 50
0.0
 51
180.0
  0
ARC
  5
532
100
AcDbEntity
  8
02___PRT_ALL_AXES
100
AcDbCircle
 62
3
  6
CONTINUOUS
 10
873.5699262733
 20
-178.6459074917
 40
6.0
100
AcDbArc
 50
180.0
 51
360.0
  0
ARC
  5
533
100
AcDbEntity
  8
0
100
AcDbCircle
 62
9
  6
CONTINUOUS
 10
980.5668318012
 20
-264.8903400431
 40
9.9223033264
100
AcDbArc
 50
270.0178688547
 51
300.2800605794
  0
ARC
  5
534
100
AcDbEntity
  8
0
100
AcDbCircle
 62
7
  6
CONTINUOUS
 10
1028.0699262733
 20
-245.6459074917
 40
8.0
100
AcDbArc
 50
180.0
 51
270.0
  0
ARC
  5
535
100
AcDbEntity
  8
0
100
AcDbCircle
 62
9
  6
CONTINUOUS
 10
980.5647764015
 20
-264.969776887
 40
7.8832758878
100
AcDbArc
 50
270.0374293562
 51
300.5344633444
  0
ARC
  5
536
100
AcDbEntity
  8
0
100
AcDbCircle
 62
9
  6
CONTINUOUS
 10
1028.0699262733
 20
-245.6459074917
 40
5.9999999997
100
AcDbArc
 50
180.0
 51
270.0
  0
ARC
  5
537
100
AcDbEntity
  8
0
100
AcDbCircle
 62
9
  6
CONTINUOUS
 10
959.5699262733
 20
-292.6459074917
 40
4.0
100
AcDbArc
 50
180.0
 51
270.0
  0
ARC
  5
538
100
AcDbEntity
  8
0
100
AcDbCircle
 62
7
  6
CONTINUOUS
 10
945.5699262733
 20
-245.1459074917
 40
3.0
100
AcDbArc
 50
90.0
 51
131.8103148958
  0
ARC
  5
539
100
AcDbEntity
  8
0
100
AcDbCircle
 62
7
  6
CONTINUOUS
 10
959.5699262733
 20
-292.6459074917
 40
2.0
100
AcDbArc
 50
180.0
 51
270.0
  0
ARC
  5
53A
100
AcDbEntity
  8
0
100
AcDbCircle
 62
7
  6
CONTINUOUS
 10
1006.5699262733
 20
-292.6459074917
 40
2.0
100
AcDbArc
 50
270.0
 51
360.0
  0
ARC
  5
53B
100
AcDbEntity
  8
0
100
AcDbCircle
 62
7
  6
CONTINUOUS
 10
955.5699262733
 20
-244.1459074917
 40
2.0
100
AcDbArc
 50
0.0
 51
90.0
  0
ARC
  5
53C
100
AcDbEntity
  8
0
100
AcDbCircle
 62
7
  6
CONTINUOUS
 10
1006.5699262733
 20
-240.1459074917
 40
2.0
100
AcDbArc
 50
270.0
 51
360.0
  0
CIRCLE
  5
53D
100
AcDbEntity
  8
0
100
AcDbCircle
 62
9
  6
CONTINUOUS
 10
1070.0699262733
 20
-203.6459074917
 40
40.0
  0
CIRCLE
  5
53E
100
AcDbEntity
  8
0
100
AcDbCircle
 62
7
  6
CONTINUOUS
 10
1070.0699262733
 20
-203.6459074917
 40
38.0
  0
ARC
  5
53F
100
AcDbEntity
  8
0
100
AcDbCircle
 62
2
  6
CONTINUOUS
 10
1070.0699262733
 20
-203.6459074917
 40
31.5
100
AcDbArc
 50
255.0
 51
195.0
  0
CIRCLE
  5
540
100
AcDbEntity
  8
02___PRT_ALL_AXES
100
AcDbCircle
 62
7
  6
CONTINUOUS
 10
1070.0699262733
 20
-203.6459074917
 40
30.0
  0
CIRCLE
  5
541
100
AcDbEntity
  8
02___PRT_ALL_AXES
100
AcDbCircle
 62
7
  6
CONTINUOUS
 10
1070.0699262733
 20
-203.6459074917
 40
28.6
  0
ARC
  5
542
100
AcDbEntity
  8
0
100
AcDbCircle
 62
7
  6
CONTINUOUS
 10
1034.0699262733
 20
-191.1459074917
 40
15.0
100
AcDbArc
 50
159.9119978538
 51
180.0
  0
ARC
  5
543
100
AcDbEntity
  8
0
100
AcDbCircle
 62
7
  6
CONTINUOUS
 10
1028.0699262733
 20
-161.6459074917
 40
8.0
100
AcDbArc
 50
90.0
 51
180.0
  0
ARC
  5
544
100
AcDbEntity
  8
0
100
AcDbCircle
 62
9
  6
CONTINUOUS
 10
1028.0699262733
 20
-161.6459074917
 40
5.9999999997
100
AcDbArc
 50
90.0
 51
180.0
  0
ARC
  5
545
100
AcDbEntity
  8
0
100
AcDbCircle
 62
7
  6
CONTINUOUS
 10
1010.5699262733
 20
-186.6459074917
 40
2.0
100
AcDbArc
 50
90.0
 51
120.0
  0
ARC
  5
546
100
AcDbEntity
  8
0
100
AcDbCircle
 62
7
  6
CONTINUOUS
 10
1112.0699262733
 20
-245.6459074917
 40
8.0
100
AcDbArc
 50
270.0
 51
360.0
  0
ARC
  5
547
100
AcDbEntity
  8
0
100
AcDbCircle
 62
9
  6
CONTINUOUS
 10
1112.0699262733
 20
-245.6459074917
 40
5.9999999997
100
AcDbArc
 50
270.0
 51
360.0
  0
ARC
  5
548
100
AcDbEntity
  8
0
100
AcDbCircle
 62
7
  6
CONTINUOUS
 10
1180.0699262733
 20
-228.6460106131
 40
3.9999604567
100
AcDbArc
 50
179.9985228937
 51
270.0
  0
ARC
  5
549
100
AcDbEntity
  8
0
100
AcDbCircle
 62
7
  6
CONTINUOUS
 10
1196.0699262733
 20
-249.6459074917
 40
2.0
100
AcDbArc
 50
0.0
 51
90.0
  0
ARC
  5
54A
100
AcDbEntity
  8
0
100
AcDbCircle
 62
7
  6
CONTINUOUS
 10
1200.0699262733
 20
-257.6459074917
 40
2.0
100
AcDbArc
 50
180.0000000005
 51
270.0
  0
ARC
  5
54B
100
AcDbEntity
  8
0
100
AcDbCircle
 62
7
  6
CONTINUOUS
 10
1161.0699262733
 20
-191.1459074917
 40
15.0
100
AcDbArc
 50
0.0
 51
90.0
  0
ARC
  5
54C
100
AcDbEntity
  8
0
100
AcDbCircle
 62
7
  6
CONTINUOUS
 10
1112.0699262733
 20
-161.6459074917
 40
8.0
100
AcDbArc
 50
0.0
 51
90.0
  0
ARC
  5
54D
100
AcDbEntity
  8
0
100
AcDbCircle
 62
9
  6
CONTINUOUS
 10
1112.0699262733
 20
-161.6459074917
 40
5.9999999997
100
AcDbArc
 50
0.0
 51
90.0
  0
ARC
  5
54E
100
AcDbEntity
  8
0
100
AcDbCircle
 62
9
  6
CONTINUOUS
 10
1028.0537578132
 20
3549.342306617
 40
3870.5251345803
100
AcDbArc
 50
269.3710948671
 51
269.6375609199
  0
ARC
  5
54F
100
AcDbEntity
  8
0
100
AcDbCircle
 62
9
  6
CONTINUOUS
 10
4573.6599339681
 20
-6383.6511667545
 40
7085.819555801
100
AcDbArc
 50
120.2541047765
 51
120.4227467712
  0
ARC
  5
550
100
AcDbEntity
  8
0
100
AcDbCircle
 62
9
  6
CONTINUOUS
 10
4127.4510693526
 20
-5614.5538726657
 40
6198.6409855872
100
AcDbArc
 50
120.2731915423
 51
120.4660318498
  0
ARC
  5
551
100
AcDbEntity
  8
0
100
AcDbCircle
 62
9
  6
CONTINUOUS
 10
4573.6602956956
 20
5769.3599698418
 40
7085.8202719413
100
AcDbArc
 50
239.5772532373
 51
239.745895215
  0
ARC
  5
552
100
AcDbEntity
  8
0
100
AcDbCircle
 62
9
  6
CONTINUOUS
 10
4127.4517225962
 20
5000.2631724633
 40
6198.6422776626
100
AcDbArc
 50
239.5339681703
 51
239.7268084376
  0
SPLINE
  5
553
100
AcDbEntity
  8
0
100
AcDbSpline
 62
9
  6
CONTINUOUS
 70
0
 71
3
 72
15
 73
11
 74
0
 42
0.0000001
 43
0.0000001
 44
0.0000000001
 40
0.0
 40
0.0
 40
0.0
 40
0.0
 40
0.1273610749
 40
0.2543284507
 40
0.3806035175
 40
0.5059878412
 40
0.6304449436
 40
0.7540927122
 40
0.8771647776
 40
1.0
 40
1.0
 40
1.0
 40
1.0
 10
960.5699262733
 20
124.8268706314
 30
0.0
 10
960.3729413928
 20
124.8268550833
 30
0.0
 10
959.9785389009
 20
124.7891244795
 30
0.0
 10
959.4106692166
 20
124.6213591217
 30
0.0
 10
958.8879141575
 20
124.3492801255
 30
0.0
 10
958.4307152458
 20
123.983611858
 30
0.0
 10
958.0563573254
 20
123.5387349069
 30
0.0
 10
957.7788374616
 20
123.0317821201
 30
0.0
 10
957.6082484752
 20
122.4824207277
 30
0.0
 10
957.5699285259
 20
122.1009818631
 30
0.0
 10
957.5699262733
 20
121.9109969584
 30
0.0
  0
SPLINE
  5
554
100
AcDbEntity
  8
0
100
AcDbSpline
 62
9
  6
CONTINUOUS
 70
0
 71
3
 72
11
 73
7
 74
0
 42
0.0000001
 43
0.0000001
 44
0.0000000001
 40
0.0
 40
0.0
 40
0.0
 40
0.0
 40
0.2499484495
 40
0.4999444084
 40
0.7499683151
 40
1.0
 40
1.0
 40
1.0
 40
1.0
 10
1002.5699262733
 20
199.0053779741
 30
0.0
 10
1003.1836511574
 20
199.3783705315
 30
0.0
 10
1004.314740263
 20
200.2963556766
 30
0.0
 10
1005.5925464409
 20
202.0597760081
 30
0.0
 10
1006.3890984806
 20
204.0858546558
 30
0.0
 10
1006.5699029204
 20
205.5289802049
 30
0.0
 10
1006.5699262733
 20
206.247398787
 30
0.0
  0
SPLINE
  5
555
100
AcDbEntity
  8
0
100
AcDbSpline
 62
9
  6
CONTINUOUS
 70
0
 71
3
 72
9
 73
5
 74
0
 42
0.0000001
 43
0.0000001
 44
0.0000000001
 40
0.0
 40
0.0
 40
0.0
 40
0.0
 40
0.4999297083
 40
1.0
 40
1.0
 40
1.0
 40
1.0
 10
980.5699262733
 20
186.716858612
 30
0.0
 10
981.271583362
 20
186.7168824692
 30
0.0
 10
982.6824377635
 20
186.9230420697
 30
0.0
 10
983.9762271276
 20
187.5165370022
 30
0.0
 10
984.5699262733
 20
187.8908642953
 30
0.0
  0
SPLINE
  5
556
100
AcDbEntity
  8
0
100
AcDbSpline
 62
9
  6
CONTINUOUS
 70
0
 71
3
 72
11
 73
7
 74
0
 42
0.0000001
 43
0.0000001
 44
0.0000000001
 40
0.0
 40
0.0
 40
0.0
 40
0.0
 40
0.2503280518
 40
0.5005124612
 40
0.7504043633
 40
1.0
 40
1.0
 40
1.0
 40
1.0
 10
959.5699262733
 20
187.8124385208
 30
0.0
 10
959.5699338502
 20
187.6759501322
 30
0.0
 10
959.6173305253
 20
187.4006882199
 30
0.0
 10
959.8267356223
 20
187.0388154966
 30
0.0
 10
960.1579150467
 20
186.7806449086
 30
0.0
 10
960.4338372255
 20
186.7168695012
 30
0.0
 10
960.5699262733
 20
186.716858612
 30
0.0
  0
SPLINE
  5
557
100
AcDbEntity
  8
0
100
AcDbSpline
 62
9
  6
CONTINUOUS
 70
0
 71
3
 72
11
 73
7
 74
0
 42
0.0000001
 43
0.0000001
 44
0.0000000001
 40
0.0
 40
0.0
 40
0.0
 40
0.0
 40
0.2495956367
 40
0.4994875388
 40
0.7496719482
 40
1.0
 40
1.0
 40
1.0
 40
1.0
 10
960.5699262733
 20
123.0065768672
 30
0.0
 10
960.4338372255
 20
123.0065659759
 30
0.0
 10
960.1579150468
 20
122.9427905714
 30
0.0
 10
959.8267356223
 20
122.6846199824
 30
0.0
 10
959.6173305251
 20
122.3227472593
 30
0.0
 10
959.5699338515
 20
122.047485347
 30
0.0
 10
959.5699262733
 20
121.9109969584
 30
0.0
  0
SPLINE
  5
558
100
AcDbEntity
  8
0
100
AcDbSpline
 62
9
  6
CONTINUOUS
 70
0
 71
3
 72
9
 73
5
 74
0
 42
0.0000001
 43
0.0000001
 44
0.0000000001
 40
0.0
 40
0.0
 40
0.0
 40
0.0
 40
0.5000702917
 40
1.0
 40
1.0
 40
1.0
 40
1.0
 10
984.5699262733
 20
121.8325711839
 30
0.0
 10
983.9762271188
 20
122.2068984631
 30
0.0
 10
982.6824377683
 20
122.8003934209
 30
0.0
 10
981.271583362
 20
123.0065530043
 30
0.0
 10
980.5699262733
 20
123.0065768672
 30
0.0
  0
SPLINE
  5
559
100
AcDbEntity
  8
0
100
AcDbSpline
 62
9
  6
CONTINUOUS
 70
0
 71
3
 72
11
 73
7
 74
0
 42
0.0000001
 43
0.0000001
 44
0.0000000001
 40
0.0
 40
0.0
 40
0.0
 40
0.0
 40
0.2500316849
 40
0.5000555915
 40
0.7500515505
 40
1.0
 40
1.0
 40
1.0
 40
1.0
 10
1006.5699262733
 20
103.4760366922
 30
0.0
 10
1006.5699029272
 20
104.1944552743
 30
0.0
 10
1006.389098478
 20
105.6375808245
 30
0.0
 10
1005.592546439
 20
107.6636594668
 30
0.0
 10
1004.3147402736
 20
109.4270798187
 30
0.0
 10
1003.1836511388
 20
110.3450649168
 30
0.0
 10
1002.5699262733
 20
110.7180575051
 30
0.0
  0
SPLINE
  5
55A
100
AcDbEntity
  8
0
100
AcDbSpline
 62
9
  6
CONTINUOUS
 70
0
 71
3
 72
9
 73
5
 74
0
 42
0.0000001
 43
0.0000001
 44
0.0000000001
 40
0.0
 40
0.0
 40
0.0
 40
0.0
 40
0.2501495915
 40
1.0
 40
1.0
 40
1.0
 40
1.0
 10
1003.5699262733
 20
161.6007774603
 30
0.0
 10
1002.0690233859
 20
161.5959109681
 30
0.0
 10
996.0690059792
 20
161.5753511275
 30
0.0
 10
990.0690032716
 20
161.5498043309
 30
0.0
 10
985.5699262733
 20
161.5256004197
 30
0.0
  0
SPLINE
  5
55B
100
AcDbEntity
  8
0
100
AcDbSpline
 62
9
  6
CONTINUOUS
 70
0
 71
3
 72
17
 73
13
 74
0
 42
0.0000001
 43
0.0000001
 44
0.0000000001
 40
0.0
 40
0.0
 40
0.0
 40
0.0
 40
0.0310807797
 40
0.0573329642
 40
0.09169123
 40
0.1341865655
 40
0.1846003021
 40
0.2425579884
 40
0.307582897
 40
0.4564509892
 40
0.6258009954
 40
1.0
 40
1.0
 40
1.0
 40
1.0
 10
957.5699262733
 20
147.8617177396
 30
0.0
 10
957.5699357543
 20
147.8935438242
 30
0.0
 10
957.6238403274
 20
147.940607503
 30
0.0
 10
957.7049731912
 20
147.9797023477
 30
0.0
 10
957.8056694621
 20
148.0161983598
 30
0.0
 10
957.9309960393
 20
148.0503881316
 30
0.0
 10
958.0820905764
 20
148.0835983939
 30
0.0
 10
958.2568617741
 20
148.1148069151
 30
0.0
 10
958.5323205992
 20
148.1553338584
 30
0.0
 10
958.9226218785
 20
148.1974300096
 30
0.0
 10
959.6299430452
 20
148.2477832583
 30
0.0
 10
960.1867541066
 20
148.2617240099
 30
0.0
 10
960.5699262733
 20
148.2617177396
 30
0.0
  0
SPLINE
  5
55C
100
AcDbEntity
  8
0
100
AcDbSpline
 62
9
  6
CONTINUOUS
 70
0
 71
3
 72
21
 73
17
 74
0
 42
0.0000001
 43
0.0000001
 44
0.0000000001
 40
0.0
 40
0.0
 40
0.0
 40
0.0
 40
0.0020200828
 40
0.0056525019
 40
0.0188751005
 40
0.0403640459
 40
0.0701237312
 40
0.1080704781
 40
0.1540579032
 40
0.2079104816
 40
0.2694052173
 40
0.3382962662
 40
0.4142965493
 40
0.5863435899
 40
0.782679465
 40
1.0
 40
1.0
 40
1.0
 40
1.0
 10
1008.5699262733
 20
161.8617177396
 30
0.0
 10
1008.5699240723
 20
161.8583397496
 30
0.0
 10
1008.5626717879
 20
161.8502253979
 30
0.0
 10
1008.5342085291
 20
161.8380323479
 30
0.0
 10
1008.4709331449
 20
161.8228863947
 30
0.0
 10
1008.3648082339
 20
161.8064337736
 30
0.0
 10
1008.2164481253
 20
161.7890783384
 30
0.0
 10
1008.0271988453
 20
161.771598169
 30
0.0
 10
1007.7974316928
 20
161.7539877762
 30
0.0
 10
1007.52822177
 20
161.7364607421
 30
0.0
 10
1007.2206205967
 20
161.7191105122
 30
0.0
 10
1006.8759210221
 20
161.7020611253
 30
0.0
 10
1006.3464386907
 20
161.6789081009
 30
0.0
 10
1005.6038169536
 20
161.6519886783
 30
0.0
 10
1004.6248034169
 20
161.6237023961
 30
0.0
 10
1003.9332579717
 20
161.6080407913
 30
0.0
 10
1003.5699262733
 20
161.6007774603
 30
0.0
  0
SPLINE
  5
55D
100
AcDbEntity
  8
0
100
AcDbSpline
 62
9
  6
CONTINUOUS
 70
0
 71
3
 72
14
 73
10
 74
0
 42
0.0000001
 43
0.0000001
 44
0.0000000001
 40
0.0
 40
0.0
 40
0.0
 40
0.0
 40
0.3194044034
 40
0.4657966148
 40
0.5993683779
 40
0.7184588948
 40
0.8229953364
 40
0.9151771319
 40
1.0
 40
1.0
 40
1.0
 40
1.0
 10
1003.5699262718
 20
161.6007774607
 30
0.0
 10
1003.5546808148
 20
161.3710552893
 30
0.0
 10
1003.5033890065
 20
161.0362916432
 30
0.0
 10
1003.369330269
 20
160.6247842318
 30
0.0
 10
1003.2463054745
 20
160.3637407414
 30
0.0
 10
1003.1014570374
 20
160.149363153
 30
0.0
 10
1002.9381334385
 20
159.9880204226
 30
0.0
 10
1002.7595380647
 20
159.8858057962
 30
0.0
 10
1002.6310668097
 20
159.8617177394
 30
0.0
 10
1002.5699262733
 20
159.8617177392
 30
0.0
  0
SPLINE
  5
55E
100
AcDbEntity
  8
0
100
AcDbSpline
 62
9
  6
CONTINUOUS
 70
0
 71
3
 72
14
 73
10
 74
0
 42
0.0000001
 43
0.0000001
 44
0.0000000001
 40
0.0
 40
0.0
 40
0.0
 40
0.0
 40
0.3191314073
 40
0.4649071479
 40
0.5978916839
 40
0.7166632814
 40
0.8213316251
 40
0.9141606321
 40
1.0
 40
1.0
 40
1.0
 40
1.0
 10
985.5699250724
 20
161.5256008234
 30
0.0
 10
985.5507631782
 20
161.3040030726
 30
0.0
 10
985.4952567658
 20
160.981928564
 30
0.0
 10
985.3584604144
 20
160.5875169713
 30
0.0
 10
985.2351378777
 20
160.3383923802
 30
0.0
 10
985.091376098
 20
160.1343169717
 30
0.0
 10
984.9303237641
 20
159.9811068273
 30
0.0
 10
984.7551117057
 20
159.884396403
 30
0.0
 10
984.6297536488
 20
159.8617178668
 30
0.0
 10
984.5699262733
 20
159.8617177396
 30
0.0
  0
SPLINE
  5
55F
100
AcDbEntity
  8
0
100
AcDbSpline
 62
9
  6
CONTINUOUS
 70
0
 71
3
 72
14
 73
10
 74
0
 42
0.0000001
 43
0.0000001
 44
0.0000000001
 40
0.0
 40
0.0
 40
0.0
 40
0.0
 40
0.3194042854
 40
0.4657964774
 40
0.599368253
 40
0.7184588095
 40
0.8229953041
 40
0.9151771399
 40
1.0
 40
1.0
 40
1.0
 40
1.0
 10
1003.5699243755
 20
148.1226575237
 30
0.0
 10
1003.5546789616
 20
148.3523794676
 30
0.0
 10
1003.503387277
 20
148.6871428068
 30
0.0
 10
1003.3693288634
 20
149.0986499394
 30
0.0
 10
1003.2463043384
 20
149.3596933779
 30
0.0
 10
1003.1014561984
 20
149.5740710547
 30
0.0
 10
1002.9381329158
 20
149.7354140209
 30
0.0
 10
1002.7595378719
 20
149.8376290526
 30
0.0
 10
1002.6310667655
 20
149.8617175283
 30
0.0
 10
1002.5699262733
 20
149.8617177396
 30
0.0
  0
SPLINE
  5
560
100
AcDbEntity
  8
0
100
AcDbSpline
 62
9
  6
CONTINUOUS
 70
0
 71
3
 72
14
 73
10
 74
0
 42
0.0000001
 43
0.0000001
 44
0.0000000001
 40
0.0
 40
0.0
 40
0.0
 40
0.0
 40
0.3191314779
 40
0.4649072276
 40
0.5978917533
 40
0.716663325
 40
0.821331637
 40
0.9141606226
 40
1.0
 40
1.0
 40
1.0
 40
1.0
 10
985.5699262701
 20
148.1978350584
 30
0.0
 10
985.5507643447
 20
148.4194329391
 30
0.0
 10
985.4952578497
 20
148.7415076202
 30
0.0
 10
985.3584612902
 20
149.1359193587
 30
0.0
 10
985.2351385829
 20
149.3850439629
 30
0.0
 10
985.0913766168
 20
149.5891193008
 30
0.0
 10
984.930324086
 20
149.742329288
 30
0.0
 10
984.7551118254
 20
149.8390394569
 30
0.0
 10
984.6297536777
 20
149.8617177401
 30
0.0
 10
984.5699262733
 20
149.8617177406
 30
0.0
  0
SPLINE
  5
561
100
AcDbEntity
  8
0
100
AcDbSpline
 62
9
  6
CONTINUOUS
 70
0
 71
3
 72
21
 73
17
 74
0
 42
0.0000001
 43
0.0000001
 44
0.0000000001
 40
0.0
 40
0.0
 40
0.0
 40
0.0
 40
0.217320535
 40
0.4136564101
 40
0.5857034508
 40
0.6617037338
 40
0.7305947827
 40
0.7920895184
 40
0.8459420968
 40
0.8919295219
 40
0.9298762688
 40
0.9596359542
 40
0.9811248995
 40
0.9943474981
 40
0.9979799172
 40
1.0
 40
1.0
 40
1.0
 40
1.0
 10
1003.5699262733
 20
148.1226580189
 30
0.0
 10
1003.9332579716
 20
148.1153946866
 30
0.0
 10
1004.6248034169
 20
148.0997330842
 30
0.0
 10
1005.6038169535
 20
148.0714468003
 30
0.0
 10
1006.3464386907
 20
148.0445273785
 30
0.0
 10
1006.8759210221
 20
148.021374354
 30
0.0
 10
1007.2206205967
 20
148.0043249669
 30
0.0
 10
1007.52822177
 20
147.9869747371
 30
0.0
 10
1007.7974316928
 20
147.9694477031
 30
0.0
 10
1008.0271988453
 20
147.9518373103
 30
0.0
 10
1008.2164481253
 20
147.9343571408
 30
0.0
 10
1008.364808234
 20
147.9170017056
 30
0.0
 10
1008.4709331449
 20
147.9005490845
 30
0.0
 10
1008.534208529
 20
147.8854031313
 30
0.0
 10
1008.5626717877
 20
147.8732100812
 30
0.0
 10
1008.5699240722
 20
147.8650957296
 30
0.0
 10
1008.5699262733
 20
147.8617177396
 30
0.0
  0
SPLINE
  5
562
100
AcDbEntity
  8
0
100
AcDbSpline
 62
9
  6
CONTINUOUS
 70
0
 71
3
 72
11
 73
7
 74
0
 42
0.0000001
 43
0.0000001
 44
0.0000000001
 40
0.0
 40
0.0
 40
0.0
 40
0.0
 40
0.2499756255
 40
0.4999368199
 40
0.7499304011
 40
1.0
 40
1.0
 40
1.0
 40
1.0
 10
1008.5699262733
 20
103.4760366922
 30
0.0
 10
1008.5699137542
 20
104.362228371
 30
0.0
 10
1008.3429704566
 20
106.1426926792
 30
0.0
 10
1007.3422404247
 20
108.6360040531
 30
0.0
 10
1005.7411372818
 20
110.7948374649
 30
0.0
 10
1004.3320845251
 20
111.910794192
 30
0.0
 10
1003.5699262733
 20
112.3636087952
 30
0.0
  0
SPLINE
  5
563
100
AcDbEntity
  8
0
100
AcDbSpline
 62
9
  6
CONTINUOUS
 70
0
 71
3
 72
11
 73
7
 74
0
 42
0.0000001
 43
0.0000001
 44
0.0000000001
 40
0.0
 40
0.0
 40
0.0
 40
0.0
 40
0.2500695989
 40
0.5000631801
 40
0.7500243745
 40
1.0
 40
1.0
 40
1.0
 40
1.0
 10
1003.5699262733
 20
197.359826684
 30
0.0
 10
1004.332084534
 20
197.8126412722
 30
0.0
 10
1005.7411372783
 20
198.9285980207
 30
0.0
 10
1007.3422404254
 20
201.0874314242
 30
0.0
 10
1008.3429704578
 20
203.5807428005
 30
0.0
 10
1008.5699137509
 20
205.3612071083
 30
0.0
 10
1008.5699262733
 20
206.247398787
 30
0.0
  0
SPLINE
  5
564
100
AcDbEntity
  8
0
100
AcDbSpline
 62
9
  6
CONTINUOUS
 70
0
 71
3
 72
9
 73
5
 74
0
 42
0.0000001
 43
0.0000001
 44
0.0000000001
 40
0.0
 40
0.0
 40
0.0
 40
0.0
 40
0.5001132241
 40
1.0
 40
1.0
 40
1.0
 40
1.0
 10
980.5699262733
 20
184.8965648479
 30
0.0
 10
981.4440074334
 20
184.8965844845
 30
0.0
 10
983.2002146541
 20
185.1407459072
 30
0.0
 10
984.8228067699
 20
185.8519894102
 30
0.0
 10
985.5699262733
 20
186.3049116928
 30
0.0
  0
SPLINE
  5
565
100
AcDbEntity
  8
0
100
AcDbSpline
 62
9
  6
CONTINUOUS
 70
0
 71
3
 72
9
 73
5
 74
0
 42
0.0000001
 43
0.0000001
 44
0.0000000001
 40
0.0
 40
0.0
 40
0.0
 40
0.0
 40
0.4998867759
 40
1.0
 40
1.0
 40
1.0
 40
1.0
 10
985.5699262733
 20
123.4185237865
 30
0.0
 10
984.8228067715
 20
123.8714460716
 30
0.0
 10
983.2002146537
 20
124.5826895711
 30
0.0
 10
981.4440074334
 20
124.8268509962
 30
0.0
 10
980.5699262733
 20
124.8268706314
 30
0.0
  0
SPLINE
  5
566
100
AcDbEntity
  8
0
100
AcDbSpline
 62
9
  6
CONTINUOUS
 70
0
 71
3
 72
15
 73
11
 74
0
 42
0.0000001
 43
0.0000001
 44
0.0000000001
 40
0.0
 40
0.0
 40
0.0
 40
0.0
 40
0.1228352222
 40
0.2459072878
 40
0.3695550564
 40
0.4940121588
 40
0.6193964825
 40
0.7456715493
 40
0.8726389251
 40
1.0
 40
1.0
 40
1.0
 40
1.0
 10
957.5699262733
 20
187.8124385208
 30
0.0
 10
957.5699285247
 20
187.6224536164
 30
0.0
 10
957.6082484765
 20
187.2410147519
 30
0.0
 10
957.7788374608
 20
186.691653359
 30
0.0
 10
958.0563573258
 20
186.1847005724
 30
0.0
 10
958.4307152456
 20
185.7398236211
 30
0.0
 10
958.8879141577
 20
185.3741553541
 30
0.0
 10
959.4106692164
 20
185.1020763567
 30
0.0
 10
959.9785389011
 20
184.934311002
 30
0.0
 10
960.3729413928
 20
184.8965803934
 30
0.0
 10
960.5699262733
 20
184.8965648479
 30
0.0
  0
SPLINE
  5
567
100
AcDbEntity
  8
0
100
AcDbSpline
 62
9
  6
CONTINUOUS
 70
0
 71
3
 72
17
 73
13
 74
0
 42
0.0000001
 43
0.0000001
 44
0.0000000001
 40
0.0
 40
0.0
 40
0.0
 40
0.0
 40
0.3741990047
 40
0.5435490108
 40
0.6924171031
 40
0.7574420117
 40
0.815399698
 40
0.8658134346
 40
0.9083087701
 40
0.9426670359
 40
0.9689192207
 40
1.0
 40
1.0
 40
1.0
 40
1.0
 10
960.5699262733
 20
161.4617177396
 30
0.0
 10
960.1867541066
 20
161.461711469
 30
0.0
 10
959.6299430452
 20
161.4756522211
 30
0.0
 10
958.9226218785
 20
161.5260054696
 30
0.0
 10
958.5323205993
 20
161.5681016208
 30
0.0
 10
958.2568617741
 20
161.6086285639
 30
0.0
 10
958.0820905765
 20
161.6398370857
 30
0.0
 10
957.9309960394
 20
161.6730473479
 30
0.0
 10
957.8056694619
 20
161.7072371186
 30
0.0
 10
957.7049731909
 20
161.7437331311
 30
0.0
 10
957.6238403279
 20
161.7828279777
 30
0.0
 10
957.5699357551
 20
161.8298916554
 30
0.0
 10
957.5699262733
 20
161.8617177396
 30
0.0
  0
SPLINE
  5
568
100
AcDbEntity
  8
0
100
AcDbSpline
 62
9
  6
CONTINUOUS
 70
0
 71
3
 72
18
 73
14
 74
0
 42
0.0000001
 43
0.0000001
 44
0.0000000001
 40
0.0
 40
0.0
 40
0.0
 40
0.0
 40
0.1395535292
 40
0.2639598687
 40
0.470435602
 40
0.6305676438
 40
0.754569805
 40
0.8494233302
 40
0.9197425042
 40
0.9467570254
 40
0.9688286839
 40
0.9863744159
 40
1.0
 40
1.0
 40
1.0
 40
1.0
 10
1176.0699262733
 20
55.0393149504
 30
0.0
 10
1176.070115793
 20
53.761690658
 30
0.0
 10
1175.9270374975
 20
51.3449013597
 30
0.0
 10
1175.3885794293
 20
47.0709167728
 30
0.0
 10
1174.6173872345
 20
42.6409976
 30
0.0
 10
1173.8130125957
 20
38.2223480197
 30
0.0
 10
1173.2155741979
 20
34.8043090533
 30
0.0
 10
1172.7592261546
 20
32.1968633116
 30
0.0
 10
1172.417540444
 20
30.4697885614
 30
0.0
 10
1172.1385455807
 20
29.4124375435
 30
0.0
 10
1171.9434647102
 20
28.8335036886
 30
0.0
 10
1171.739102891
 20
28.3900420227
 30
0.0
 10
1171.5724914509
 20
28.1537677657
 30
0.0
 10
1171.4838487992
 20
28.0659988158
 30
0.0
  0
SPLINE
  5
569
100
AcDbEntity
  8
0
100
AcDbSpline
 62
9
  6
CONTINUOUS
 70
0
 71
3
 72
15
 73
11
 74
0
 42
0.0000001
 43
0.0000001
 44
0.0000000001
 40
0.0
 40
0.0
 40
0.0
 40
0.0
 40
0.3286534624
 40
0.4815547507
 40
0.621667944
 40
0.7459394022
 40
0.8517046295
 40
0.9367284144
 40
0.971071897
 40
1.0
 40
1.0
 40
1.0
 40
1.0
 10
1070.0699262733
 20
335.8232080458
 30
0.0
 10
1073.4144809545
 20
335.82369522
 30
0.0
 10
1078.3288171935
 20
336.2265541026
 30
0.0
 10
1084.5252060961
 20
337.5264163507
 30
0.0
 10
1088.6012569548
 20
338.7352624225
 30
0.0
 10
1092.1146305537
 20
340.10854178
 30
0.0
 10
1094.9805638812
 20
341.5549991353
 30
0.0
 10
1096.8999053431
 20
342.8261677979
 30
0.0
 10
1098.0210683148
 20
343.8400822582
 30
0.0
 10
1098.4394128086
 20
344.3341535347
 30
0.0
 10
1098.6052295591
 20
344.5774004829
 30
0.0
  0
SPLINE
  5
56A
100
AcDbEntity
  8
0
100
AcDbSpline
 62
9
  6
CONTINUOUS
 70
0
 71
3
 72
15
 73
11
 74
0
 42
0.0000001
 43
0.0000001
 44
0.0000000001
 40
0.0
 40
0.0
 40
0.0
 40
0.0
 40
0.028928472
 40
0.0632724892
 40
0.1482971532
 40
0.2540633951
 40
0.3783362723
 40
0.518449318
 40
0.6713497369
 40
1.0
 40
1.0
 40
1.0
 40
1.0
 10
1041.5346229875
 20
344.577400483
 30
0.0
 10
1041.7004424582
 20
344.3341508473
 30
0.0
 10
1042.1187935133
 20
343.8400731301
 30
0.0
 10
1043.2399705087
 20
342.826146952
 30
0.0
 10
1045.159337395
 20
341.5549713664
 30
0.0
 10
1048.0253034041
 20
340.1085044278
 30
0.0
 10
1051.5387025291
 20
338.735225897
 30
0.0
 10
1055.6147592849
 20
337.5263869162
 30
0.0
 10
1061.811111386
 20
336.2265485826
 30
0.0
 10
1066.7254041833
 20
335.8237390292
 30
0.0
 10
1070.0699262733
 20
335.8232080458
 30
0.0
  0
SPLINE
  5
56B
100
AcDbEntity
  8
0
100
AcDbSpline
 62
9
  6
CONTINUOUS
 70
0
 71
3
 72
9
 73
5
 74
0
 42
0.0000001
 43
0.0000001
 44
0.0000000001
 40
0.0
 40
0.0
 40
0.0
 40
0.0
 40
0.4022445007
 40
1.0
 40
1.0
 40
1.0
 40
1.0
 10
1041.1389739903
 20
344.8617177396
 30
0.0
 10
1041.1618208584
 20
344.8616937446
 30
0.0
 10
1041.2173454281
 20
344.841929823
 30
0.0
 10
1041.2648650095
 20
344.811299116
 30
0.0
 10
1041.2925037938
 20
344.7915808643
 30
0.0
  0
SPLINE
  5
56C
100
AcDbEntity
  8
0
100
AcDbSpline
 62
9
  6
CONTINUOUS
 70
0
 71
3
 72
9
 73
5
 74
0
 42
0.0000001
 43
0.0000001
 44
0.0000000001
 40
0.0
 40
0.0
 40
0.0
 40
0.0
 40
0.2061329641
 40
1.0
 40
1.0
 40
1.0
 40
1.0
 10
1041.2925037938
 20
344.7915808643
 30
0.0
 10
1041.3105976122
 20
344.7786722478
 30
0.0
 10
1041.3960558574
 20
344.7128068618
 30
0.0
 10
1041.4743244904
 20
344.6381573045
 30
0.0
 10
1041.5346229875
 20
344.577400483
 30
0.0
  0
SPLINE
  5
56D
100
AcDbEntity
  8
0
100
AcDbSpline
 62
9
  6
CONTINUOUS
 70
0
 71
3
 72
11
 73
7
 74
0
 42
0.0000001
 43
0.0000001
 44
0.0000000001
 40
0.0
 40
0.0
 40
0.0
 40
0.0
 40
0.2507496554
 40
0.5031148296
 40
0.7536878491
 40
1.0
 40
1.0
 40
1.0
 40
1.0
 10
1041.5346229875
 20
344.577396927
 30
0.0
 10
1042.0356799357
 20
344.6005331425
 30
0.0
 10
1043.0410881471
 20
344.8383095326
 30
0.0
 10
1044.3159577733
 20
345.7011415952
 30
0.0
 10
1045.201195934
 20
346.9506443553
 30
0.0
 10
1045.4468823482
 20
347.9430958016
 30
0.0
 10
1045.4705368652
 20
348.4352418547
 30
0.0
  0
SPLINE
  5
56E
100
AcDbEntity
  8
0
100
AcDbSpline
 62
9
  6
CONTINUOUS
 70
0
 71
3
 72
11
 73
7
 74
0
 42
0.0000001
 43
0.0000001
 44
0.0000000001
 40
0.0
 40
0.0
 40
0.0
 40
0.0
 40
0.2497246065
 40
0.4996105764
 40
0.7497246861
 40
1.0
 40
1.0
 40
1.0
 40
1.0
 10
1041.1389739907
 20
344.8617177396
 30
0.0
 10
1041.6580233092
 20
344.8617177396
 30
0.0
 10
1042.7078600922
 20
345.0700459602
 30
0.0
 10
1044.0342523715
 20
345.9606028689
 30
0.0
 10
1044.9219626705
 20
347.290123539
 30
0.0
 10
1045.1294502436
 20
348.3415237831
 30
0.0
 10
1045.129450168
 20
348.8617177396
 30
0.0
  0
SPLINE
  5
56F
100
AcDbEntity
  8
0
100
AcDbSpline
 62
7
  6
CONTINUOUS
 70
0
 71
3
 72
10
 73
6
 74
0
 42
0.0000001
 43
0.0000001
 44
0.0000000001
 40
0.0
 40
0.0
 40
0.0
 40
0.0
 40
0.4697449946
 40
0.7281170086
 40
1.0
 40
1.0
 40
1.0
 40
1.0
 10
1161.0699262733
 20
344.5774004829
 30
0.0
 10
1163.2646497898
 20
344.140341025
 30
0.0
 10
1166.5424949436
 20
342.7136741075
 30
0.0
 10
1170.3063724234
 20
339.7779156461
 30
0.0
 10
1172.0178999637
 20
337.8956133123
 30
0.0
 10
1172.798069338
 20
336.8617177396
 30
0.0
  0
SPLINE
  5
570
100
AcDbEntity
  8
0
100
AcDbSpline
 62
9
  6
CONTINUOUS
 70
0
 71
3
 72
11
 73
7
 74
0
 42
0.0000001
 43
0.0000001
 44
0.0000000001
 40
0.0
 40
0.0
 40
0.0
 40
0.0
 40
0.249724665
 40
0.4996107069
 40
0.7497247863
 40
1.0
 40
1.0
 40
1.0
 40
1.0
 10
1099.0008785561
 20
344.8617177396
 30
0.0
 10
1098.4818291284
 20
344.8617177396
 30
0.0
 10
1097.431992098
 20
345.0700461553
 30
0.0
 10
1096.1055998513
 20
345.9606034359
 30
0.0
 10
1095.2178898514
 20
347.2901240921
 30
0.0
 10
1095.010402379
 20
348.3415240036
 30
0.0
 10
1095.010402379
 20
348.8617177396
 30
0.0
  0
SPLINE
  5
571
100
AcDbEntity
  8
0
100
AcDbSpline
 62
7
  6
CONTINUOUS
 70
0
 71
3
 72
9
 73
5
 74
0
 42
0.0000001
 43
0.0000001
 44
0.0000000001
 40
0.0
 40
0.0
 40
0.0
 40
0.0
 40
0.4998551331
 40
1.0
 40
1.0
 40
1.0
 40
1.0
 10
1172.798069338
 20
336.8617177396
 30
0.0
 10
1173.8610053004
 20
335.4530944049
 30
0.0
 10
1175.5178374642
 20
332.2524364317
 30
0.0
 10
1176.0699262733
 20
328.6990622466
 30
0.0
 10
1176.0699262733
 20
326.9333715496
 30
0.0
  0
SPLINE
  5
572
100
AcDbEntity
  8
0
100
AcDbSpline
 62
9
  6
CONTINUOUS
 70
0
 71
3
 72
10
 73
6
 74
0
 42
0.0000001
 43
0.0000001
 44
0.0000000001
 40
0.0
 40
0.0
 40
0.0
 40
0.0
 40
0.6469520722
 40
0.8584043243
 40
1.0
 40
1.0
 40
1.0
 40
1.0
 10
1098.6052295591
 20
344.5774004829
 30
0.0
 10
1098.6802200702
 20
344.6529604104
 30
0.0
 10
1098.7834063185
 20
344.7516097829
 30
0.0
 10
1098.9208702856
 20
344.8411938448
 30
0.0
 10
1098.9775789933
 20
344.8616932458
 30
0.0
 10
1099.0008785563
 20
344.8617177396
 30
0.0
  0
SPLINE
  5
573
100
AcDbEntity
  8
0
100
AcDbSpline
 62
9
  6
CONTINUOUS
 70
0
 71
3
 72
11
 73
7
 74
0
 42
0.0000001
 43
0.0000001
 44
0.0000000001
 40
0.0
 40
0.0
 40
0.0
 40
0.0
 40
0.2507496563
 40
0.50311457
 40
0.7536873192
 40
1.0
 40
1.0
 40
1.0
 40
1.0
 10
1098.6052295609
 20
344.5773497792
 30
0.0
 10
1098.1041663699
 20
344.6004719898
 30
0.0
 10
1097.0987402096
 20
344.8382348138
 30
0.0
 10
1095.8238585195
 20
345.7010835826
 30
0.0
 10
1094.9386335371
 20
346.9506190576
 30
0.0
 10
1094.6929698203
 20
347.9430886791
 30
0.0
 10
1094.6693270632
 20
348.4352418546
 30
0.0
  0
SPLINE
  5
574
100
AcDbEntity
  8
0
100
AcDbSpline
 62
9
  6
CONTINUOUS
 70
0
 71
3
 72
11
 73
7
 74
0
 42
0.0000001
 43
0.0000001
 44
0.0000000001
 40
0.0
 40
0.0
 40
0.0
 40
0.0
 40
0.1154019144
 40
0.3167583824
 40
0.6122254243
 40
1.0
 40
1.0
 40
1.0
 40
1.0
 10
1045.1294501673
 20
348.8617177396
 30
0.0
 10
1045.1508050583
 20
348.8616456308
 30
0.0
 10
1045.2038390246
 20
348.8255821361
 30
0.0
 10
1045.2764971906
 20
348.7417593312
 30
0.0
 10
1045.3705823796
 20
348.606007102
 30
0.0
 10
1045.4349920143
 20
348.4975827264
 30
0.0
 10
1045.470526889
 20
348.4352418546
 30
0.0
  0
SPLINE
  5
575
100
AcDbEntity
  8
0
100
AcDbSpline
 62
9
  6
CONTINUOUS
 70
0
 71
3
 72
14
 73
10
 74
0
 42
0.0000001
 43
0.0000001
 44
0.0000000001
 40
0.0
 40
0.0
 40
0.0
 40
0.0
 40
0.0667900855
 40
0.1533817852
 40
0.2590864282
 40
0.3822758365
 40
0.5209233282
 40
0.6725485561
 40
1.0
 40
1.0
 40
1.0
 40
1.0
 10
1045.470526889
 20
348.4352418546
 30
0.0
 10
1045.767939199
 20
347.9136444802
 30
0.0
 10
1046.6782330584
 20
346.8514558701
 30
0.0
 10
1048.4967941415
 20
345.3891763405
 30
0.0
 10
1050.923806954
 20
343.9070352672
 30
0.0
 10
1053.9138008886
 20
342.4894772723
 30
0.0
 10
1057.4164186345
 20
341.2267839405
 30
0.0
 10
1062.8019081945
 20
339.8491152903
 30
0.0
 10
1067.1261939056
 20
339.41421491
 30
0.0
 10
1070.0699262733
 20
339.4137458316
 30
0.0
  0
SPLINE
  5
576
100
AcDbEntity
  8
0
100
AcDbSpline
 62
9
  6
CONTINUOUS
 70
0
 71
3
 72
14
 73
10
 74
0
 42
0.0000001
 43
0.0000001
 44
0.0000000001
 40
0.0
 40
0.0
 40
0.0
 40
0.0
 40
0.3274547454
 40
0.4790809358
 40
0.6177284457
 40
0.7409163842
 40
0.8466200171
 40
0.9332108422
 40
1.0
 40
1.0
 40
1.0
 40
1.0
 10
1070.0699262733
 20
339.4137458316
 30
0.0
 10
1073.0136883452
 20
339.4141813679
 30
0.0
 10
1077.3380145625
 20
339.8491214502
 30
0.0
 10
1082.7235353469
 20
341.2268162222
 30
0.0
 10
1086.2261460992
 20
342.4895170111
 30
0.0
 10
1089.2161157501
 20
343.9070742083
 30
0.0
 10
1091.6430994532
 20
345.3892050699
 30
0.0
 10
1093.4616363678
 20
346.8514742904
 30
0.0
 10
1094.3719177235
 20
347.9136515808
 30
0.0
 10
1094.6693256576
 20
348.4352418546
 30
0.0
  0
SPLINE
  5
577
100
AcDbEntity
  8
0
100
AcDbSpline
 62
9
  6
CONTINUOUS
 70
0
 71
3
 72
11
 73
7
 74
0
 42
0.0000001
 43
0.0000001
 44
0.0000000001
 40
0.0
 40
0.0
 40
0.0
 40
0.0
 40
0.3877745753
 40
0.6832407263
 40
0.8845977127
 40
1.0
 40
1.0
 40
1.0
 40
1.0
 10
1094.6693256576
 20
348.4352418546
 30
0.0
 10
1094.7048603496
 20
348.4975827945
 30
0.0
 10
1094.7692698778
 20
348.6060069748
 30
0.0
 10
1094.863355617
 20
348.7417587377
 30
0.0
 10
1094.9360136779
 20
348.825581323
 30
0.0
 10
1094.9890474288
 20
348.8616455724
 30
0.0
 10
1095.0104023793
 20
348.8617177396
 30
0.0
  0
SPLINE
  5
578
100
AcDbEntity
  8
0
100
AcDbSpline
 62
9
  6
CONTINUOUS
 70
0
 71
3
 72
15
 73
11
 74
0
 42
0.0000001
 43
0.0000001
 44
0.0000000001
 40
0.0
 40
0.0
 40
0.0
 40
0.0
 40
0.0430950445
 40
0.0726996894
 40
0.1091308997
 40
0.2035120077
 40
0.3253179095
 40
0.4712286797
 40
0.6364387919
 40
1.0
 40
1.0
 40
1.0
 40
1.0
 10
1176.0701152929
 20
55.0393150086
 30
0.0
 10
1176.0700873711
 20
55.0998516291
 30
0.0
 10
1176.1290602662
 20
55.197952305
 30
0.0
 10
1176.2480481114
 20
55.2923620006
 30
0.0
 10
1176.4443554618
 20
55.4059149996
 30
0.0
 10
1176.7791195906
 20
55.5278883704
 30
0.0
 10
1177.2731498784
 20
55.6508178701
 30
0.0
 10
1177.873415809
 20
55.7516173679
 30
0.0
 10
1178.8157074424
 20
55.8556783694
 30
0.0
 10
1179.5592232547
 20
55.884269171
 30
0.0
 10
1180.0699262704
 20
55.8842922504
 30
0.0
  0
SPLINE
  5
579
100
AcDbEntity
  8
0
100
AcDbSpline
 62
9
  6
CONTINUOUS
 70
0
 71
3
 72
20
 73
16
 74
0
 42
0.0000001
 43
0.0000001
 44
0.0000000001
 40
0.0
 40
0.0
 40
0.0
 40
0.0
 40
0.1537597325
 40
0.2892594762
 40
0.5065496606
 40
0.6670038119
 40
0.7855631011
 40
0.8322884631
 40
0.8718232554
 40
0.9048613404
 40
0.9320321852
 40
0.9540006522
 40
0.9716341128
 40
0.9862793597
 40
1.0
 40
1.0
 40
1.0
 40
1.0
 10
1180.0699262733
 20
55.8842387619
 30
0.0
 10
1180.0699626784
 20
54.4351636385
 30
0.0
 10
1179.7919984757
 20
51.7106637583
 30
0.0
 10
1178.8927902522
 20
47.022820707
 30
0.0
 10
1177.7928836113
 20
42.3113210523
 30
0.0
 10
1176.7709512613
 20
37.7472013589
 30
0.0
 10
1176.1321038473
 20
34.7444631271
 30
0.0
 10
1175.7030441424
 20
32.8624111408
 30
0.0
 10
1175.4276385827
 20
31.772182757
 30
0.0
 10
1175.1597531615
 20
30.8707150417
 30
0.0
 10
1174.8880498083
 20
30.1444407062
 30
0.0
 10
1174.6017578975
 20
29.5818329229
 30
0.0
 10
1174.28825294
 20
29.1723211377
 30
0.0
 10
1173.9273190011
 20
28.9154555234
 30
0.0
 10
1173.6560949427
 20
28.8617177294
 30
0.0
 10
1173.5267877559
 20
28.861711163
 30
0.0
  0
SPLINE
  5
57A
100
AcDbEntity
  8
0
100
AcDbSpline
 62
9
  6
CONTINUOUS
 70
0
 71
3
 72
15
 73
11
 74
0
 42
0.0000001
 43
0.0000001
 44
0.0000000001
 40
0.0
 40
0.0
 40
0.0
 40
0.0
 40
0.1263045266
 40
0.2524478439
 40
0.3782111881
 40
0.5035127923
 40
0.6282868823
 40
0.7525476973
 40
0.8764155388
 40
1.0
 40
1.0
 40
1.0
 40
1.0
 10
1034.0732546778
 20
344.5774067018
 30
0.0
 10
1033.0921655045
 20
344.5774170989
 30
0.0
 10
1031.1259715378
 20
344.3878672247
 30
0.0
 10
1028.2935253873
 20
343.5443081351
 30
0.0
 10
1025.682661465
 20
342.1737847984
 30
0.0
 10
1023.394708987
 20
340.3306502539
 30
0.0
 10
1021.5175637092
 20
338.0854738399
 30
0.0
 10
1020.1223304233
 20
335.5251621597
 30
0.0
 10
1019.263481884
 20
332.7492531887
 30
0.0
 10
1019.0704458371
 20
330.821678263
 30
0.0
 10
1019.0699262733
 20
329.8617177423
 30
0.0
  0
SPLINE
  5
57B
100
AcDbEntity
  8
0
100
AcDbSpline
 62
9
  6
CONTINUOUS
 70
0
 71
3
 72
28
 73
24
 74
0
 42
0.0000001
 43
0.0000001
 44
0.0000000001
 40
0.0
 40
0.0
 40
0.0
 40
0.0
 40
0.0315098657
 40
0.062912041
 40
0.0942953538
 40
0.1257130646
 40
0.1886255095
 40
0.2516648897
 40
0.3147557018
 40
0.3778573542
 40
0.4409438132
 40
0.50398752
 40
0.5669574256
 40
0.6298259631
 40
0.6926045836
 40
0.7554364608
 40
0.8185190643
 40
0.8499386925
 40
0.8809040125
 40
0.9112406538
 40
0.9409824219
 40
0.9703843156
 40
1.0
 40
1.0
 40
1.0
 40
1.0
 10
105.553186123
 20
55.0393149504
 30
0.0
 10
106.0914229915
 20
53.473107358
 30
0.0
 10
107.6265359531
 20
50.4960113114
 30
0.0
 10
110.8005596575
 20
46.6593094864
 30
0.0
 10
114.519660523
 20
43.3673319148
 30
0.0
 10
119.9601043238
 20
39.5985073053
 30
0.0
 10
127.377609784
 20
35.8549714283
 30
0.0
 10
136.7620463594
 20
32.5375592948
 30
0.0
 10
146.4375335674
 20
30.1734786848
 30
0.0
 10
156.2771892969
 20
28.6389072554
 30
0.0
 10
166.2016399398
 20
27.861606161
 30
0.0
 10
176.1487361424
 20
27.8044826917
 30
0.0
 10
186.0632443578
 20
28.4574056062
 30
0.0
 10
195.8898347561
 20
29.8358153509
 30
0.0
 10
205.5717490612
 20
31.9875885024
 30
0.0
 10
215.0326508823
 20
35.0096363282
 30
0.0
 10
222.6073946302
 20
38.3918978688
 30
0.0
 10
228.2933465607
 20
41.7457941225
 30
0.0
 10
232.2533195821
 20
44.6005760295
 30
0.0
 10
235.804132265
 20
47.8267603062
 30
0.0
 10
238.8112330642
 20
51.4699669984
 30
0.0
 10
241.0859452311
 20
55.5785506086
 30
0.0
 10
241.9024732374
 20
58.6200021376
 30
0.0
 10
242.0746548458
 20
60.1670058328
 30
0.0
  0
SPLINE
  5
57C
100
AcDbEntity
  8
0
100
AcDbSpline
 62
9
  6
CONTINUOUS
 70
0
 71
3
 72
26
 73
22
 74
0
 42
0.0000001
 43
0.0000001
 44
0.0000000001
 40
0.0
 40
0.0
 40
0.0
 40
0.0
 40
0.0003314188
 40
0.0013161565
 40
0.0029508776
 40
0.0052322442
 40
0.0117215637
 40
0.020757371
 40
0.0323004238
 40
0.0462829689
 40
0.0626333988
 40
0.081279022
 40
0.1251204876
 40
0.1771111374
 40
0.2365356671
 40
0.3026916368
 40
0.3749096038
 40
0.4525560109
 40
0.6217473268
 40
0.8057203688
 40
1.0
 40
1.0
 40
1.0
 40
1.0
 10
109.1419997969
 20
339.4137458316
 30
0.0
 10
109.1432089614
 20
339.4159145862
 30
0.0
 10
109.1540165276
 20
339.4186191257
 30
0.0
 10
109.1710497359
 20
339.4317004483
 30
0.0
 10
109.2041749933
 20
339.4486806327
 30
0.0
 10
109.2712162656
 20
339.4879205079
 30
0.0
 10
109.3878390903
 20
339.5531469381
 30
0.0
 10
109.5641628931
 20
339.6531302699
 30
0.0
 10
109.7899413514
 20
339.7799974598
 30
0.0
 10
110.063756496
 20
339.9331372172
 30
0.0
 10
110.3846322478
 20
340.1111845356
 30
0.0
 10
110.902105881
 20
340.3959780885
 30
0.0
 10
111.6561774946
 20
340.8046748022
 30
0.0
 10
112.6842475344
 20
341.348908117
 30
0.0
 10
113.8671470656
 20
341.9578432734
 30
0.0
 10
115.1934874731
 20
342.618995395
 30
0.0
 10
116.6522473189
 20
343.3201884489
 30
0.0
 10
118.8226972332
 20
344.3220369743
 30
0.0
 10
121.787985736
 20
345.5987953582
 30
0.0
 10
125.6140960476
 20
347.079222929
 30
0.0
 10
128.2972617291
 20
347.994369501
 30
0.0
 10
129.684472463
 20
348.4352418546
 30
0.0
  0
SPLINE
  5
57D
100
AcDbEntity
  8
0
100
AcDbSpline
 62
9
  6
CONTINUOUS
 70
0
 71
3
 72
16
 73
12
 74
0
 42
0.0000001
 43
0.0000001
 44
0.0000000001
 40
0.0
 40
0.0
 40
0.0
 40
0.0
 40
0.0082311536
 40
0.0240064962
 40
0.081851891
 40
0.1743691015
 40
0.2980998779
 40
0.4486065711
 40
0.6203069575
 40
0.8068527345
 40
1.0
 40
1.0
 40
1.0
 40
1.0
 10
132.1419997967
 20
344.8617177396
 30
0.0
 10
132.1530624161
 20
344.8617177396
 30
0.0
 10
132.178810845
 20
344.8897805853
 30
0.0
 10
132.2147591728
 20
344.9897993214
 30
0.0
 10
132.2594167337
 20
345.2132160648
 30
0.0
 10
132.3019385577
 20
345.5769929234
 30
0.0
 10
132.3420027235
 20
346.0692835075
 30
0.0
 10
132.374628816
 20
346.6674473165
 30
0.0
 10
132.3993325332
 20
347.3509018065
 30
0.0
 10
132.4143906879
 20
348.091809977
 30
0.0
 10
132.4178618608
 20
348.6021290114
 30
0.0
 10
132.4178618606
 20
348.8617177396
 30
0.0
  0
SPLINE
  5
57E
100
AcDbEntity
  8
0
100
AcDbSpline
 62
9
  6
CONTINUOUS
 70
0
 71
3
 72
15
 73
11
 74
0
 42
0.0000001
 43
0.0000001
 44
0.0000000001
 40
0.0
 40
0.0
 40
0.0
 40
0.0
 40
0.0375750283
 40
0.0653465501
 40
0.1004346286
 40
0.1932388248
 40
0.3146304482
 40
0.4612348778
 40
0.6283421584
 40
1.0
 40
1.0
 40
1.0
 40
1.0
 10
130.0281925514
 20
344.5773497792
 30
0.0
 10
130.0760787195
 20
344.5904604899
 30
0.0
 10
130.1367622332
 20
344.6692403132
 30
0.0
 10
130.177231074
 20
344.7931419245
 30
0.0
 10
130.2155361479
 20
344.9968918455
 30
0.0
 10
130.2252169291
 20
345.3267570391
 30
0.0
 10
130.1972108793
 20
345.8030964604
 30
0.0
 10
130.1259935794
 20
346.3738825453
 30
0.0
 10
129.9722678326
 20
347.2665311661
 30
0.0
 10
129.8103680669
 20
347.960576019
 30
0.0
 10
129.6844722085
 20
348.4352418546
 30
0.0
  0
SPLINE
  5
57F
100
AcDbEntity
  8
0
100
AcDbSpline
 62
9
  6
CONTINUOUS
 70
0
 71
3
 72
29
 73
25
 74
0
 42
0.0000001
 43
0.0000001
 44
0.0000000001
 40
0.0
 40
0.0
 40
0.0
 40
0.0
 40
0.0312318456
 40
0.0624705758
 40
0.0937147717
 40
0.1249640448
 40
0.1562213137
 40
0.1874825624
 40
0.2499733391
 40
0.3124847084
 40
0.3750051628
 40
0.4375304427
 40
0.5000582768
 40
0.5625863442
 40
0.6251122214
 40
0.6876330189
 40
0.7501444366
 40
0.8126355111
 40
0.8438966881
 40
0.8751539491
 40
0.9064010879
 40
0.9376277914
 40
0.9688252699
 40
1.0
 40
1.0
 40
1.0
 40
1.0
 10
243.1419997969
 20
144.8617177396
 30
0.0
 10
243.141398508
 20
146.5977818053
 30
0.0
 10
242.6214038569
 20
150.089304586
 30
0.0
 10
240.463115607
 20
154.88703603
 30
0.0
 10
237.3127651011
 20
159.0787212749
 30
0.0
 10
233.5062070651
 20
162.6652401507
 30
0.0
 10
229.2706735605
 20
165.7225612831
 30
0.0
 10
223.2421418078
 20
169.1964924855
 30
0.0
 10
215.2118757128
 20
172.5902052424
 30
0.0
 10
205.1870698843
 20
175.5048738725
 30
0.0
 10
194.9355302856
 20
177.4731251838
 30
0.0
 10
184.5615376163
 20
178.6131395863
 30
0.0
 10
174.1322225813
 20
178.9863843096
 30
0.0
 10
163.7029236859
 20
178.6117294597
 30
0.0
 10
153.3290267321
 20
177.4702228552
 30
0.0
 10
143.0777400451
 20
175.5003165873
 30
0.0
 10
133.0534565391
 20
172.583678255
 30
0.0
 10
125.0239918939
 20
169.1879159828
 30
0.0
 10
118.9966535553
 20
165.7118662354
 30
0.0
 10
114.7625195868
 20
162.6527682908
 30
0.0
 10
110.958779732
 20
159.0648421579
 30
0.0
 10
107.8131200919
 20
154.8737571235
 30
0.0
 10
105.6612484552
 20
150.0805257467
 30
0.0
 10
105.1420346278
 20
146.5946070679
 30
0.0
 10
105.1419997969
 20
144.8617177396
 30
0.0
  0
SPLINE
  5
580
100
AcDbEntity
  8
0
100
AcDbSpline
 62
9
  6
CONTINUOUS
 70
0
 71
3
 72
29
 73
25
 74
0
 42
0.0000001
 43
0.0000001
 44
0.0000000001
 40
0.0
 40
0.0
 40
0.0
 40
0.0
 40
0.0312318456
 40
0.0624705758
 40
0.0937147717
 40
0.1249640448
 40
0.1562213137
 40
0.1874825624
 40
0.2499733391
 40
0.3124847084
 40
0.3750051628
 40
0.4375304427
 40
0.5000582768
 40
0.5625863442
 40
0.6251122214
 40
0.6876330189
 40
0.7501444366
 40
0.8126355111
 40
0.8438966881
 40
0.8751539491
 40
0.9064010879
 40
0.9376277914
 40
0.9688252699
 40
1.0
 40
1.0
 40
1.0
 40
1.0
 10
105.1419997969
 20
144.8617177396
 30
0.0
 10
105.1426010859
 20
143.1256536739
 30
0.0
 10
105.662595737
 20
139.6341308932
 30
0.0
 10
107.8208839868
 20
134.8363994492
 30
0.0
 10
110.9712344927
 20
130.6447142044
 30
0.0
 10
114.7777925288
 20
127.0581953285
 30
0.0
 10
119.0133260334
 20
124.0008741961
 30
0.0
 10
125.0418577861
 20
120.5269429937
 30
0.0
 10
133.0721238811
 20
117.1332302369
 30
0.0
 10
143.0969297096
 20
114.2185616067
 30
0.0
 10
153.3484693082
 20
112.2503102954
 30
0.0
 10
163.7224619776
 20
111.1102958929
 30
0.0
 10
174.1517770126
 20
110.7370511696
 30
0.0
 10
184.581075908
 20
111.1117060195
 30
0.0
 10
194.9549728618
 20
112.253212624
 30
0.0
 10
205.2062595488
 20
114.2231188919
 30
0.0
 10
215.2305430548
 20
117.1397572242
 30
0.0
 10
223.2600076999
 20
120.5355194964
 30
0.0
 10
229.2873460386
 20
124.0115692439
 30
0.0
 10
233.521480007
 20
127.0706671884
 30
0.0
 10
237.3252198619
 20
130.6585933213
 30
0.0
 10
240.470879502
 20
134.8496783557
 30
0.0
 10
242.6227511386
 20
139.6429097325
 30
0.0
 10
243.1419649661
 20
143.1288284113
 30
0.0
 10
243.1419997969
 20
144.8617177396
 30
0.0
  0
SPLINE
  5
581
100
AcDbEntity
  8
0
100
AcDbSpline
 62
9
  6
CONTINUOUS
 70
0
 71
3
 72
28
 73
24
 74
0
 42
0.0000001
 43
0.0000001
 44
0.0000000001
 40
0.0
 40
0.0
 40
0.0
 40
0.0
 40
0.0312467628
 40
0.062492974
 40
0.0937472233
 40
0.125005939
 40
0.1874882751
 40
0.2499935069
 40
0.312508563
 40
0.3750289152
 40
0.4375522754
 40
0.5000769938
 40
0.5626009914
 40
0.6251222763
 40
0.6876380987
 40
0.7501446209
 40
0.8126301463
 40
0.8438893161
 40
0.8751445248
 40
0.9063894784
 40
0.9376158062
 40
0.9688171082
 40
1.0
 40
1.0
 40
1.0
 40
1.0
 10
240.9887479499
 20
67.5280260081
 30
0.0
 10
240.2439347056
 20
68.9929431747
 30
0.0
 10
238.4217993309
 20
71.7605043833
 30
0.0
 10
235.0153050908
 20
75.3493077134
 30
0.0
 10
231.1563762817
 20
78.4391927716
 30
0.0
 10
225.605337072
 20
81.9783240768
 30
0.0
 10
218.1372308778
 20
85.4848208786
 30
0.0
 10
208.7554173577
 20
88.5745663656
 30
0.0
 10
199.1245597331
 20
90.7620958575
 30
0.0
 10
189.3521386785
 20
92.1718210834
 30
0.0
 10
179.5042483545
 20
92.874826046
 30
0.0
 10
169.6316208397
 20
92.903650743
 30
0.0
 10
159.7796818196
 20
92.2596851295
 30
0.0
 10
149.9983851899
 20
90.9131076863
 30
0.0
 10
140.3518750083
 20
88.796701064
 30
0.0
 10
130.9429036539
 20
85.7915585896
 30
0.0
 10
123.4350460734
 20
82.3751289025
 30
0.0
 10
117.8276750029
 20
78.9265393356
 30
0.0
 10
113.907571875
 20
75.9168774179
 30
0.0
 10
110.409868848
 20
72.4183282397
 30
0.0
 10
107.5442075671
 20
68.373485459
 30
0.0
 10
105.6057118329
 20
63.7990368592
 30
0.0
 10
105.1420327588
 20
60.5017480246
 30
0.0
 10
105.1419997969
 20
58.8617177396
 30
0.0
  0
SPLINE
  5
582
100
AcDbEntity
  8
0
100
AcDbSpline
 62
9
  6
CONTINUOUS
 70
0
 71
3
 72
9
 73
5
 74
0
 42
0.0000001
 43
0.0000001
 44
0.0000000001
 40
0.0
 40
0.0
 40
0.0
 40
0.0
 40
0.4929922747
 40
1.0
 40
1.0
 40
1.0
 40
1.0
 10
242.0746548458
 20
60.1670058328
 30
0.0
 10
242.210584954
 20
61.3927849318
 30
0.0
 10
242.18721959
 20
63.9245771087
 30
0.0
 10
241.4915180617
 20
66.3635736301
 30
0.0
 10
240.9887487204
 20
67.5280247637
 30
0.0
  0
SPLINE
  5
583
100
AcDbEntity
  8
0
100
AcDbSpline
 62
9
  6
CONTINUOUS
 70
0
 71
3
 72
11
 73
7
 74
0
 42
0.0000001
 43
0.0000001
 44
0.0000000001
 40
0.0
 40
0.0
 40
0.0
 40
0.0
 40
0.2500316849
 40
0.5000555915
 40
0.7500515505
 40
1.0
 40
1.0
 40
1.0
 40
1.0
 10
-625.9267214482
 20
206.247398787
 30
0.0
 10
-625.9266981021
 20
205.5289802049
 30
0.0
 10
-625.7458936529
 20
204.0858546547
 30
0.0
 10
-624.9493416138
 20
202.0597760125
 30
0.0
 10
-623.6715354484
 20
200.2963556605
 30
0.0
 10
-622.5404463136
 20
199.3783705624
 30
0.0
 10
-621.9267214482
 20
199.0053779741
 30
0.0
  0
SPLINE
  5
584
100
AcDbEntity
  8
0
100
AcDbSpline
 62
9
  6
CONTINUOUS
 70
0
 71
3
 72
11
 73
7
 74
0
 42
0.0000001
 43
0.0000001
 44
0.0000000001
 40
0.0
 40
0.0
 40
0.0
 40
0.0
 40
0.2495956367
 40
0.4994875388
 40
0.7496719482
 40
1.0
 40
1.0
 40
1.0
 40
1.0
 10
-579.9267214482
 20
186.716858612
 30
0.0
 10
-579.7906324004
 20
186.7168695033
 30
0.0
 10
-579.5147102216
 20
186.7806449078
 30
0.0
 10
-579.1835307972
 20
187.0388154968
 30
0.0
 10
-578.9741256999
 20
187.4006882199
 30
0.0
 10
-578.9267290263
 20
187.6759501322
 30
0.0
 10
-578.9267214482
 20
187.8124385208
 30
0.0
  0
SPLINE
  5
585
100
AcDbEntity
  8
0
100
AcDbSpline
 62
9
  6
CONTINUOUS
 70
0
 71
3
 72
9
 73
5
 74
0
 42
0.0000001
 43
0.0000001
 44
0.0000000001
 40
0.0
 40
0.0
 40
0.0
 40
0.0
 40
0.5000702917
 40
1.0
 40
1.0
 40
1.0
 40
1.0
 10
-603.9267214482
 20
187.8908642953
 30
0.0
 10
-603.3330222936
 20
187.5165370161
 30
0.0
 10
-602.0392329432
 20
186.9230420583
 30
0.0
 10
-600.6283785368
 20
186.716882475
 30
0.0
 10
-599.9267214482
 20
186.716858612
 30
0.0
  0
SPLINE
  5
586
100
AcDbEntity
  8
0
100
AcDbSpline
 62
9
  6
CONTINUOUS
 70
0
 71
3
 72
11
 73
7
 74
0
 42
0.0000001
 43
0.0000001
 44
0.0000000001
 40
0.0
 40
0.0
 40
0.0
 40
0.0
 40
0.2499484495
 40
0.4999444084
 40
0.7499683151
 40
1.0
 40
1.0
 40
1.0
 40
1.0
 10
-621.9267214482
 20
110.7180575051
 30
0.0
 10
-622.5404463322
 20
110.3450649477
 30
0.0
 10
-623.6715354379
 20
109.4270798026
 30
0.0
 10
-624.9493416158
 20
107.6636594711
 30
0.0
 10
-625.7458936554
 20
105.6375808234
 30
0.0
 10
-625.9266980953
 20
104.1944552743
 30
0.0
 10
-625.9267214482
 20
103.4760366922
 30
0.0
  0
SPLINE
  5
587
100
AcDbEntity
  8
0
100
AcDbSpline
 62
9
  6
CONTINUOUS
 70
0
 71
3
 72
9
 73
5
 74
0
 42
0.0000001
 43
0.0000001
 44
0.0000000001
 40
0.0
 40
0.0
 40
0.0
 40
0.0
 40
0.4999297083
 40
1.0
 40
1.0
 40
1.0
 40
1.0
 10
-599.9267214482
 20
123.0065768672
 30
0.0
 10
-600.6283785368
 20
123.00655301
 30
0.0
 10
-602.0392329384
 20
122.8003934096
 30
0.0
 10
-603.3330223024
 20
122.206898477
 30
0.0
 10
-603.9267214482
 20
121.8325711839
 30
0.0
  0
SPLINE
  5
588
100
AcDbEntity
  8
0
100
AcDbSpline
 62
9
  6
CONTINUOUS
 70
0
 71
3
 72
11
 73
7
 74
0
 42
0.0000001
 43
0.0000001
 44
0.0000000001
 40
0.0
 40
0.0
 40
0.0
 40
0.0
 40
0.2503280518
 40
0.5005124612
 40
0.7504043633
 40
1.0
 40
1.0
 40
1.0
 40
1.0
 10
-578.9267214482
 20
121.9109969584
 30
0.0
 10
-578.926729025
 20
122.047485347
 30
0.0
 10
-578.9741257002
 20
122.3227472593
 30
0.0
 10
-579.1835307971
 20
122.6846199826
 30
0.0
 10
-579.5147102215
 20
122.9427905707
 30
0.0
 10
-579.7906324004
 20
123.006565978
 30
0.0
 10
-579.9267214482
 20
123.0065768672
 30
0.0
  0
SPLINE
  5
589
100
AcDbEntity
  8
0
100
AcDbSpline
 62
9
  6
CONTINUOUS
 70
0
 71
3
 72
9
 73
5
 74
0
 42
0.0000001
 43
0.0000001
 44
0.0000000001
 40
0.0
 40
0.0
 40
0.0
 40
0.0
 40
0.2501495915
 40
1.0
 40
1.0
 40
1.0
 40
1.0
 10
-622.9267214482
 20
148.1226580189
 30
0.0
 10
-621.4258185607
 20
148.1275245111
 30
0.0
 10
-615.425801154
 20
148.1480843517
 30
0.0
 10
-609.4257984465
 20
148.1736311483
 30
0.0
 10
-604.9267214482
 20
148.1978350595
 30
0.0
  0
SPLINE
  5
58A
100
AcDbEntity
  8
0
100
AcDbSpline
 62
9
  6
CONTINUOUS
 70
0
 71
3
 72
21
 73
17
 74
0
 42
0.0000001
 43
0.0000001
 44
0.0000000001
 40
0.0
 40
0.0
 40
0.0
 40
0.0
 40
0.217320535
 40
0.4136564101
 40
0.5857034508
 40
0.6617037338
 40
0.7305947827
 40
0.7920895184
 40
0.8459420968
 40
0.8919295219
 40
0.9298762688
 40
0.9596359542
 40
0.9811248995
 40
0.9943474981
 40
0.9979799172
 40
1.0
 40
1.0
 40
1.0
 40
1.0
 10
-622.9267214482
 20
161.6007774603
 30
0.0
 10
-623.2900531465
 20
161.6080407926
 30
0.0
 10
-623.9815985918
 20
161.623702395
 30
0.0
 10
-624.9606121284
 20
161.6519886789
 30
0.0
 10
-625.7032338655
 20
161.6789081007
 30
0.0
 10
-626.2327161969
 20
161.7020611252
 30
0.0
 10
-626.5774157716
 20
161.7191105123
 30
0.0
 10
-626.8850169449
 20
161.7364607422
 30
0.0
 10
-627.1542268677
 20
161.7539877761
 30
0.0
 10
-627.3839940201
 20
161.7715981689
 30
0.0
 10
-627.5732433002
 20
161.7890783384
 30
0.0
 10
-627.7216034088
 20
161.8064337736
 30
0.0
 10
-627.8277283197
 20
161.8228863947
 30
0.0
 10
-627.8910037038
 20
161.8380323479
 30
0.0
 10
-627.9194669626
 20
161.8502253981
 30
0.0
 10
-627.926719247
 20
161.8583397496
 30
0.0
 10
-627.9267214482
 20
161.8617177396
 30
0.0
  0
SPLINE
  5
58B
100
AcDbEntity
  8
0
100
AcDbSpline
 62
9
  6
CONTINUOUS
 70
0
 71
3
 72
11
 73
7
 74
0
 42
0.0000001
 43
0.0000001
 44
0.0000000001
 40
0.0
 40
0.0
 40
0.0
 40
0.0
 40
0.2499756255
 40
0.4999368199
 40
0.7499304011
 40
1.0
 40
1.0
 40
1.0
 40
1.0
 10
-627.9267214482
 20
206.247398787
 30
0.0
 10
-627.926708929
 20
205.3612071083
 30
0.0
 10
-627.6997656314
 20
203.5807428
 30
0.0
 10
-626.6990355996
 20
201.0874314261
 30
0.0
 10
-625.0979324566
 20
198.9285980143
 30
0.0
 10
-623.6888796999
 20
197.8126412872
 30
0.0
 10
-622.9267214482
 20
197.359826684
 30
0.0
  0
SPLINE
  5
58C
100
AcDbEntity
  8
0
100
AcDbSpline
 62
9
  6
CONTINUOUS
 70
0
 71
3
 72
11
 73
7
 74
0
 42
0.0000001
 43
0.0000001
 44
0.0000000001
 40
0.0
 40
0.0
 40
0.0
 40
0.0
 40
0.2500695989
 40
0.5000631801
 40
0.7500243745
 40
1.0
 40
1.0
 40
1.0
 40
1.0
 10
-622.9267214482
 20
112.3636087952
 30
0.0
 10
-623.6888797088
 20
111.910794207
 30
0.0
 10
-625.0979324532
 20
110.7948374586
 30
0.0
 10
-626.6990356002
 20
108.636004055
 30
0.0
 10
-627.6997656327
 20
106.1426926787
 30
0.0
 10
-627.9267089258
 20
104.362228371
 30
0.0
 10
-627.9267214482
 20
103.4760366922
 30
0.0
  0
SPLINE
  5
58D
100
AcDbEntity
  8
0
100
AcDbSpline
 62
9
  6
CONTINUOUS
 70
0
 71
3
 72
21
 73
17
 74
0
 42
0.0000001
 43
0.0000001
 44
0.0000000001
 40
0.0
 40
0.0
 40
0.0
 40
0.0
 40
0.0020200828
 40
0.0056525019
 40
0.0188751005
 40
0.0403640459
 40
0.0701237312
 40
0.1080704781
 40
0.1540579032
 40
0.2079104816
 40
0.2694052173
 40
0.3382962662
 40
0.4142965493
 40
0.5863435899
 40
0.782679465
 40
1.0
 40
1.0
 40
1.0
 40
1.0
 10
-627.9267214482
 20
147.8617177396
 30
0.0
 10
-627.9267192471
 20
147.8650957296
 30
0.0
 10
-627.9194669627
 20
147.8732100813
 30
0.0
 10
-627.8910037039
 20
147.8854031313
 30
0.0
 10
-627.8277283198
 20
147.9005490845
 30
0.0
 10
-627.7216034088
 20
147.9170017056
 30
0.0
 10
-627.5732433002
 20
147.9343571409
 30
0.0
 10
-627.3839940201
 20
147.9518373102
 30
0.0
 10
-627.1542268677
 20
147.9694477031
 30
0.0
 10
-626.8850169449
 20
147.9869747371
 30
0.0
 10
-626.5774157716
 20
148.004324967
 30
0.0
 10
-626.2327161969
 20
148.0213743539
 30
0.0
 10
-625.7032338655
 20
148.0445273783
 30
0.0
 10
-624.9606121284
 20
148.071446801
 30
0.0
 10
-623.9815985918
 20
148.0997330831
 30
0.0
 10
-623.2900531465
 20
148.1153946879
 30
0.0
 10
-622.9267214482
 20
148.1226580189
 30
0.0
  0
SPLINE
  5
58E
100
AcDbEntity
  8
0
100
AcDbSpline
 62
9
  6
CONTINUOUS
 70
0
 71
3
 72
9
 73
5
 74
0
 42
0.0000001
 43
0.0000001
 44
0.0000000001
 40
0.0
 40
0.0
 40
0.0
 40
0.0
 40
0.5001132241
 40
1.0
 40
1.0
 40
1.0
 40
1.0
 10
-599.9267214482
 20
124.8268706314
 30
0.0
 10
-600.8008026082
 20
124.8268509947
 30
0.0
 10
-602.557009829
 20
124.5826895721
 30
0.0
 10
-604.1796019448
 20
123.871446069
 30
0.0
 10
-604.9267214482
 20
123.4185237865
 30
0.0
  0
SPLINE
  5
58F
100
AcDbEntity
  8
0
100
AcDbSpline
 62
9
  6
CONTINUOUS
 70
0
 71
3
 72
9
 73
5
 74
0
 42
0.0000001
 43
0.0000001
 44
0.0000000001
 40
0.0
 40
0.0
 40
0.0
 40
0.0
 40
0.4998867759
 40
1.0
 40
1.0
 40
1.0
 40
1.0
 10
-604.9267214482
 20
186.3049116928
 30
0.0
 10
-604.1796019463
 20
185.8519894076
 30
0.0
 10
-602.5570098285
 20
185.1407459081
 30
0.0
 10
-600.8008026083
 20
184.896584483
 30
0.0
 10
-599.9267214482
 20
184.8965648479
 30
0.0
  0
SPLINE
  5
590
100
AcDbEntity
  8
0
100
AcDbSpline
 62
9
  6
CONTINUOUS
 70
0
 71
3
 72
15
 73
11
 74
0
 42
0.0000001
 43
0.0000001
 44
0.0000000001
 40
0.0
 40
0.0
 40
0.0
 40
0.0
 40
0.1228352222
 40
0.2459072878
 40
0.3695550564
 40
0.4940121588
 40
0.6193964825
 40
0.7456715493
 40
0.8726389251
 40
1.0
 40
1.0
 40
1.0
 40
1.0
 10
-576.9267214482
 20
121.9109969584
 30
0.0
 10
-576.9267236995
 20
122.1009818628
 30
0.0
 10
-576.9650436513
 20
122.4824207273
 30
0.0
 10
-577.1356326356
 20
123.0317821202
 30
0.0
 10
-577.4131525006
 20
123.5387349068
 30
0.0
 10
-577.7875104205
 20
123.9836118582
 30
0.0
 10
-578.2447093325
 20
124.3492801251
 30
0.0
 10
-578.7674643912
 20
124.6213591226
 30
0.0
 10
-579.335334076
 20
124.7891244772
 30
0.0
 10
-579.7297365677
 20
124.8268550858
 30
0.0
 10
-579.9267214482
 20
124.8268706314
 30
0.0
  0
SPLINE
  5
591
100
AcDbEntity
  8
0
100
AcDbSpline
 62
9
  6
CONTINUOUS
 70
0
 71
3
 72
17
 73
13
 74
0
 42
0.0000001
 43
0.0000001
 44
0.0000000001
 40
0.0
 40
0.0
 40
0.0
 40
0.0
 40
0.3741990047
 40
0.5435490108
 40
0.6924171031
 40
0.7574420117
 40
0.815399698
 40
0.8658134346
 40
0.9083087701
 40
0.9426670359
 40
0.9689192207
 40
1.0
 40
1.0
 40
1.0
 40
1.0
 10
-579.9267214482
 20
148.2617177396
 30
0.0
 10
-579.5435492815
 20
148.2617240102
 30
0.0
 10
-578.98673822
 20
148.2477832582
 30
0.0
 10
-578.2794170533
 20
148.1974300096
 30
0.0
 10
-577.8891157741
 20
148.1553338584
 30
0.0
 10
-577.6136569489
 20
148.1148069153
 30
0.0
 10
-577.4388857513
 20
148.0835983935
 30
0.0
 10
-577.2877912143
 20
148.0503881313
 30
0.0
 10
-577.1624646367
 20
148.0161983606
 30
0.0
 10
-577.0617683657
 20
147.9797023482
 30
0.0
 10
-576.9806355028
 20
147.9406075015
 30
0.0
 10
-576.9267309299
 20
147.8935438238
 30
0.0
 10
-576.9267214482
 20
147.8617177396
 30
0.0
  0
SPLINE
  5
592
100
AcDbEntity
  8
0
100
AcDbSpline
 62
9
  6
CONTINUOUS
 70
0
 71
3
 72
14
 73
10
 74
0
 42
0.0000001
 43
0.0000001
 44
0.0000000001
 40
0.0
 40
0.0
 40
0.0
 40
0.0
 40
0.3194044034
 40
0.4657966148
 40
0.5993683779
 40
0.7184588948
 40
0.8229953364
 40
0.9151771319
 40
1.0
 40
1.0
 40
1.0
 40
1.0
 10
-622.9267214467
 20
148.1226580185
 30
0.0
 10
-622.9114759897
 20
148.3523801899
 30
0.0
 10
-622.8601841813
 20
148.687143836
 30
0.0
 10
-622.7261254438
 20
149.0986512474
 30
0.0
 10
-622.6031006494
 20
149.3596947378
 30
0.0
 10
-622.4582522122
 20
149.5740723262
 30
0.0
 10
-622.2949286133
 20
149.7354150566
 30
0.0
 10
-622.1163332396
 20
149.837629683
 30
0.0
 10
-621.9878619845
 20
149.8617177398
 30
0.0
 10
-621.9267214482
 20
149.86171774
 30
0.0
  0
SPLINE
  5
593
100
AcDbEntity
  8
0
100
AcDbSpline
 62
9
  6
CONTINUOUS
 70
0
 71
3
 72
14
 73
10
 74
0
 42
0.0000001
 43
0.0000001
 44
0.0000000001
 40
0.0
 40
0.0
 40
0.0
 40
0.0
 40
0.3191314073
 40
0.4649071479
 40
0.5978916839
 40
0.7166632814
 40
0.8213316251
 40
0.9141606321
 40
1.0
 40
1.0
 40
1.0
 40
1.0
 10
-604.9267202473
 20
148.1978346558
 30
0.0
 10
-604.9075583531
 20
148.4194324067
 30
0.0
 10
-604.8520519406
 20
148.7415069153
 30
0.0
 10
-604.7152555893
 20
149.1359185079
 30
0.0
 10
-604.5919330525
 20
149.385043099
 30
0.0
 10
-604.4481712728
 20
149.5891185075
 30
0.0
 10
-604.2871189389
 20
149.7423286519
 30
0.0
 10
-604.1119068806
 20
149.8390390762
 30
0.0
 10
-603.9865488237
 20
149.8617176124
 30
0.0
 10
-603.9267214482
 20
149.8617177396
 30
0.0
  0
SPLINE
  5
594
100
AcDbEntity
  8
0
100
AcDbSpline
 62
9
  6
CONTINUOUS
 70
0
 71
3
 72
17
 73
13
 74
0
 42
0.0000001
 43
0.0000001
 44
0.0000000001
 40
0.0
 40
0.0
 40
0.0
 40
0.0
 40
0.0310807797
 40
0.0573329642
 40
0.09169123
 40
0.1341865655
 40
0.1846003021
 40
0.2425579884
 40
0.307582897
 40
0.4564509892
 40
0.6258009954
 40
1.0
 40
1.0
 40
1.0
 40
1.0
 10
-576.9267214482
 20
161.8617177396
 30
0.0
 10
-576.9267309291
 20
161.8298916551
 30
0.0
 10
-576.9806355022
 20
161.7828279762
 30
0.0
 10
-577.0617683661
 20
161.7437331315
 30
0.0
 10
-577.1624646369
 20
161.7072371195
 30
0.0
 10
-577.2877912141
 20
161.6730473476
 30
0.0
 10
-577.4388857513
 20
161.6398370853
 30
0.0
 10
-577.613656949
 20
161.6086285642
 30
0.0
 10
-577.8891157741
 20
161.5681016208
 30
0.0
 10
-578.2794170533
 20
161.5260054697
 30
0.0
 10
-578.98673822
 20
161.4756522209
 30
0.0
 10
-579.5435492815
 20
161.4617114693
 30
0.0
 10
-579.9267214482
 20
161.4617177396
 30
0.0
  0
SPLINE
  5
595
100
AcDbEntity
  8
0
100
AcDbSpline
 62
9
  6
CONTINUOUS
 70
0
 71
3
 72
15
 73
11
 74
0
 42
0.0000001
 43
0.0000001
 44
0.0000000001
 40
0.0
 40
0.0
 40
0.0
 40
0.0
 40
0.1273610749
 40
0.2543284507
 40
0.3806035175
 40
0.5059878412
 40
0.6304449436
 40
0.7540927122
 40
0.8771647776
 40
1.0
 40
1.0
 40
1.0
 40
1.0
 10
-579.9267214482
 20
184.8965648479
 30
0.0
 10
-579.7297365677
 20
184.896580396
 30
0.0
 10
-579.3353340758
 20
184.9343109997
 30
0.0
 10
-578.7674643914
 20
185.1020763575
 30
0.0
 10
-578.2447093324
 20
185.3741553538
 30
0.0
 10
-577.7875104206
 20
185.7398236212
 30
0.0
 10
-577.4131525003
 20
186.1847005723
 30
0.0
 10
-577.1356326365
 20
186.6916533591
 30
0.0
 10
-576.96504365
 20
187.2410147515
 30
0.0
 10
-576.9267237008
 20
187.6224536161
 30
0.0
 10
-576.9267214482
 20
187.8124385208
 30
0.0
  0
SPLINE
  5
596
100
AcDbEntity
  8
0
100
AcDbSpline
 62
9
  6
CONTINUOUS
 70
0
 71
3
 72
14
 73
10
 74
0
 42
0.0000001
 43
0.0000001
 44
0.0000000001
 40
0.0
 40
0.0
 40
0.0
 40
0.0
 40
0.3194042854
 40
0.4657964774
 40
0.599368253
 40
0.7184588095
 40
0.8229953041
 40
0.9151771399
 40
1.0
 40
1.0
 40
1.0
 40
1.0
 10
-622.9267195504
 20
161.6007779555
 30
0.0
 10
-622.9114741364
 20
161.3710560116
 30
0.0
 10
-622.8601824518
 20
161.0362926724
 30
0.0
 10
-622.7261240382
 20
160.6247855398
 30
0.0
 10
-622.6030995133
 20
160.3637421014
 30
0.0
 10
-622.4582513732
 20
160.1493644245
 30
0.0
 10
-622.2949280906
 20
159.9880214583
 30
0.0
 10
-622.1163330467
 20
159.8858064267
 30
0.0
 10
-621.9878619403
 20
159.8617179509
 30
0.0
 10
-621.9267214482
 20
159.8617177396
 30
0.0
  0
SPLINE
  5
597
100
AcDbEntity
  8
0
100
AcDbSpline
 62
9
  6
CONTINUOUS
 70
0
 71
3
 72
14
 73
10
 74
0
 42
0.0000001
 43
0.0000001
 44
0.0000000001
 40
0.0
 40
0.0
 40
0.0
 40
0.0
 40
0.3191314779
 40
0.4649072276
 40
0.5978917533
 40
0.716663325
 40
0.821331637
 40
0.9141606226
 40
1.0
 40
1.0
 40
1.0
 40
1.0
 10
-604.9267214449
 20
161.5256004208
 30
0.0
 10
-604.9075595196
 20
161.3040025401
 30
0.0
 10
-604.8520530246
 20
160.9819278591
 30
0.0
 10
-604.715256465
 20
160.5875161205
 30
0.0
 10
-604.5919337578
 20
160.3383915163
 30
0.0
 10
-604.4481717917
 20
160.1343161784
 30
0.0
 10
-604.2871192609
 20
159.9811061912
 30
0.0
 10
-604.1119070002
 20
159.8843960223
 30
0.0
 10
-603.9865488526
 20
159.8617177391
 30
0.0
 10
-603.9267214482
 20
159.8617177387
 30
0.0
  0
SPLINE
  5
598
100
AcDbEntity
  8
0
100
AcDbSpline
 62
7
  6
CONTINUOUS
 70
0
 71
3
 72
10
 73
6
 74
0
 42
0.0000001
 43
0.0000001
 44
0.0000000001
 40
0.0
 40
0.0
 40
0.0
 40
0.0
 40
0.2671990858
 40
0.5248156525
 40
1.0
 40
1.0
 40
1.0
 40
1.0
 10
-791.0814188312
 20
336.8617177396
 30
0.0
 10
-790.3177091526
 20
337.7349219144
 30
0.0
 10
-788.7033222946
 20
339.3550616105
 30
0.0
 10
-785.27610952
 20
342.0263589414
 30
0.0
 10
-782.394128103
 20
343.5058790319
 30
0.0
 10
-780.4267214482
 20
344.1267176303
 30
0.0
  0
SPLINE
  5
599
100
AcDbEntity
  8
0
100
AcDbSpline
 62
9
  6
CONTINUOUS
 70
0
 71
3
 72
13
 73
9
 74
0
 42
0.0000001
 43
0.0000001
 44
0.0000000001
 40
0.0
 40
0.0
 40
0.0
 40
0.0
 40
0.0765909382
 40
0.1634541324
 40
0.266272226
 40
0.386680267
 40
0.6741485507
 40
1.0
 40
1.0
 40
1.0
 40
1.0
 10
-795.4265642241
 20
67.5280247454
 30
0.0
 10
-795.4265678961
 20
67.4076034469
 30
0.0
 10
-795.4878591471
 20
67.1488469518
 30
0.0
 10
-795.7335711501
 20
66.8013412471
 30
0.0
 10
-796.1150642891
 20
66.4910661826
 30
0.0
 10
-796.8257644963
 20
66.1102004225
 30
0.0
 10
-797.9488045004
 20
65.7974669872
 30
0.0
 10
-798.9143964186
 20
65.7151882479
 30
0.0
 10
-799.4267214482
 20
65.7151871771
 30
0.0
  0
SPLINE
  5
59A
100
AcDbEntity
  8
0
100
AcDbSpline
 62
9
  6
CONTINUOUS
 70
0
 71
3
 72
9
 73
5
 74
0
 42
0.0000001
 43
0.0000001
 44
0.0000000001
 40
0.0
 40
0.0
 40
0.0
 40
0.0
 40
0.5098305863
 40
1.0
 40
1.0
 40
1.0
 40
1.0
 10
-794.0289374752
 20
60.1670058328
 30
0.0
 10
-794.4260573753
 20
61.3807675182
 30
0.0
 10
-795.1036992126
 20
63.7958573119
 30
0.0
 10
-795.4265432628
 20
66.300198652
 30
0.0
 10
-795.4267214482
 20
67.5280247637
 30
0.0
  0
SPLINE
  5
59B
100
AcDbEntity
  8
0
100
AcDbSpline
 62
9
  6
CONTINUOUS
 70
0
 71
3
 72
24
 73
20
 74
0
 42
0.0000001
 43
0.0000001
 44
0.0000000001
 40
0.0
 40
0.0
 40
0.0
 40
0.0
 40
0.0107401478
 40
0.0214743468
 40
0.0281188872
 40
0.035977489
 40
0.0559219687
 40
0.0820993713
 40
0.1149088596
 40
0.1546147102
 40
0.2014178281
 40
0.2555813009
 40
0.3179154733
 40
0.3908401224
 40
0.4783228867
 40
0.5831485317
 40
0.7058944243
 40
0.8458184863
 40
1.0
 40
1.0
 40
1.0
 40
1.0
 10
-790.8307906882
 20
28.0563762759
 30
0.0
 10
-790.7387199576
 20
27.9677060687
 30
0.0
 10
-790.5039135149
 20
27.8215871769
 30
0.0
 10
-790.1521790897
 20
27.8863517481
 30
0.0
 10
-789.8905739038
 20
28.0334928929
 30
0.0
 10
-789.5661041308
 20
28.2869634432
 30
0.0
 10
-789.1347364302
 20
28.767571076
 30
0.0
 10
-788.5918364795
 20
29.535257638
 30
0.0
 10
-787.9946077579
 20
30.5481540164
 30
0.0
 10
-787.3589810391
 20
31.8192209692
 30
0.0
 10
-786.7235224893
 20
33.3702994547
 30
0.0
 10
-786.1673640907
 20
35.2372200548
 30
0.0
 10
-785.8478979661
 20
37.4812573317
 30
0.0
 10
-786.0199781761
 20
40.1471264825
 30
0.0
 10
-786.8483043349
 20
43.2082665614
 30
0.0
 10
-788.2590717653
 20
46.6858785022
 30
0.0
 10
-790.0977197295
 20
50.6547188912
 30
0.0
 10
-792.165612754
 20
55.1637295681
 30
0.0
 10
-793.4584983402
 20
58.4229038008
 30
0.0
 10
-794.0289374752
 20
60.1670058328
 30
0.0
  0
SPLINE
  5
59C
100
AcDbEntity
  8
0
100
AcDbSpline
 62
9
  6
CONTINUOUS
 70
0
 71
3
 72
9
 73
5
 74
0
 42
0.0000001
 43
0.0000001
 44
0.0000000001
 40
0.0
 40
0.0
 40
0.0
 40
0.0
 40
0.2599968785
 40
1.0
 40
1.0
 40
1.0
 40
1.0
 10
-797.6561950824
 20
58.8617177396
 30
0.0
 10
-797.9152022933
 20
59.4203772189
 30
0.0
 10
-798.8437398408
 20
61.5934992887
 30
0.0
 10
-799.4260628577
 20
63.9625643635
 30
0.0
 10
-799.4267214482
 20
65.7151976153
 30
0.0
  0
SPLINE
  5
59D
100
AcDbEntity
  8
0
100
AcDbSpline
 62
7
  6
CONTINUOUS
 70
0
 71
3
 72
10
 73
6
 74
0
 42
0.0000001
 43
0.0000001
 44
0.0000000001
 40
0.0
 40
0.0
 40
0.0
 40
0.0
 40
0.4992721231
 40
0.7496636653
 40
1.0
 40
1.0
 40
1.0
 40
1.0
 10
-795.4267214482
 20
324.7402034048
 30
0.0
 10
-795.4267214482
 20
326.9228380624
 30
0.0
 10
-794.8895292545
 20
330.2394143584
 30
0.0
 10
-793.0764721454
 20
334.2362135381
 30
0.0
 10
-791.8018884206
 20
336.0379530671
 30
0.0
 10
-791.0814188312
 20
336.8617177396
 30
0.0
  0
SPLINE
  5
59E
100
AcDbEntity
  8
0
100
AcDbSpline
 62
7
  6
CONTINUOUS
 70
0
 71
3
 72
12
 73
8
 74
0
 42
0.0000001
 43
0.0000001
 44
0.0000000001
 40
0.0
 40
0.0
 40
0.0
 40
0.0
 40
0.1207029412
 40
0.2431658757
 40
0.4922629203
 40
0.7452044289
 40
1.0
 40
1.0
 40
1.0
 40
1.0
 10
-661.9267214482
 20
270.2400550983
 30
0.0
 10
-661.9267214482
 20
268.3941065412
 30
0.0
 10
-662.0966718867
 20
264.6747171749
 30
0.0
 10
-662.9127969506
 20
257.1878806535
 30
0.0
 10
-664.5832396644
 20
247.7755937745
 30
0.0
 10
-667.1284238526
 20
236.4835761621
 30
0.0
 10
-668.9918945298
 20
228.9452183129
 30
0.0
 10
-669.9267214482
 20
225.16234442
 30
0.0
  0
SPLINE
  5
59F
100
AcDbEntity
  8
0
100
AcDbSpline
 62
9
  6
CONTINUOUS
 70
0
 71
3
 72
22
 73
18
 74
0
 42
0.0000001
 43
0.0000001
 44
0.0000000001
 40
0.0
 40
0.0
 40
0.0
 40
0.0
 40
0.0297324971
 40
0.0505128325
 40
0.0760159904
 40
0.1065769687
 40
0.1424051203
 40
0.1836206087
 40
0.2303266412
 40
0.282924878
 40
0.3430291435
 40
0.4144455184
 40
0.5014046869
 40
0.6053877465
 40
0.7252822974
 40
0.8583882234
 40
1.0
 40
1.0
 40
1.0
 40
1.0
 10
-792.857915307
 20
28.862021756
 30
0.0
 10
-792.5147444947
 20
28.870316606
 30
0.0
 10
-791.9566743295
 20
29.1510284744
 30
0.0
 10
-791.2846228318
 20
29.7038772405
 30
0.0
 10
-790.6654092855
 20
30.3453845689
 30
0.0
 10
-789.9995054044
 20
31.1714658202
 30
0.0
 10
-789.2963427714
 20
32.197572845
 30
0.0
 10
-788.5875600964
 20
33.4401692828
 30
0.0
 10
-787.9314680637
 20
34.9281158512
 30
0.0
 10
-787.4389790173
 20
36.7112508967
 30
0.0
 10
-787.3162878512
 20
38.8542528104
 30
0.0
 10
-787.8135019109
 20
41.3518853695
 30
0.0
 10
-788.9932420167
 20
44.1548365328
 30
0.0
 10
-790.7534140368
 20
47.2856479246
 30
0.0
 10
-792.9549144396
 20
50.7707080353
 30
0.0
 10
-795.4042546986
 20
54.6102693922
 30
0.0
 10
-796.9683025402
 20
57.3785205966
 30
0.0
 10
-797.6561950824
 20
58.8617177396
 30
0.0
  0
SPLINE
  5
5A0
100
AcDbEntity
  8
0
100
AcDbSpline
 62
7
  6
CONTINUOUS
 70
0
 71
3
 72
12
 73
8
 74
0
 42
0.0000001
 43
0.0000001
 44
0.0000000001
 40
0.0
 40
0.0
 40
0.0
 40
0.0
 40
0.2547922752
 40
0.5077319199
 40
0.7568282744
 40
0.8792927526
 40
1.0
 40
1.0
 40
1.0
 40
1.0
 10
-708.9267214482
 20
225.16234442
 30
0.0
 10
-709.8615362151
 20
228.945169141
 30
0.0
 10
-711.7249894731
 20
236.4834495319
 30
0.0
 10
-714.2701481719
 20
247.7753804366
 30
0.0
 10
-715.9405892712
 20
257.1876511562
 30
0.0
 10
-716.7567395568
 20
264.6745629277
 30
0.0
 10
-716.9267214482
 20
268.3940408007
 30
0.0
 10
-716.9267214482
 20
270.2400550983
 30
0.0
  0
SPLINE
  5
5A1
100
AcDbEntity
  8
0
100
AcDbSpline
 62
9
  6
CONTINUOUS
 70
0
 71
3
 72
15
 73
11
 74
0
 42
0.0000001
 43
0.0000001
 44
0.0000000001
 40
0.0
 40
0.0
 40
0.0
 40
0.0
 40
0.1212973494
 40
0.2432958587
 40
0.3663664689
 40
0.4907754323
 40
0.6165688478
 40
0.7435884005
 40
0.8715605219
 40
1.0
 40
1.0
 40
1.0
 40
1.0
 10
-638.4267214482
 20
329.8617177464
 30
0.0
 10
-638.4272389263
 20
330.7896296392
 30
0.0
 10
-638.62047059
 20
332.6563815232
 30
0.0
 10
-639.4788672712
 20
335.3440380364
 30
0.0
 10
-640.8731196809
 20
337.8248755585
 30
0.0
 10
-642.7492140051
 20
340.0021628635
 30
0.0
 10
-645.0364697696
 20
341.7912005952
 30
0.0
 10
-647.647554801
 20
343.1225590248
 30
0.0
 10
-650.4812310307
 20
343.9425269477
 30
0.0
 10
-652.4477602985
 20
344.1267656628
 30
0.0
 10
-653.4303088732
 20
344.1267355207
 30
0.0
  0
SPLINE
  5
5A2
100
AcDbEntity
  8
0
100
AcDbSpline
 62
9
  6
CONTINUOUS
 70
0
 71
3
 72
15
 73
11
 74
0
 42
0.0000001
 43
0.0000001
 44
0.0000000001
 40
0.0
 40
0.0
 40
0.0
 40
0.0
 40
0.0375791062
 40
0.0653521542
 40
0.100441175
 40
0.1932456424
 40
0.314636058
 40
0.4612386231
 40
0.6283440414
 40
1.0
 40
1.0
 40
1.0
 40
1.0
 10
1648.1860224501
 20
344.577396927
 30
0.0
 10
1648.1381335151
 20
344.5905159192
 30
0.0
 10
1648.0774502797
 20
344.6692997394
 30
0.0
 10
1648.0369752719
 20
344.7932078168
 30
0.0
 10
1647.9986654917
 20
344.9969579202
 30
0.0
 10
1647.9889770045
 20
345.3268196637
 30
0.0
 10
1648.0169766921
 20
345.8031506637
 30
0.0
 10
1648.0881897667
 20
346.3739245962
 30
0.0
 10
1648.2419157001
 20
347.2665558798
 30
0.0
 10
1648.4038232066
 20
347.9605863581
 30
0.0
 10
1648.5297278121
 20
348.4352418547
 30
0.0
  0
SPLINE
  5
5A3
100
AcDbEntity
  8
0
100
AcDbSpline
 62
9
  6
CONTINUOUS
 70
0
 71
3
 72
16
 73
12
 74
0
 42
0.0000001
 43
0.0000001
 44
0.0000000001
 40
0.0
 40
0.0
 40
0.0
 40
0.0
 40
0.0082309984
 40
0.0240062622
 40
0.0818515858
 40
0.1743687456
 40
0.298099489
 40
0.4486061943
 40
0.6203066813
 40
0.806852629
 40
1.0
 40
1.0
 40
1.0
 40
1.0
 10
1646.0722022866
 20
344.8617177396
 30
0.0
 10
1646.0611398789
 20
344.8617177396
 30
0.0
 10
1646.0353921195
 20
344.8897809158
 30
0.0
 10
1645.9994448151
 20
344.989799182
 30
0.0
 10
1645.9547879996
 20
345.2132160166
 30
0.0
 10
1645.9122667868
 20
345.5769924558
 30
0.0
 10
1645.8722028011
 20
346.0692828833
 30
0.0
 10
1645.839576453
 20
346.6674465874
 30
0.0
 10
1645.814872074
 20
347.3509012475
 30
0.0
 10
1645.7998128952
 20
348.0918096894
 30
0.0
 10
1645.7963407727
 20
348.6021289432
 30
0.0
 10
1645.796340227
 20
348.8617177396
 30
0.0
  0
SPLINE
  5
5A4
100
AcDbEntity
  8
0
100
AcDbSpline
 62
9
  6
CONTINUOUS
 70
0
 71
3
 72
27
 73
23
 74
0
 42
0.0000001
 43
0.0000001
 44
0.0000000001
 40
0.0
 40
0.0
 40
0.0
 40
0.0
 40
0.1942819723
 40
0.3782560053
 40
0.5474479226
 40
0.6250947323
 40
0.6973128802
 40
0.7634684407
 40
0.822892139
 40
0.8748819704
 40
0.9187225096
 40
0.9373678588
 40
0.9537179873
 40
0.9677001953
 40
0.9792430352
 40
0.988278699
 40
0.9918432011
 40
0.9947677257
 40
0.9970489705
 40
0.9986836328
 40
0.9996684093
 40
1.0
 40
1.0
 40
1.0
 40
1.0
 10
1648.52972962
 20
348.4352418546
 30
0.0
 10
1649.9169568276
 20
347.9943634152
 30
0.0
 10
1652.6001463066
 20
347.0792092452
 30
0.0
 10
1656.4262832249
 20
345.5987686124
 30
0.0
 10
1659.3915844077
 20
344.3220018613
 30
0.0
 10
1661.5620413506
 20
343.3201473386
 30
0.0
 10
1663.0208015567
 20
342.6189520685
 30
0.0
 10
1664.3471347177
 20
341.95780305
 30
0.0
 10
1665.5300194657
 20
341.3488733156
 30
0.0
 10
1666.5580720422
 20
340.8046469127
 30
0.0
 10
1667.3121294678
 20
340.3959591595
 30
0.0
 10
1667.8295999734
 20
340.1111777534
 30
0.0
 10
1668.1504537571
 20
339.9331178043
 30
0.0
 10
1668.4243094451
 20
339.780026043
 30
0.0
 10
1668.6499532442
 20
339.6530339076
 30
0.0
 10
1668.8075214917
 20
339.5641476544
 30
0.0
 10
1668.9086377114
 20
339.5067425103
 30
0.0
 10
1668.9660043192
 20
339.4745294615
 30
0.0
 10
1669.0100132083
 20
339.4486758815
 30
0.0
 10
1669.043164823
 20
339.4317133094
 30
0.0
 10
1669.060165315
 20
339.418615113
 30
0.0
 10
1669.0710075711
 20
339.4159240486
 30
0.0
 10
1669.0722022861
 20
339.4137458316
 30
0.0
  0
SPLINE
  5
5A5
100
AcDbEntity
  8
0
100
AcDbSpline
 62
9
  6
CONTINUOUS
 70
0
 71
3
 72
18
 73
14
 74
0
 42
0.0000001
 43
0.0000001
 44
0.0000000001
 40
0.0
 40
0.0
 40
0.0
 40
0.0
 40
0.194877919
 40
0.3823581454
 40
0.5551734106
 40
0.706747042
 40
0.8312059028
 40
0.8817220921
 40
0.923741444
 40
0.9568570276
 40
0.9807445221
 40
0.9951604152
 40
1.0
 40
1.0
 40
1.0
 40
1.0
 10
1645.1166266825
 20
329.8617177396
 30
0.0
 10
1645.1805102179
 20
330.835990534
 30
0.0
 10
1645.302672043
 20
332.7477591949
 30
0.0
 10
1645.4808590058
 20
335.5235399149
 30
0.0
 10
1645.6441117516
 20
338.0828732371
 30
0.0
 10
1645.7863812146
 20
340.3271558624
 30
0.0
 10
1645.8895783692
 20
341.9599541045
 30
0.0
 10
1645.9580921864
 20
343.0449604085
 30
0.0
 10
1645.9973157988
 20
343.6732759363
 30
0.0
 10
1646.0292538617
 20
344.1683389545
 30
0.0
 10
1646.0498116727
 20
344.5256277847
 30
0.0
 10
1646.0666689033
 20
344.7410478348
 30
0.0
 10
1646.0692746078
 20
344.8376502167
 30
0.0
 10
1646.0722248402
 20
344.8617170444
 30
0.0
  0
SPLINE
  5
5A6
100
AcDbEntity
  8
0
100
AcDbSpline
 62
9
  6
CONTINUOUS
 70
0
 71
3
 72
22
 73
18
 74
0
 42
0.0000001
 43
0.0000001
 44
0.0000000001
 40
0.0
 40
0.0
 40
0.0
 40
0.0
 40
0.194525135
 40
0.3817403441
 40
0.5544393633
 40
0.7060643611
 40
0.772093689
 40
0.8307058809
 40
0.8813385981
 40
0.9234759178
 40
0.9566982021
 40
0.9698611497
 40
0.9806706612
 40
0.9891012168
 40
0.9951407185
 40
0.9987775258
 40
1.0
 40
1.0
 40
1.0
 40
1.0
 10
1563.6318255684
 20
329.8617177464
 30
0.0
 10
1563.3070619545
 20
330.7844544173
 30
0.0
 10
1562.6685573131
 20
332.5948395768
 30
0.0
 10
1561.7525506127
 20
335.2282234304
 30
0.0
 10
1560.914563875
 20
337.6603150478
 30
0.0
 10
1560.2796361419
 20
339.5177908233
 30
0.0
 10
1559.8328844822
 20
340.8332782746
 30
0.0
 10
1559.5502193521
 20
341.668135071
 30
0.0
 10
1559.3067052691
 20
342.3894042971
 30
0.0
 10
1559.1043707459
 20
342.9898046144
 30
0.0
 10
1558.9625882322
 20
343.4118006615
 30
0.0
 10
1558.8708613213
 20
343.6843697497
 30
0.0
 10
1558.8193961423
 20
343.8390413361
 30
0.0
 10
1558.778055934
 20
343.959091909
 30
0.0
 10
1558.7512635018
 20
344.0465287419
 30
0.0
 10
1558.7301046639
 20
344.0965654506
 30
0.0
 10
1558.7262395613
 20
344.1217452369
 30
0.0
 10
1558.7226489935
 20
344.1267352191
 30
0.0
  0
SPLINE
  5
5A7
100
AcDbEntity
  8
0
100
AcDbSpline
 62
9
  6
CONTINUOUS
 70
0
 71
3
 72
21
 73
17
 74
0
 42
0.0000001
 43
0.0000001
 44
0.0000000001
 40
0.0
 40
0.0
 40
0.0
 40
0.0
 40
0.0012175237
 40
0.0048409263
 40
0.0108588906
 40
0.019260099
 40
0.0431526788
 40
0.076274553
 40
0.1183005633
 40
0.1688229627
 40
0.2273364982
 40
0.2932900732
 40
0.4448635898
 40
0.6176705604
 40
0.8051372088
 40
1.0
 40
1.0
 40
1.0
 40
1.0
 10
1648.1859991248
 20
344.5774063722
 30
0.0
 10
1648.1837432826
 20
344.5717379712
 30
0.0
 10
1648.1813922347
 20
344.5472239035
 30
0.0
 10
1648.1681660228
 20
344.4946172244
 30
0.0
 10
1648.1515005665
 20
344.4056185654
 30
0.0
 10
1648.1124175089
 20
344.2177422476
 30
0.0
 10
1648.0475945971
 20
343.896371862
 30
0.0
 10
1647.9480890391
 20
343.4102036783
 30
0.0
 10
1647.822090928
 20
342.7932168051
 30
0.0
 10
1647.6701606228
 20
342.0516810615
 30
0.0
 10
1647.4937835341
 20
341.1927620491
 30
0.0
 10
1647.2147516432
 20
339.838010841
 30
0.0
 10
1646.8178606095
 20
337.9228097345
 30
0.0
 10
1646.2936074597
 20
335.412189306
 30
0.0
 10
1645.720103067
 20
332.6902622812
 30
0.0
 10
1645.3201020591
 20
330.8167028928
 30
0.0
 10
1645.1166266831
 20
329.8617177423
 30
0.0
  0
SPLINE
  5
5A8
100
AcDbEntity
  8
0
100
AcDbSpline
 62
9
  6
CONTINUOUS
 70
0
 71
3
 72
18
 73
14
 74
0
 42
0.0000001
 43
0.0000001
 44
0.0000000001
 40
0.0
 40
0.0
 40
0.0
 40
0.0
 40
0.0048556645
 40
0.0193170681
 40
0.0432760606
 40
0.0764816578
 40
0.1186013444
 40
0.1692176651
 40
0.2938375237
 40
0.4454629917
 40
0.6181839925
 40
0.8054350155
 40
1.0
 40
1.0
 40
1.0
 40
1.0
 10
1562.0721649903
 20
344.8617170224
 30
0.0
 10
1562.0769512475
 20
344.8377816574
 30
0.0
 10
1562.0813209689
 20
344.7403452175
 30
0.0
 10
1562.1088086551
 20
344.5247347758
 30
0.0
 10
1562.142505053
 20
344.1660950053
 30
0.0
 10
1562.1947292532
 20
343.6697990032
 30
0.0
 10
1562.2588879486
 20
343.0399308458
 30
0.0
 10
1562.3708684105
 20
341.9530566116
 30
0.0
 10
1562.5394341459
 20
340.3185994121
 30
0.0
 10
1562.7716745829
 20
338.0736482702
 30
0.0
 10
1563.0380086361
 20
335.5156959867
 30
0.0
 10
1563.3285143346
 20
332.743241935
 30
0.0
 10
1563.527708173
 20
330.8342300962
 30
0.0
 10
1563.6318255707
 20
329.8617177396
 30
0.0
  0
SPLINE
  5
5A9
100
AcDbEntity
  8
0
100
AcDbSpline
 62
9
  6
CONTINUOUS
 70
0
 71
3
 72
11
 73
7
 74
0
 42
0.0000001
 43
0.0000001
 44
0.0000000001
 40
0.0
 40
0.0
 40
0.0
 40
0.0
 40
0.2499189279
 40
0.4998912222
 40
0.7499274344
 40
1.0
 40
1.0
 40
1.0
 40
1.0
 10
960.5699262733
 20
-341.4387638906
 30
0.0
 10
960.4386092084
 20
-341.4387774037
 30
0.0
 10
960.1729397872
 20
-341.4931040099
 30
0.0
 10
959.8405539593
 20
-341.7230817288
 30
0.0
 10
959.6208695993
 20
-342.0618822387
 30
0.0
 10
959.5699389779
 20
-342.3273968655
 30
0.0
 10
959.5699262733
 20
-342.4587946577
 30
0.0
  0
SPLINE
  5
5AA
100
AcDbEntity
  8
0
100
AcDbSpline
 62
9
  6
CONTINUOUS
 70
0
 71
3
 72
11
 73
7
 74
0
 42
0.0000001
 43
0.0000001
 44
0.0000000001
 40
0.0
 40
0.0
 40
0.0
 40
0.0
 40
0.2500076391
 40
0.5000132834
 40
0.7500120516
 40
1.0
 40
1.0
 40
1.0
 40
1.0
 10
1006.5699262733
 20
-360.0773557687
 30
0.0
 10
1006.5699002778
 20
-359.3763007893
 30
0.0
 10
1006.3868849612
 20
-357.9675088522
 30
0.0
 10
1005.581048207
 20
-356.0001278568
 30
0.0
 10
1004.2976665271
 20
-354.3049495213
 30
0.0
 10
1003.1752416285
 20
-353.4332388475
 30
0.0
 10
1002.5699262733
 20
-353.0796939554
 30
0.0
  0
SPLINE
  5
5AB
100
AcDbEntity
  8
0
100
AcDbSpline
 62
9
  6
CONTINUOUS
 70
0
 71
3
 72
11
 73
7
 74
0
 42
0.0000001
 43
0.0000001
 44
0.0000000001
 40
0.0
 40
0.0
 40
0.0
 40
0.0
 40
0.2499933243
 40
0.499983367
 40
0.7499820412
 40
1.0
 40
1.0
 40
1.0
 40
1.0
 10
1008.5699262733
 20
-360.0773557687
 30
0.0
 10
1008.569911422
 20
-359.2036892189
 30
0.0
 10
1008.3408809095
 20
-357.4479483499
 30
0.0
 10
1007.3323558554
 20
-354.9976080432
 30
0.0
 10
1005.727267646
 20
-352.888953349
 30
0.0
 10
1004.3254236587
 20
-351.8063507266
 30
0.0
 10
1003.5699262733
 20
-351.3674118027
 30
0.0
  0
SPLINE
  5
5AC
100
AcDbEntity
  8
0
100
AcDbSpline
 62
9
  6
CONTINUOUS
 70
0
 71
3
 72
11
 73
7
 74
0
 42
0.0000001
 43
0.0000001
 44
0.0000000001
 40
0.0
 40
0.0
 40
0.0
 40
0.0
 40
0.2499879484
 40
0.4999867165
 40
0.7499923609
 40
1.0
 40
1.0
 40
1.0
 40
1.0
 10
1002.5699262733
 20
-261.2121210279
 30
0.0
 10
1003.1752416326
 20
-260.8585761429
 30
0.0
 10
1004.2976665248
 20
-259.9868654583
 30
0.0
 10
1005.5810482075
 20
-258.2916871275
 30
0.0
 10
1006.3868849615
 20
-256.3243061308
 30
0.0
 10
1006.5699002766
 20
-254.915514194
 30
0.0
 10
1006.5699262733
 20
-254.2144592146
 30
0.0
  0
SPLINE
  5
5AD
100
AcDbEntity
  8
0
100
AcDbSpline
 62
9
  6
CONTINUOUS
 70
0
 71
3
 72
11
 73
7
 74
0
 42
0.0000001
 43
0.0000001
 44
0.0000000001
 40
0.0
 40
0.0
 40
0.0
 40
0.0
 40
0.2500725656
 40
0.5001087778
 40
0.7500810721
 40
1.0
 40
1.0
 40
1.0
 40
1.0
 10
959.5699262733
 20
-271.8330203256
 30
0.0
 10
959.5699389775
 20
-271.9644181178
 30
0.0
 10
959.6208695993
 20
-272.2299327446
 30
0.0
 10
959.8405539593
 20
-272.5687332546
 30
0.0
 10
960.1729397872
 20
-272.7987109732
 30
0.0
 10
960.4386092084
 20
-272.8530375802
 30
0.0
 10
960.5699262733
 20
-272.8530510927
 30
0.0
  0
SPLINE
  5
5AE
100
AcDbEntity
  8
0
100
AcDbSpline
 62
9
  6
CONTINUOUS
 70
0
 71
3
 72
13
 73
9
 74
0
 42
0.0000001
 43
0.0000001
 44
0.0000000001
 40
0.0
 40
0.0
 40
0.0
 40
0.0
 40
0.3169932927
 40
0.5916847026
 40
0.7098922341
 40
0.8154290943
 40
0.9106952854
 40
1.0
 40
1.0
 40
1.0
 40
1.0
 10
1003.5699244344
 20
-321.1053893356
 30
0.0
 10
1003.5409645098
 20
-320.9067305008
 30
0.0
 10
1003.4559948978
 20
-320.5395953322
 30
0.0
 10
1003.2638971793
 20
-320.1268758042
 30
0.0
 10
1003.0661196661
 20
-319.8789039847
 30
0.0
 10
1002.910744394
 20
-319.7472347181
 30
0.0
 10
1002.7440553211
 20
-319.6649738278
 30
0.0
 10
1002.6264848461
 20
-319.6459076833
 30
0.0
 10
1002.5699262733
 20
-319.6459074917
 30
0.0
  0
SPLINE
  5
5AF
100
AcDbEntity
  8
0
100
AcDbSpline
 62
9
  6
CONTINUOUS
 70
0
 71
3
 72
13
 73
9
 74
0
 42
0.0000001
 43
0.0000001
 44
0.0000000001
 40
0.0
 40
0.0
 40
0.0
 40
0.0
 40
0.3134656258
 40
0.5850108021
 40
0.7030130921
 40
0.8096802506
 40
0.9073908826
 40
1.0
 40
1.0
 40
1.0
 40
1.0
 10
985.5699262461
 20
-320.9496644909
 30
0.0
 10
985.5341899847
 20
-320.7692364832
 30
0.0
 10
985.4395813021
 20
-320.4371869753
 30
0.0
 10
985.2431335882
 20
-320.0684966948
 30
0.0
 10
985.0486425607
 20
-319.8499713486
 30
0.0
 10
984.8972521617
 20
-319.7341878313
 30
0.0
 10
984.7365050448
 20
-319.6623951719
 30
0.0
 10
984.6242667523
 20
-319.6459074879
 30
0.0
 10
984.5699262733
 20
-319.6459074846
 30
0.0
  0
SPLINE
  5
5B0
100
AcDbEntity
  8
0
100
AcDbSpline
 62
9
  6
CONTINUOUS
 70
0
 71
3
 72
19
 73
15
 74
0
 42
0.0000001
 43
0.0000001
 44
0.0000000001
 40
0.0
 40
0.0
 40
0.0
 40
0.0
 40
0.2171785819
 40
0.4127758934
 40
0.5837054793
 40
0.7273893233
 40
0.8417684511
 40
0.8874742901
 40
0.9253383606
 40
0.9552821768
 40
0.9773341752
 40
0.9854754907
 40
0.9918020772
 40
1.0
 40
1.0
 40
1.0
 40
1.0
 10
1003.5699262733
 20
-321.1053883417
 30
0.0
 10
1003.9359929409
 20
-321.120547172
 30
0.0
 10
1004.631600712
 20
-321.1532095209
 30
0.0
 10
1005.6145734812
 20
-321.2121708121
 30
0.0
 10
1006.4729164323
 20
-321.2768348884
 30
0.0
 10
1007.1934110989
 20
-321.3454115268
 30
0.0
 10
1007.7022217445
 20
-321.4075467627
 30
0.0
 10
1008.0320498424
 20
-321.4600798202
 30
0.0
 10
1008.2201391418
 20
-321.4962186825
 30
0.0
 10
1008.367537946
 20
-321.5322063524
 30
0.0
 10
1008.4641395926
 20
-321.5632697334
 30
0.0
 10
1008.5201565565
 20
-321.5901835397
 30
0.0
 10
1008.5517335438
 20
-321.6101525383
 30
0.0
 10
1008.5699225904
 20
-321.6320775915
 30
0.0
 10
1008.5699262733
 20
-321.6459074917
 30
0.0
  0
SPLINE
  5
5B1
100
AcDbEntity
  8
0
100
AcDbSpline
 62
9
  6
CONTINUOUS
 70
0
 71
3
 72
11
 73
7
 74
0
 42
0.0000001
 43
0.0000001
 44
0.0000000001
 40
0.0
 40
0.0
 40
0.0
 40
0.0
 40
0.2500179588
 40
0.500016633
 40
0.7500066757
 40
1.0
 40
1.0
 40
1.0
 40
1.0
 10
1003.5699262733
 20
-262.9244031806
 30
0.0
 10
1004.3254236603
 20
-262.4854642594
 30
0.0
 10
1005.7272676453
 20
-261.4028616331
 30
0.0
 10
1007.3323558555
 20
-259.2942069404
 30
0.0
 10
1008.3408809097
 20
-256.8438666333
 30
0.0
 10
1008.5699114214
 20
-255.0881257644
 30
0.0
 10
1008.5699262733
 20
-254.2144592146
 30
0.0
  0
SPLINE
  5
5B2
100
AcDbEntity
  8
0
100
AcDbSpline
 62
9
  6
CONTINUOUS
 70
0
 71
3
 72
19
 73
15
 74
0
 42
0.0000001
 43
0.0000001
 44
0.0000000001
 40
0.0
 40
0.0
 40
0.0
 40
0.0
 40
0.0081979229
 40
0.0145245094
 40
0.0226658249
 40
0.0447178234
 40
0.0746616395
 40
0.11252571
 40
0.158231549
 40
0.2726106768
 40
0.4162945207
 40
0.5872241067
 40
0.782821418
 40
1.0
 40
1.0
 40
1.0
 40
1.0
 10
1008.5699262733
 20
-292.6459074917
 30
0.0
 10
1008.5699225914
 20
-292.6597373919
 30
0.0
 10
1008.5517335449
 20
-292.6816624462
 30
0.0
 10
1008.5201565568
 20
-292.701631444
 30
0.0
 10
1008.4641395924
 20
-292.7285452495
 30
0.0
 10
1008.3675379459
 20
-292.7596086307
 30
0.0
 10
1008.2201391418
 20
-292.7955963012
 30
0.0
 10
1008.0320498424
 20
-292.8317351629
 30
0.0
 10
1007.7022217445
 20
-292.8842682201
 30
0.0
 10
1007.1934110992
 20
-292.9464034584
 30
0.0
 10
1006.4729164319
 20
-293.0149800913
 30
0.0
 10
1005.6145734816
 20
-293.0796441772
 30
0.0
 10
1004.6316007115
 20
-293.1386054529
 30
0.0
 10
1003.9359929414
 20
-293.1712678224
 30
0.0
 10
1003.5699262733
 20
-293.1864266416
 30
0.0
  0
SPLINE
  5
5B3
100
AcDbEntity
  8
0
100
AcDbSpline
 62
9
  6
CONTINUOUS
 70
0
 71
3
 72
9
 73
5
 74
0
 42
0.0000001
 43
0.0000001
 44
0.0000000001
 40
0.0
 40
0.0
 40
0.0
 40
0.0
 40
0.4807303897
 40
1.0
 40
1.0
 40
1.0
 40
1.0
 10
985.5699262733
 20
-293.3421505114
 30
0.0
 10
984.7695785309
 20
-293.3864413746
 30
0.0
 10
983.1032361043
 20
-293.4525950295
 30
0.0
 10
981.435759091
 20
-293.4744862432
 30
0.0
 10
980.5699262733
 20
-293.4744789202
 30
0.0
  0
SPLINE
  5
5B4
100
AcDbEntity
  8
0
100
AcDbSpline
 62
9
  6
CONTINUOUS
 70
0
 71
3
 72
9
 73
5
 74
0
 42
0.0000001
 43
0.0000001
 44
0.0000000001
 40
0.0
 40
0.0
 40
0.0
 40
0.0
 40
0.5192696103
 40
1.0
 40
1.0
 40
1.0
 40
1.0
 10
980.5699262733
 20
-320.8173360631
 30
0.0
 10
981.435759091
 20
-320.8173287377
 30
0.0
 10
983.1032361036
 20
-320.8392199654
 30
0.0
 10
984.7695785323
 20
-320.9053735836
 30
0.0
 10
985.5699262733
 20
-320.9496644719
 30
0.0
  0
SPLINE
  5
5B5
100
AcDbEntity
  8
0
100
AcDbSpline
 62
9
  6
CONTINUOUS
 70
0
 71
3
 72
13
 73
9
 74
0
 42
0.0000001
 43
0.0000001
 44
0.0000000001
 40
0.0
 40
0.0
 40
0.0
 40
0.0
 40
0.3134655815
 40
0.5850107845
 40
0.703013101
 40
0.8096802814
 40
0.9073909155
 40
1.0
 40
1.0
 40
1.0
 40
1.0
 10
985.5699249616
 20
-293.3421495981
 30
0.0
 10
985.5341887489
 20
-293.5225775326
 30
0.0
 10
985.4395801938
 20
-293.8546269525
 30
0.0
 10
985.2431327839
 20
-294.2233172364
 30
0.0
 10
985.0486420352
 20
-294.4418427649
 30
0.0
 10
984.8972518372
 20
-294.5576264909
 30
0.0
 10
984.7365049177
 20
-294.6294194354
 30
0.0
 10
984.6242667167
 20
-294.6459073654
 30
0.0
 10
984.5699262733
 20
-294.6459074916
 30
0.0
  0
SPLINE
  5
5B6
100
AcDbEntity
  8
0
100
AcDbSpline
 62
9
  6
CONTINUOUS
 70
0
 71
3
 72
13
 73
9
 74
0
 42
0.0000001
 43
0.0000001
 44
0.0000000001
 40
0.0
 40
0.0
 40
0.0
 40
0.0
 40
0.3169933856
 40
0.591684778
 40
0.7098922706
 40
0.8154290887
 40
0.9106952584
 40
1.0
 40
1.0
 40
1.0
 40
1.0
 10
1003.5699262576
 20
-293.1864266331
 30
0.0
 10
1003.5409662671
 20
-293.3850856172
 30
0.0
 10
1003.4559964791
 20
-293.7522209902
 30
0.0
 10
1003.263898339
 20
-294.1649406241
 30
0.0
 10
1003.0661204203
 20
-294.4129122499
 30
0.0
 10
1002.9107448587
 20
-294.544581243
 30
0.0
 10
1002.7440554961
 20
-294.6268417263
 30
0.0
 10
1002.6264848909
 20
-294.6459074939
 30
0.0
 10
1002.5699262733
 20
-294.6459074959
 30
0.0
  0
SPLINE
  5
5B7
100
AcDbEntity
  8
0
100
AcDbSpline
 62
9
  6
CONTINUOUS
 70
0
 71
3
 72
15
 73
11
 74
0
 42
0.0000001
 43
0.0000001
 44
0.0000000001
 40
0.0
 40
0.0
 40
0.0
 40
0.0
 40
0.124502162
 40
0.2490536402
 40
0.3737445436
 40
0.4986208128
 40
0.6237104556
 40
0.7490061563
 40
0.8744547952
 40
1.0
 40
1.0
 40
1.0
 40
1.0
 10
957.5699262733
 20
-271.8330203256
 30
0.0
 10
957.5699338321
 20
-272.027619548
 30
0.0
 10
957.6085232289
 20
-272.4179873649
 30
0.0
 10
957.7801192617
 20
-272.9801800475
 30
0.0
 10
958.05883166
 20
-273.4986036463
 30
0.0
 10
958.4341195436
 20
-273.9530508656
 30
0.0
 10
958.8915832913
 20
-274.3261334438
 30
0.0
 10
959.4137760466
 20
-274.6034022791
 30
0.0
 10
959.9803122077
 20
-274.7742121505
 30
0.0
 10
960.3736967555
 20
-274.8126316143
 30
0.0
 10
960.5699262733
 20
-274.8126428869
 30
0.0
  0
SPLINE
  5
5B8
100
AcDbEntity
  8
0
100
AcDbSpline
 62
9
  6
CONTINUOUS
 70
0
 71
3
 72
17
 73
13
 74
0
 42
0.0000001
 43
0.0000001
 44
0.0000000001
 40
0.0
 40
0.0
 40
0.0
 40
0.0
 40
0.1811776806
 40
0.3557574582
 40
0.5175482759
 40
0.6610540054
 40
0.7819050001
 40
0.8773765525
 40
0.9155544223
 40
0.9478569101
 40
0.9753669476
 40
1.0
 40
1.0
 40
1.0
 40
1.0
 10
960.5699262733
 20
-293.4744789202
 30
0.0
 10
960.3737648511
 20
-293.4744866947
 30
0.0
 10
959.9884966237
 20
-293.4638212717
 30
0.0
 10
959.4298289989
 20
-293.4164165864
 30
0.0
 10
958.9155412186
 20
-293.3400758407
 30
0.0
 10
958.4647954394
 20
-293.2386000731
 30
0.0
 10
958.0942385286
 20
-293.1167305524
 30
0.0
 10
957.8447476431
 20
-292.9952558831
 30
0.0
 10
957.7004399611
 20
-292.8872169965
 30
0.0
 10
957.6270093729
 20
-292.80967074
 30
0.0
 10
957.5809390122
 20
-292.7293749626
 30
0.0
 10
957.569927421
 20
-292.6725777447
 30
0.0
 10
957.5699262733
 20
-292.6459074917
 30
0.0
  0
SPLINE
  5
5B9
100
AcDbEntity
  8
0
100
AcDbSpline
 62
9
  6
CONTINUOUS
 70
0
 71
3
 72
17
 73
13
 74
0
 42
0.0000001
 43
0.0000001
 44
0.0000000001
 40
0.0
 40
0.0
 40
0.0
 40
0.0
 40
0.0246330537
 40
0.052143091
 40
0.0844455775
 40
0.1226234474
 40
0.2180950001
 40
0.3389459947
 40
0.4824517242
 40
0.6442425419
 40
0.8188223195
 40
1.0
 40
1.0
 40
1.0
 40
1.0
 10
957.5699262733
 20
-321.6459074917
 30
0.0
 10
957.5699274203
 20
-321.6192372371
 30
0.0
 10
957.5809390109
 20
-321.5624400177
 30
0.0
 10
957.6270093722
 20
-321.4821442404
 30
0.0
 10
957.7004399631
 20
-321.4045979888
 30
0.0
 10
957.8447476424
 20
-321.2965591009
 30
0.0
 10
958.0942385282
 20
-321.1750844302
 30
0.0
 10
958.4647954396
 20
-321.0532149107
 30
0.0
 10
958.9155412184
 20
-320.951739142
 30
0.0
 10
959.429828999
 20
-320.875398398
 30
0.0
 10
959.9884966236
 20
-320.8279937093
 30
0.0
 10
960.3737648511
 20
-320.8173282898
 30
0.0
 10
960.5699262733
 20
-320.8173360631
 30
0.0
  0
SPLINE
  5
5BA
100
AcDbEntity
  8
0
100
AcDbSpline
 62
9
  6
CONTINUOUS
 70
0
 71
3
 72
15
 73
11
 74
0
 42
0.0000001
 43
0.0000001
 44
0.0000000001
 40
0.0
 40
0.0
 40
0.0
 40
0.0
 40
0.1255452048
 40
0.2509938437
 40
0.3762895444
 40
0.5013791872
 40
0.6262554564
 40
0.7509463598
 40
0.875497838
 40
1.0
 40
1.0
 40
1.0
 40
1.0
 10
960.5699262733
 20
-339.4791720964
 30
0.0
 10
960.3736967555
 20
-339.4791833696
 30
0.0
 10
959.9803122077
 20
-339.5176028324
 30
0.0
 10
959.4137760467
 20
-339.6884127043
 30
0.0
 10
958.8915832913
 20
-339.9656815395
 30
0.0
 10
958.4341195437
 20
-340.3387641178
 30
0.0
 10
958.0588316599
 20
-340.7932113369
 30
0.0
 10
957.780119262
 20
-341.3116349358
 30
0.0
 10
957.6085232284
 20
-341.8738276184
 30
0.0
 10
957.5699338328
 20
-342.2641954352
 30
0.0
 10
957.5699262733
 20
-342.4587946577
 30
0.0
  0
SPLINE
  5
5BB
100
AcDbEntity
  8
0
100
AcDbSpline
 62
9
  6
CONTINUOUS
 70
0
 71
3
 72
15
 73
11
 74
0
 42
0.0000001
 43
0.0000001
 44
0.0000000001
 40
0.0
 40
0.0
 40
0.0
 40
0.0
 40
0.1284268863
 40
0.2559828329
 40
0.38215721
 40
0.5068691451
 40
0.630440465
 40
0.7534193408
 40
0.8764193209
 40
1.0
 40
1.0
 40
1.0
 40
1.0
 10
1070.0699262733
 20
-364.8829445287
 30
0.0
 10
1071.7730723908
 20
-364.8826341614
 30
0.0
 10
1075.1750312105
 20
-364.5917263581
 30
0.0
 10
1080.0998726776
 20
-363.2991561087
 30
0.0
 10
1084.6899128356
 20
-361.2091508705
 30
0.0
 10
1088.8133093334
 20
-358.3985850328
 30
0.0
 10
1092.3658481685
 20
-354.9546585419
 30
0.0
 10
1095.2589697918
 20
-350.9678531372
 30
0.0
 10
1097.4125557962
 20
-346.5384261405
 30
0.0
 10
1098.3043571906
 20
-343.370751865
 30
0.0
 10
1098.6052295591
 20
-341.7597286299
 30
0.0
  0
SPLINE
  5
5BC
100
AcDbEntity
  8
0
100
AcDbSpline
 62
9
  6
CONTINUOUS
 70
0
 71
3
 72
15
 73
11
 74
0
 42
0.0000001
 43
0.0000001
 44
0.0000000001
 40
0.0
 40
0.0
 40
0.0
 40
0.0
 40
0.1235822074
 40
0.2465829572
 40
0.3695625242
 40
0.4931347969
 40
0.6178462807
 40
0.7440196761
 40
0.8715742126
 40
1.0
 40
1.0
 40
1.0
 40
1.0
 10
1041.5346229875
 20
-341.7597286297
 30
0.0
 10
1041.8355008426
 20
-343.370771436
 30
0.0
 10
1042.7273101751
 20
-346.5384756846
 30
0.0
 10
1044.8809284955
 20
-350.9679317613
 30
0.0
 10
1047.7740831647
 20
-354.954753334
 30
0.0
 10
1051.3266515876
 20
-358.3986714573
 30
0.0
 10
1055.4500529818
 20
-361.2092213771
 30
0.0
 10
1060.040075806
 20
-363.2991665296
 30
0.0
 10
1064.9648674634
 20
-364.591751594
 30
0.0
 10
1068.3667947558
 20
-364.8826115659
 30
0.0
 10
1070.0699262733
 20
-364.8829445287
 30
0.0
  0
SPLINE
  5
5BD
100
AcDbEntity
  8
0
100
AcDbSpline
 62
7
  6
CONTINUOUS
 70
0
 71
3
 72
11
 73
7
 74
0
 42
0.0000001
 43
0.0000001
 44
0.0000000001
 40
0.0
 40
0.0
 40
0.0
 40
0.0
 40
0.2114312651
 40
0.4527061915
 40
0.7176908604
 40
1.0
 40
1.0
 40
1.0
 40
1.0
 10
1171.7246236564
 20
-247.6459074917
 30
0.0
 10
1170.8959346774
 20
-247.6459074917
 30
0.0
 10
1169.1265900384
 20
-247.9889831893
 30
0.0
 10
1166.5109579345
 20
-249.0359119033
 30
0.0
 10
1163.786551211
 20
-250.5075100377
 30
0.0
 10
1161.9830273199
 20
-251.6713616223
 30
0.0
 10
1161.0699262733
 20
-252.2963139957
 30
0.0
  0
SPLINE
  5
5BE
100
AcDbEntity
  8
0
100
AcDbSpline
 62
7
  6
CONTINUOUS
 70
0
 71
3
 72
13
 73
9
 74
0
 42
0.0000001
 43
0.0000001
 44
0.0000000001
 40
0.0
 40
0.0
 40
0.0
 40
0.0
 40
0.2869706632
 40
0.5567193174
 40
0.6819216384
 40
0.7986018994
 40
0.9050899724
 40
1.0
 40
1.0
 40
1.0
 40
1.0
 10
1161.0699262733
 20
-341.7597286299
 30
0.0
 10
1162.0971177529
 20
-342.506380641
 30
0.0
 10
1164.1169789927
 20
-343.9179223185
 30
0.0
 10
1166.6929832298
 20
-345.4973211924
 30
0.0
 10
1168.7129149219
 20
-346.5227470394
 30
0.0
 10
1170.1366829999
 20
-347.1195262924
 30
0.0
 10
1171.4871452088
 20
-347.5256039373
 30
0.0
 10
1172.3780788224
 20
-347.6459074917
 30
0.0
 10
1172.798069338
 20
-347.6459074917
 30
0.0
  0
SPLINE
  5
5BF
100
AcDbEntity
  8
0
100
AcDbSpline
 62
9
  6
CONTINUOUS
 70
0
 71
3
 72
13
 73
9
 74
0
 42
0.0000001
 43
0.0000001
 44
0.0000000001
 40
0.0
 40
0.0
 40
0.0
 40
0.0
 40
0.359875821
 40
0.5225172282
 40
0.666283201
 40
0.7870965556
 40
0.8824660106
 40
1.0
 40
1.0
 40
1.0
 40
1.0
 10
1041.5346229875
 20
-341.7597276556
 30
0.0
 10
1042.0194025042
 20
-341.6780159649
 30
0.0
 10
1042.7294371392
 20
-341.5912892216
 30
0.0
 10
1043.6403617388
 20
-341.56139106
 30
0.0
 10
1044.2223772747
 20
-341.5814750695
 30
0.0
 10
1044.7162442619
 20
-341.6486370123
 30
0.0
 10
1045.142026343
 20
-341.7569131374
 30
0.0
 10
1045.4419095774
 20
-341.9454453352
 30
0.0
 10
1045.4705368652
 20
-342.1034330176
 30
0.0
  0
SPLINE
  5
5C0
100
AcDbEntity
  8
0
100
AcDbSpline
 62
9
  6
CONTINUOUS
 70
0
 71
3
 72
18
 73
14
 74
0
 42
0.0000001
 43
0.0000001
 44
0.0000000001
 40
0.0
 40
0.0
 40
0.0
 40
0.0
 40
0.1855310214
 40
0.3642316084
 40
0.5294560574
 40
0.675350612
 40
0.7969671397
 40
0.8475516064
 40
0.8909437782
 40
0.9271362394
 40
0.9564962946
 40
0.9800542945
 40
1.0
 40
1.0
 40
1.0
 40
1.0
 10
1034.0732546778
 20
-341.7597045328
 30
0.0
 10
1033.0965275003
 20
-341.759666794
 30
0.0
 10
1031.1787967439
 20
-341.7227920407
 30
0.0
 10
1028.395650438
 20
-341.5571589173
 30
0.0
 10
1025.8299115632
 20
-341.287972411
 30
0.0
 10
1023.5796763337
 20
-340.9255599478
 30
0.0
 10
1021.9472932876
 20
-340.538811085
 30
0.0
 10
1020.8705437802
 20
-340.1772703159
 30
0.0
 10
1020.2390846846
 20
-339.9087432287
 30
0.0
 10
1019.7370788993
 20
-339.6281043178
 30
0.0
 10
1019.3671155407
 20
-339.3350130161
 30
0.0
 10
1019.1303296928
 20
-339.025567034
 30
0.0
 10
1019.0701930052
 20
-338.7953356212
 30
0.0
 10
1019.0699262733
 20
-338.6903318886
 30
0.0
  0
SPLINE
  5
5C1
100
AcDbEntity
  8
0
100
AcDbSpline
 62
9
  6
CONTINUOUS
 70
0
 71
3
 72
19
 73
15
 74
0
 42
0.0000001
 43
0.0000001
 44
0.0000000001
 40
0.0
 40
0.0
 40
0.0
 40
0.0
 40
0.0079215014
 40
0.0146289995
 40
0.0234811924
 40
0.0478686273
 40
0.0811637522
 40
0.1231451918
 40
0.1734644117
 40
0.2972173604
 40
0.4478609218
 40
0.6196633292
 40
0.806126245
 40
1.0
 40
1.0
 40
1.0
 40
1.0
 10
1019.0699262733
 20
-338.6903318881
 30
0.0
 10
1019.0702490588
 20
-338.7302294017
 30
0.0
 10
1019.1379209045
 20
-338.7889955656
 30
0.0
 10
1019.2403522204
 20
-338.8379775772
 30
0.0
 10
1019.4320198052
 20
-338.9072323494
 30
0.0
 10
1019.7574440728
 20
-338.9834007199
 30
0.0
 10
1020.252696987
 20
-339.0697405832
 30
0.0
 10
1020.8798193163
 20
-339.152157301
 30
0.0
 10
1021.9623340698
 20
-339.2650848755
 30
0.0
 10
1023.593705744
 20
-339.3850728065
 30
0.0
 10
1025.838377015
 20
-339.4982940771
 30
0.0
 10
1028.4003696498
 20
-339.5823918608
 30
0.0
 10
1031.1809592227
 20
-339.6343157438
 30
0.0
 10
1033.0966524071
 20
-339.645917465
 30
0.0
 10
1034.0731508665
 20
-339.6459301093
 30
0.0
  0
SPLINE
  5
5C2
100
AcDbEntity
  8
0
100
AcDbSpline
 62
9
  6
CONTINUOUS
 70
0
 71
3
 72
14
 73
10
 74
0
 42
0.0000001
 43
0.0000001
 44
0.0000000001
 40
0.0
 40
0.0
 40
0.0
 40
0.0
 40
0.0761869155
 40
0.1601079764
 40
0.2572433499
 40
0.3708844317
 40
0.5023967004
 40
0.6517599307
 40
1.0
 40
1.0
 40
1.0
 40
1.0
 10
1019.0699262733
 20
-257.2055307739
 30
0.0
 10
1019.07024552
 20
-257.0040513706
 30
0.0
 10
1019.1508810193
 20
-256.5780582201
 30
0.0
 10
1019.4908828526
 20
-255.9784222652
 30
0.0
 10
1020.0353548286
 20
-255.4126630813
 30
0.0
 10
1020.7716715924
 20
-254.8804489786
 30
0.0
 10
1021.6916918081
 20
-254.383637744
 30
0.0
 10
1023.2291276953
 20
-253.7428328911
 30
0.0
 10
1024.5017530985
 20
-253.3872857946
 30
0.0
 10
1025.3995921723
 20
-253.1823260285
 30
0.0
  0
SPLINE
  5
5C3
100
AcDbEntity
  8
0
100
AcDbSpline
 62
9
  6
CONTINUOUS
 70
0
 71
3
 72
20
 73
16
 74
0
 42
0.0000001
 43
0.0000001
 44
0.0000000001
 40
0.0
 40
0.0
 40
0.0
 40
0.0
 40
0.1923255322
 40
0.377280053
 40
0.5476865795
 40
0.6971645215
 40
0.7622856584
 40
0.8201810441
 40
0.8703761104
 40
0.9124686147
 40
0.9461950219
 40
0.9714811939
 40
0.9810601045
 40
0.9887768285
 40
1.0
 40
1.0
 40
1.0
 40
1.0
 10
1034.0732017737
 20
-255.6458700888
 30
0.0
 10
1033.0950743879
 20
-255.6458910706
 30
0.0
 10
1031.1762514152
 20
-255.6648988728
 30
0.0
 10
1028.3919054194
 20
-255.7497899459
 30
0.0
 10
1025.8278667326
 20
-255.8876224735
 30
0.0
 10
1023.8759399815
 20
-256.047878243
 30
0.0
 10
1022.4987718942
 20
-256.2036727506
 30
0.0
 10
1021.6260243901
 20
-256.3242770681
 30
0.0
 10
1020.8729883842
 20
-256.452858807
 30
0.0
 10
1020.246126428
 20
-256.5879037858
 30
0.0
 10
1019.7512220597
 20
-256.7285864475
 30
0.0
 10
1019.4249703702
 20
-256.8552813059
 30
0.0
 10
1019.2374437817
 20
-256.9660990594
 30
0.0
 10
1019.1250437977
 20
-257.0558163082
 30
0.0
 10
1019.0702083339
 20
-257.1484527729
 30
0.0
 10
1019.0699262733
 20
-257.2055307763
 30
0.0
  0
SPLINE
  5
5C4
100
AcDbEntity
  8
0
100
AcDbSpline
 62
9
  6
CONTINUOUS
 70
0
 71
3
 72
13
 73
9
 74
0
 42
0.0000001
 43
0.0000001
 44
0.0000000001
 40
0.0
 40
0.0
 40
0.0
 40
0.0
 40
0.3598821509
 40
0.5225259244
 40
0.6662930258
 40
0.7871060193
 40
0.8824736522
 40
1.0
 40
1.0
 40
1.0
 40
1.0
 10
1098.6052295609
 20
-341.7597147372
 30
0.0
 10
1098.120442662
 20
-341.6780054206
 30
0.0
 10
1097.4103977684
 20
-341.5912850302
 30
0.0
 10
1096.4994624771
 20
-341.561397508
 30
0.0
 10
1095.9174454231
 20
-341.5814881291
 30
0.0
 10
1095.4235811788
 20
-341.6486550919
 30
0.0
 10
1094.9978174602
 20
-341.7569288654
 30
0.0
 10
1094.6979407354
 20
-341.9454561249
 30
0.0
 10
1094.6693270632
 20
-342.1034350801
 30
0.0
  0
ELLIPSE
  5
5C5
100
AcDbEntity
  8
02___PRT_ALL_AXES
100
AcDbEllipse
 62
7
  6
CONTINUOUS
 10
174.1419997969
 20
58.8617177396
 30
0.0
 11
65.0
 21
0.0
 31
0.0
 40
0.4615384615
 41
0.0
 42
6.2831853072
  0
ELLIPSE
  5
5C6
100
AcDbEntity
  8
02___PRT_ALL_AXES
100
AcDbEllipse
 62
7
  6
CONTINUOUS
 10
174.1419997969
 20
144.8617177396
 30
0.0
 11
65.0
 21
0.0
 31
0.0
 40
0.4615384615
 41
0.0
 42
6.2831853072
  0
ENDSEC
  0
SECTION
  2
OBJECTS
  0
DICTIONARY
  5
C
100
AcDbDictionary
280
0
281
1
  3
ACAD_GROUP
350
D
  3
ACAD_MLINESTYLE
350
17
  3
ACAD_LAYOUT
350
1A
  3
ACAD_PLOTSETTINGS
350
19
  3
ACAD_PLOTSTYLENAME
350
E
  0
DICTIONARY
  5
D
102
{ACAD_REACTORS
330
C
102
}
100
AcDbDictionary
280
0
281
1
  0
ACDBDICTIONARYWDFLT
  5
E
102
{ACAD_REACTORS
330
C
102
}
100
AcDbDictionary
281
1
  3
Normal
350
F
100
AcDbDictionaryWithDefault
340
F
  0
DICTIONARY
  5
17
102
{ACAD_REACTORS
330
C
102
}
100
AcDbDictionary
280
0
281
1
  3
Standard
350
18
  0
DICTIONARY
  5
19
102
{ACAD_REACTORS
330
C
102
}
100
AcDbDictionary
281
1
  0
DICTIONARY
  5
1A
102
{ACAD_REACTORS
330
C
102
}
100
AcDbDictionary
281
1
  3
Model
350
5C7
  3
Layout1
350
5C8
  0
ACDBPLACEHOLDER
  5
F
102
{ACAD_REACTORS
330
E
102
}
  0
MLINESTYLE
  5
18
102
{ACAD_REACTORS
330
17
102
}
100
AcDbMlineStyle
  2
STANDARD
 70
0
  3

 62
256
 51
90.0
 52
90.0
 71
2
 49
0.5
 62
256
  6
BYLAYER
 49
-0.5
 62
256
  6
BYLAYER
  0
LAYOUT
  5
5C7
102
{ACAD_REACTORS
330
1A
102
}
100
AcDbPlotSettings
  1

  2
none_device
  4

  6

 40
0.0
 41
0.0
 42
0.0
 43
0.0
 44
210.0
 45
297.0
 46
0.0
 47
0.0
 48
0.0
 49
0.0
140
0.0
141
0.0
142
1.0
143
1.0
 70
1024
 72
1
 73
0
 74
0
  7

 75
0
147
1.0
148
0.0
149
0.0
100
AcDbLayout
  1
Model
 70
0
 71
0
 10
0.0
 20
0.0
 11
210.0
 21
297.0
 12
0.0
 22
0.0
 32
0.0
 14
0.0
 24
0.0
 34
0.0
 15
0.0
 25
0.0
 35
0.0
146
0.0
 13
0.0
 23
0.0
 33
0.0
 16
1.0
 26
0.0
 36
0.0
 17
0.0
 27
1.0
 37
0.0
 76
0
330
21B
345
0
346
0
  0
LAYOUT
  5
5C8
102
{ACAD_REACTORS
330
1A
102
}
100
AcDbPlotSettings
  1

  2
none_device
  4

  6

 40
0.0
 41
0.0
 42
0.0
 43
0.0
 44
210.0
 45
297.0
 46
0.0
 47
0.0
 48
0.0
 49
0.0
140
0.0
141
0.0
142
1.0
143
1.0
 70
0
 72
1
 73
0
 74
0
  7

 75
0
147
1.0
148
0.0
149
0.0
100
AcDbLayout
  1
Layout1
 70
0
 71
1
 10
0.0
 20
0.0
 11
210.0
 21
297.0
 12
0.0
 22
0.0
 32
0.0
 14
0.0
 24
0.0
 34
0.0
 15
0.0
 25
0.0
 35
0.0
146
0.0
 13
0.0
 23
0.0
 33
0.0
 16
1.0
 26
0.0
 36
0.0
 17
0.0
 27
1.0
 37
0.0
 76
0
330
21C
345
0
346
0
  0
ENDSEC
  0
EOF
