999
DXF file: s105_t_f_2.dxf
999
Pro/ENGINEER 2011370 by Parametric Technology Corporation
  0
SECTION
  2
HEADER
  9
$ACADVER
  1
AC1015
  9
$DWGCODEPAGE
  3
ANSI_1252
  9
$EXTMAX
 10
210.0
 20
297.0
 30
0.0
  9
$EXTMIN
 10
0.0
 20
0.0
 30
0.0
  9
$LIMMIN
 10
0.0
 20
0.0
  9
$LIMMAX
 10
210.0
 20
297.0
  9
$VIEWCTR
 10
105.0
 20
148.5
  9
$VIEWSIZE
 40
297.0
  9
$CLAYER
  8
0
  9
$LTSCALE
 40
19.36
  9
$CELTYPE
  6
BYLAYER
  9
$DIMSCALE
 40
1.0
  9
$DIMASZ
 40
2.0
  9
$DIMEXO
 40
2.2
  9
$DIMDLI
 40
13.376
  9
$DIMEXE
 40
6.336
  9
$DIMCEN
 40
3.168
  9
$DIMLFAC
 40
1.0
  9
$DIMBLK
  1
_FILLED
  9
$DIMTXT
 40
2.0
  9
$DIMTOL
 70
0
  9
$DIMLIM
 70
0
  9
$DIMTFAC
 40
1.0
  9
$PDMODE
 70
3
  9
$PDSIZE
 40
0.3125
  9
$HANDSEED
  5
708
  9
$TILEMODE
 70
1
  9
$MEASUREMENT
 70
1
  9
$INSUNITS
 70
4
  0
ENDSEC
  0
SECTION
  2
CLASSES
  0
CLASS
  1
ACDBDICTIONARYWDFLT
  2
AcDbDictionaryWithDefault
  3
AutoCAD 2000
 90
0
280
0
281
0
  0
CLASS
  1
ACDBPLACEHOLDER
  2
AcDbPlaceHolder
  3
AutoCAD 2000
 90
0
280
0
281
0
  0
CLASS
  1
LAYOUT
  2
AcDbLayout
  3
AutoCAD 2000
 90
0
280
0
281
0
  0
ENDSEC
  0
SECTION
  2
TABLES
  0
TABLE
  2
VPORT
  5
8
100
AcDbSymbolTable
 70
2
  0
VPORT
  5
1F4
100
AcDbSymbolTableRecord
100
AcDbViewportTableRecord
  2
*ACTIVE
 70
0
 10
0.0
 20
0.0
 11
1.0
 21
1.0
 12
105.0
 22
148.5
 13
0.0
 23
0.0
 14
1.0
 24
1.0
 15
0.0
 25
0.0
 16
0.0
 26
0.0
 36
1.0
 17
0.0
 27
0.0
 37
0.0
 40
297.0
 41
0.7070707071
 42
50.0
 43
0.0
 44
0.0
 50
0.0
 51
0.0
 71
0
 72
100
 73
1
 74
1
 75
0
 76
0
 77
0
 78
0
  0
ENDTAB
  0
TABLE
  2
LTYPE
  5
5
100
AcDbSymbolTable
 70
6
  0
LTYPE
  5
14
100
AcDbSymbolTableRecord
100
AcDbLinetypeTableRecord
  2
BYBLOCK
 70
0
  3

 72
65
 73
0
 40
0.0
  0
LTYPE
  5
15
100
AcDbSymbolTableRecord
100
AcDbLinetypeTableRecord
  2
BYLAYER
 70
0
  3

 72
65
 73
0
 40
0.0
  0
LTYPE
  5
16
100
AcDbSymbolTableRecord
100
AcDbLinetypeTableRecord
  2
CONTINUOUS
 70
64
  3
Solid line
 72
65
 73
0
 40
0.0
  0
LTYPE
  5
1F5
100
AcDbSymbolTableRecord
100
AcDbLinetypeTableRecord
  2
CENTER
 70
64
  3
____ _ ____ _ ____ _ ____ _ ____ _ ____ _ ____
 72
65
 73
4
 40
0.6
 49
0.375
 74
0
 49
-0.075
 74
0
 49
0.075
 74
0
 49
-0.075
 74
0
  0
LTYPE
  5
1F6
100
AcDbSymbolTableRecord
100
AcDbLinetypeTableRecord
  2
HIDDEN
 70
64
  3
- - - - - - - - - - - - - - - - - - - -
 72
65
 73
2
 40
0.2
 49
0.1
 74
0
 49
-0.1
 74
0
  0
LTYPE
  5
1F7
100
AcDbSymbolTableRecord
100
AcDbLinetypeTableRecord
  2
PHANTOM
 70
64
  3
_____ _ _ _____ _ _ _____ _ _ _____
 72
65
 73
6
 40
0.8
 49
0.45
 74
0
 49
-0.05
 74
0
 49
0.1
 74
0
 49
-0.05
 74
0
 49
0.1
 74
0
 49
-0.05
 74
0
  0
LTYPE
  5
1F8
100
AcDbSymbolTableRecord
100
AcDbLinetypeTableRecord
  2
DOT
 70
64
  3
. . . . . . . . . . . . . . . . . . . .
 72
65
 73
2
 40
0.2
 49
0.1
 74
0
 49
-0.1
 74
0
  0
LTYPE
  5
1F9
100
AcDbSymbolTableRecord
100
AcDbLinetypeTableRecord
  2
DASHED
 70
64
  3
- - - - - - - - - - - - - - - - - - - -
 72
65
 73
2
 40
0.2
 49
0.1
 74
0
 49
-0.1
 74
0
  0
ENDTAB
  0
TABLE
  2
LAYER
  5
2
100
AcDbSymbolTable
 70
36
  0
LAYER
  5
10
100
AcDbSymbolTableRecord
100
AcDbLayerTableRecord
  2
0
 70
0
 62
7
  6
CONTINUOUS
370
-3
390
F
  0
LAYER
  5
1FA
100
AcDbSymbolTableRecord
100
AcDbLayerTableRecord
  2
DEFAULT_1
 70
0
 62
7
  6
CENTER
370
-3
390
F
  0
LAYER
  5
1FB
100
AcDbSymbolTableRecord
100
AcDbLayerTableRecord
  2
DEFAULT_2
 70
0
 62
8
  6
HIDDEN
370
-3
390
F
  0
LAYER
  5
1FC
100
AcDbSymbolTableRecord
100
AcDbLayerTableRecord
  2
DEFAULT_3
 70
0
 62
7
  6
PHANTOM
370
-3
390
F
  0
LAYER
  5
1FD
100
AcDbSymbolTableRecord
100
AcDbLayerTableRecord
  2
01___PRT_ALL_DTM_PLN
 70
0
 62
7
  6
CONTINUOUS
370
-3
390
F
  0
LAYER
  5
1FE
100
AcDbSymbolTableRecord
100
AcDbLayerTableRecord
  2
01___PRT_DEF_DTM_PLN
 70
0
 62
7
  6
CONTINUOUS
370
-3
390
F
  0
LAYER
  5
1FF
100
AcDbSymbolTableRecord
100
AcDbLayerTableRecord
  2
02___PRT_ALL_AXES
 70
0
 62
7
  6
CONTINUOUS
370
-3
390
F
  0
LAYER
  5
200
100
AcDbSymbolTableRecord
100
AcDbLayerTableRecord
  2
03___PRT_ALL_CURVES
 70
0
 62
7
  6
CONTINUOUS
370
-3
390
F
  0
LAYER
  5
201
100
AcDbSymbolTableRecord
100
AcDbLayerTableRecord
  2
04___PRT_ALL_DTM_PNT
 70
0
 62
7
  6
CONTINUOUS
370
-3
390
F
  0
LAYER
  5
202
100
AcDbSymbolTableRecord
100
AcDbLayerTableRecord
  2
05___PRT_ALL_DTM_CSYS
 70
0
 62
7
  6
CONTINUOUS
370
-3
390
F
  0
LAYER
  5
203
100
AcDbSymbolTableRecord
100
AcDbLayerTableRecord
  2
05___PRT_DEF_DTM_CSYS
 70
0
 62
7
  6
CONTINUOUS
370
-3
390
F
  0
LAYER
  5
204
100
AcDbSymbolTableRecord
100
AcDbLayerTableRecord
  2
06___PRT_ALL_SURFS
 70
0
 62
7
  6
CONTINUOUS
370
-3
390
F
  0
LAYER
  5
205
100
AcDbSymbolTableRecord
100
AcDbLayerTableRecord
  2
1_ALL_PLANES
 70
0
 62
7
  6
CONTINUOUS
370
-3
390
F
  0
LAYER
  5
206
100
AcDbSymbolTableRecord
100
AcDbLayerTableRecord
  2
1_SISCO
 70
0
 62
7
  6
CONTINUOUS
370
-3
390
F
  0
LAYER
  5
207
100
AcDbSymbolTableRecord
100
AcDbLayerTableRecord
  2
1__DEF_ASM_PLN
 70
0
 62
7
  6
CONTINUOUS
370
-3
390
F
  0
LAYER
  5
208
100
AcDbSymbolTableRecord
100
AcDbLayerTableRecord
  2
1__DEF_PLANES
 70
0
 62
7
  6
CONTINUOUS
370
-3
390
F
  0
LAYER
  5
209
100
AcDbSymbolTableRecord
100
AcDbLayerTableRecord
  2
2_ALL_CSYS
 70
0
 62
7
  6
CONTINUOUS
370
-3
390
F
  0
LAYER
  5
20A
100
AcDbSymbolTableRecord
100
AcDbLayerTableRecord
  2
2_PIANI
 70
0
 62
7
  6
CONTINUOUS
370
-3
390
F
  0
LAYER
  5
20B
100
AcDbSymbolTableRecord
100
AcDbLayerTableRecord
  2
2__DEF_ASM_CSYS
 70
0
 62
7
  6
CONTINUOUS
370
-3
390
F
  0
LAYER
  5
20C
100
AcDbSymbolTableRecord
100
AcDbLayerTableRecord
  2
2__DEF_CSYS
 70
0
 62
7
  6
CONTINUOUS
370
-3
390
F
  0
LAYER
  5
20D
100
AcDbSymbolTableRecord
100
AcDbLayerTableRecord
  2
3_ALL_AXES
 70
0
 62
7
  6
CONTINUOUS
370
-3
390
F
  0
LAYER
  5
20E
100
AcDbSymbolTableRecord
100
AcDbLayerTableRecord
  2
3_PUNTI
 70
0
 62
7
  6
CONTINUOUS
370
-3
390
F
  0
LAYER
  5
20F
100
AcDbSymbolTableRecord
100
AcDbLayerTableRecord
  2
4_ALL_POINTS
 70
0
 62
7
  6
CONTINUOUS
370
-3
390
F
  0
LAYER
  5
210
100
AcDbSymbolTableRecord
100
AcDbLayerTableRecord
  2
4_CURVE
 70
0
 62
7
  6
CONTINUOUS
370
-3
390
F
  0
LAYER
  5
211
100
AcDbSymbolTableRecord
100
AcDbLayerTableRecord
  2
5_ALL_CURVES
 70
0
 62
7
  6
CONTINUOUS
370
-3
390
F
  0
LAYER
  5
212
100
AcDbSymbolTableRecord
100
AcDbLayerTableRecord
  2
5_SUPERFICI
 70
0
 62
7
  6
CONTINUOUS
370
-3
390
F
  0
LAYER
  5
213
100
AcDbSymbolTableRecord
100
AcDbLayerTableRecord
  2
6_ALL_SURFS
 70
0
 62
7
  6
CONTINUOUS
370
-3
390
F
  0
LAYER
  5
214
100
AcDbSymbolTableRecord
100
AcDbLayerTableRecord
  2
7_ALL_QUILTS
 70
0
 62
7
  6
CONTINUOUS
370
-3
390
F
  0
LAYER
  5
215
100
AcDbSymbolTableRecord
100
AcDbLayerTableRecord
  2
8_ALL_CGFEAT
 70
0
 62
7
  6
CONTINUOUS
370
-3
390
F
  0
LAYER
  5
216
100
AcDbSymbolTableRecord
100
AcDbLayerTableRecord
  2
9_ALL_THREAD
 70
0
 62
7
  6
CONTINUOUS
370
-3
390
F
  0
LAYER
  5
217
100
AcDbSymbolTableRecord
100
AcDbLayerTableRecord
  2
FILETTATURE
 70
0
 62
7
  6
CONTINUOUS
370
-3
390
F
  0
ENDTAB
  0
TABLE
  2
STYLE
  5
3
100
AcDbSymbolTable
 70
1
  0
STYLE
  5
11
100
AcDbSymbolTableRecord
100
AcDbTextStyleTableRecord
  2
STANDARD
 70
0
 40
0.0
 41
1.0
 50
0.0
 71
0
 42
0.2
  3
arial.ttf
  4

  0
STYLE
  5
218
100
AcDbSymbolTableRecord
100
AcDbTextStyleTableRecord
  2
TEXTSTYLE_1
 70
0
 40
0.0
 41
0.8
 50
0.0
 71
0
 42
0.2
  3
gdt
  4

  0
ENDTAB
  0
TABLE
  2
VIEW
  5
6
100
AcDbSymbolTable
 70
0
  0
ENDTAB
  0
TABLE
  2
UCS
  5
7
100
AcDbSymbolTable
 70
0
  0
ENDTAB
  0
TABLE
  2
APPID
  5
9
100
AcDbSymbolTable
 70
1
  0
APPID
  5
219
100
AcDbSymbolTableRecord
100
AcDbRegAppTableRecord
  2
ACAD
 70
0
  0
ENDTAB
  0
TABLE
  2
BLOCK_RECORD
  5
1
100
AcDbSymbolTable
 70
0
  0
BLOCK_RECORD
  5
21A
100
AcDbSymbolTableRecord
100
AcDbBlockTableRecord
  2
*Model_Space
  0
BLOCK_RECORD
  5
21B
100
AcDbSymbolTableRecord
100
AcDbBlockTableRecord
  2
*Paper_Space
  0
ENDTAB
  0
TABLE
  2
DIMSTYLE
  5
A
100
AcDbSymbolTable
 70
1
100
AcDbDimStyleTable
 71
0
  0
DIMSTYLE
105
21C
100
AcDbSymbolTableRecord
100
AcDbDimStyleTableRecord
  2
STANDARD
 70
0
  3

  4

 40
1.0
 41
2.0
 42
0.0625
 43
0.38
 44
0.18
 45
0.0
 46
0.0
 47
0.01
 48
0.01
140
2.0
141
0.09
142
0.0
143
25.4
144
1.0
145
0.0
146
1.0
147
0.09
 71
0.0
 72
0.0
 73
1
 74
1
 75
0
 76
0
 77
0
 78
8
170
0
171
2
172
0
173
0
174
0
175
0
176
0
177
0
178
0
270
2
271
2
272
2
273
2
274
2
275
0
280
0
281
0
282
0
283
1
284
8
285
0
286
0
287
3
288
0
340
11
  0
ENDTAB
  0
ENDSEC
  0
SECTION
  2
BLOCKS
  0
BLOCK
  5
20
100
AcDbEntity
  8
0
100
AcDbBlockBegin
  2
*Model_Space
 70
0
 10
0.0
 20
0.0
 30
0.0
  3
*Model_Space
  1

  0
ENDBLK
  5
21
100
AcDbEntity
  8
0
100
AcDbBlockEnd
  0
BLOCK
  5
1C
100
AcDbEntity
  8
0
100
AcDbBlockBegin
  2
*Paper_Space
 70
0
 10
0.0
 20
0.0
 30
0.0
  3
*Paper_Space
  1

  0
ENDBLK
  5
1D
100
AcDbEntity
  8
0
100
AcDbBlockEnd
  0
ENDSEC
  0
SECTION
  2
ENTITIES
  0
LINE
  5
21D
100
AcDbEntity
  8
0
100
AcDbLine
 62
7
  6
CONTINUOUS
 10
674.3336390749
 20
287.5879250176
 11
674.3336390749
 21
124.1564299358
  0
LINE
  5
21E
100
AcDbEntity
  8
0
100
AcDbLine
 62
9
  6
CONTINUOUS
 10
680.1915016898
 20
110.0142955748
 11
680.1915016898
 21
301.7300593786
  0
LINE
  5
21F
100
AcDbEntity
  8
0
100
AcDbLine
 62
9
  6
CONTINUOUS
 10
688.475752296
 20
310.0143116514
 11
688.475752296
 21
101.730043302
  0
LINE
  5
220
100
AcDbEntity
  8
0
100
AcDbLine
 62
7
  6
CONTINUOUS
 10
680.1915016892
 20
110.0142955755
 11
688.4757522985
 21
101.7300432992
  0
LINE
  5
221
100
AcDbEntity
  8
0
100
AcDbLine
 62
9
  6
CONTINUOUS
 10
702.617889357
 20
315.8721774765
 11
702.617889357
 21
95.8721774769
  0
LINE
  5
222
100
AcDbEntity
  8
0
100
AcDbLine
 62
7
  6
CONTINUOUS
 10
739.3336390749
 20
105.8721774767
 11
749.3336390749
 21
95.8721774767
  0
LINE
  5
223
100
AcDbEntity
  8
0
100
AcDbLine
 62
7
  6
CONTINUOUS
 10
739.3336390749
 20
315.8708882453
 11
739.3336390749
 21
95.8734667081
  0
LINE
  5
224
100
AcDbEntity
  8
0
100
AcDbLine
 62
7
  6
CONTINUOUS
 10
749.3336390749
 20
315.8721774767
 11
749.3336390749
 21
95.8721774767
  0
LINE
  5
225
100
AcDbEntity
  8
0
100
AcDbLine
 62
3
  6
CONTINUOUS
 10
767.8336390749
 20
93.8721774767
 11
767.8336390749
 21
28.8721774767
  0
LINE
  5
226
100
AcDbEntity
  8
0
100
AcDbLine
 62
7
  6
CONTINUOUS
 10
767.8336390749
 20
25.8721774767
 11
767.8336390749
 21
28.8721774767
  0
LINE
  5
227
100
AcDbEntity
  8
0
100
AcDbLine
 62
7
  6
CONTINUOUS
 10
772.3336390749
 20
93.8721774767
 11
772.3336390749
 21
105.8721774767
  0
LINE
  5
228
100
AcDbEntity
  8
0
100
AcDbLine
 62
9
  6
CONTINUOUS
 10
782.8336390749
 20
25.8721774767
 11
782.8336390749
 21
28.8721774767
  0
LINE
  5
229
100
AcDbEntity
  8
0
100
AcDbLine
 62
7
  6
CONTINUOUS
 10
680.1915016892
 20
301.7300593779
 11
688.4757522985
 21
310.0143116541
  0
LINE
  5
22A
100
AcDbEntity
  8
0
100
AcDbLine
 62
7
  6
CONTINUOUS
 10
1217.8336390749
 20
25.8721774767
 11
1167.8336390749
 21
25.8721774767
  0
LINE
  5
22B
100
AcDbEntity
  8
0
100
AcDbLine
 62
7
  6
CONTINUOUS
 10
767.8336390749
 20
25.8721774767
 11
952.8336390749
 21
25.8721774767
  0
LINE
  5
22C
100
AcDbEntity
  8
0
100
AcDbLine
 62
3
  6
CONTINUOUS
 10
767.8336390749
 20
28.8721774767
 11
952.8336390749
 21
28.8721774767
  0
LINE
  5
22D
100
AcDbEntity
  8
0
100
AcDbLine
 62
9
  6
CONTINUOUS
 10
767.8336390749
 20
31.8721774767
 11
952.8336390749
 21
31.8721774767
  0
LINE
  5
22E
100
AcDbEntity
  8
0
100
AcDbLine
 62
7
  6
CONTINUOUS
 10
1317.8336390749
 20
38.8721774767
 11
1217.8336390749
 21
38.8721774767
  0
LINE
  5
22F
100
AcDbEntity
  8
0
100
AcDbLine
 62
7
  6
CONTINUOUS
 10
1167.8336390749
 20
38.8721774767
 11
1127.8336390749
 21
38.8721774767
  0
LINE
  5
230
100
AcDbEntity
  8
0
100
AcDbLine
 62
9
  6
CONTINUOUS
 10
1177.8336390749
 20
40.8721774767
 11
1217.8336390749
 21
40.8721774767
  0
LINE
  5
231
100
AcDbEntity
  8
0
100
AcDbLine
 62
7
  6
CONTINUOUS
 10
1167.8336390749
 20
43.8721774767
 11
1214.8336390749
 21
43.8721774767
  0
LINE
  5
232
100
AcDbEntity
  8
02___PRT_ALL_AXES
100
AcDbLine
 62
7
  6
CONTINUOUS
 10
1338.4975344836
 20
45.8721774767
 11
1357.8336390749
 21
45.8721774767
  0
LINE
  5
233
100
AcDbEntity
  8
0
100
AcDbLine
 62
7
  6
CONTINUOUS
 10
835.3336390749
 20
298.0676220496
 11
835.3336390749
 21
357.8721774767
  0
LINE
  5
234
100
AcDbEntity
  8
0
100
AcDbLine
 62
7
  6
CONTINUOUS
 10
739.3336390749
 20
305.8721774767
 11
749.3336390749
 21
315.8721774767
  0
LINE
  5
235
100
AcDbEntity
  8
0
100
AcDbLine
 62
7
  6
CONTINUOUS
 10
1217.8336390749
 20
65.4620392738
 11
1177.8336390749
 21
65.4620392738
  0
LINE
  5
236
100
AcDbEntity
  8
3_ALL_AXES
100
AcDbLine
 62
7
  6
CONTINUOUS
 10
1097.8336390749
 20
70.8721774767
 11
1097.3336390749
 21
70.8721774767
  0
LINE
  5
237
100
AcDbEntity
  8
0
100
AcDbLine
 62
7
  6
CONTINUOUS
 10
1097.3336390749
 20
70.8721774767
 11
1088.3336390749
 21
70.8721774767
  0
LINE
  5
238
100
AcDbEntity
  8
0
100
AcDbLine
 62
9
  6
CONTINUOUS
 10
767.8336390749
 20
87.8721774767
 11
952.8336390749
 21
87.8721774767
  0
LINE
  5
239
100
AcDbEntity
  8
0
100
AcDbLine
 62
3
  6
CONTINUOUS
 10
767.8336390749
 20
93.8721774767
 11
772.3336390749
 21
93.8721774767
  0
LINE
  5
23A
100
AcDbEntity
  8
0
100
AcDbLine
 62
7
  6
CONTINUOUS
 10
772.3336390749
 20
93.8721774767
 11
948.3336390749
 21
93.8721774767
  0
LINE
  5
23B
100
AcDbEntity
  8
0
100
AcDbLine
 62
3
  6
CONTINUOUS
 10
948.3336390749
 20
93.8721774767
 11
952.8336390749
 21
93.8721774767
  0
LINE
  5
23C
100
AcDbEntity
  8
02___PRT_ALL_AXES
100
AcDbLine
 62
7
  6
CONTINUOUS
 10
702.6178893581
 20
95.8721774767
 11
739.3336390749
 21
95.8721774767
  0
LINE
  5
23D
100
AcDbEntity
  8
02___PRT_ALL_AXES
100
AcDbLine
 62
7
  6
CONTINUOUS
 10
749.3336390749
 20
95.8721774767
 11
772.3336390749
 21
95.8721774767
  0
LINE
  5
23E
100
AcDbEntity
  8
02___PRT_ALL_AXES
100
AcDbLine
 62
7
  6
CONTINUOUS
 10
948.3336390749
 20
95.8721774767
 11
980.3336390306
 21
95.8721774767
  0
LINE
  5
23F
100
AcDbEntity
  8
0
100
AcDbLine
 62
7
  6
CONTINUOUS
 10
1177.8336390749
 20
100.3176907446
 11
1167.8336390749
 21
100.3176907446
  0
LINE
  5
240
100
AcDbEntity
  8
02___PRT_ALL_AXES
100
AcDbLine
 62
7
  6
CONTINUOUS
 10
1357.8336390749
 20
105.8721774767
 11
1351.8336390749
 21
105.8721774767
  0
LINE
  5
241
100
AcDbEntity
  8
3_ALL_AXES
100
AcDbLine
 62
7
  6
CONTINUOUS
 10
1013.3336390749
 20
105.8721774767
 11
1001.3336390749
 21
105.8721774767
  0
LINE
  5
242
100
AcDbEntity
  8
0
100
AcDbLine
 62
7
  6
CONTINUOUS
 10
772.3336390749
 20
105.8721774767
 11
948.3336390749
 21
105.8721774767
  0
LINE
  5
243
100
AcDbEntity
  8
0
100
AcDbLine
 62
7
  6
CONTINUOUS
 10
1001.3336390749
 20
105.8721774767
 11
1082.3336390749
 21
105.8721774767
  0
LINE
  5
244
100
AcDbEntity
  8
0
100
AcDbLine
 62
9
  6
CONTINUOUS
 10
1015.3336390749
 20
107.8721774767
 11
1086.3336390749
 21
107.8721774765
  0
LINE
  5
245
100
AcDbEntity
  8
0
100
AcDbLine
 62
9
  6
CONTINUOUS
 10
1080.3382599782
 20
129.67421883
 11
1083.3336390749
 21
129.8406642175
  0
LINE
  5
246
100
AcDbEntity
  8
0
100
AcDbLine
 62
7
  6
CONTINUOUS
 10
1018.3336390749
 20
115.8721774767
 11
1080.3336390749
 21
115.8721774767
  0
LINE
  5
247
100
AcDbEntity
  8
0
100
AcDbLine
 62
9
  6
CONTINUOUS
 10
1086.3336390749
 20
116.9991941302
 11
1084.3314603647
 21
116.9991941305
  0
LINE
  5
248
100
AcDbEntity
  8
0
100
AcDbLine
 62
9
  6
CONTINUOUS
 10
1015.3336390749
 20
118.8721774767
 11
1083.3336390749
 21
118.8721774767
  0
LINE
  5
249
100
AcDbEntity
  8
0
100
AcDbLine
 62
9
  6
CONTINUOUS
 10
1083.3336390749
 20
135.8721865062
 11
1086.3336390749
 21
135.8721774767
  0
LINE
  5
24A
100
AcDbEntity
  8
0
100
AcDbLine
 62
9
  6
CONTINUOUS
 10
937.8336390749
 20
25.8721774767
 11
937.8336390749
 21
28.8721774767
  0
LINE
  5
24B
100
AcDbEntity
  8
0
100
AcDbLine
 62
7
  6
CONTINUOUS
 10
1357.8336390749
 20
145.8721774767
 11
1351.8336390749
 21
145.8721774767
  0
LINE
  5
24C
100
AcDbEntity
  8
0
100
AcDbLine
 62
9
  6
CONTINUOUS
 10
1000.3336390749
 20
145.8721774767
 11
1015.3336390749
 21
145.8721774767
  0
LINE
  5
24D
100
AcDbEntity
  8
0
100
AcDbLine
 62
9
  6
CONTINUOUS
 10
1043.5914151358
 20
162.2688519154
 11
1019.3336390749
 21
162.2688519154
  0
LINE
  5
24E
100
AcDbEntity
  8
0
100
AcDbLine
 62
9
  6
CONTINUOUS
 10
1043.5914151358
 20
165.1437964579
 11
1019.3336390749
 21
165.1437964579
  0
LINE
  5
24F
100
AcDbEntity
  8
0
100
AcDbLine
 62
9
  6
CONTINUOUS
 10
1347.8336390749
 20
170.8721774767
 11
1357.8336390749
 21
170.8721774767
  0
LINE
  5
250
100
AcDbEntity
  8
0
100
AcDbLine
 62
9
  6
CONTINUOUS
 10
1018.2847784424
 20
160.6871121046
 11
1015.3336390749
 21
161.2263490041
  0
LINE
  5
251
100
AcDbEntity
  8
0
100
AcDbLine
 62
7
  6
CONTINUOUS
 10
948.3336390749
 20
93.8721774767
 11
948.3336390749
 21
105.8721774767
  0
LINE
  5
252
100
AcDbEntity
  8
0
100
AcDbLine
 62
3
  6
CONTINUOUS
 10
952.8336390749
 20
93.8721774767
 11
952.8336390749
 21
28.8721774767
  0
LINE
  5
253
100
AcDbEntity
  8
0
100
AcDbLine
 62
7
  6
CONTINUOUS
 10
952.8336390749
 20
25.8721774767
 11
952.8336390749
 21
28.8721774767
  0
LINE
  5
254
100
AcDbEntity
  8
0
100
AcDbLine
 62
7
  6
CONTINUOUS
 10
955.3336390749
 20
298.0676220496
 11
955.3336390749
 21
357.8721774767
  0
LINE
  5
255
100
AcDbEntity
  8
0
100
AcDbLine
 62
9
  6
CONTINUOUS
 10
1015.3336390749
 20
197.8721774767
 11
1013.3336390749
 21
197.8721774767
  0
LINE
  5
256
100
AcDbEntity
  8
0
100
AcDbLine
 62
9
  6
CONTINUOUS
 10
1083.3336390749
 20
197.8721774767
 11
1086.3336390749
 21
197.8721774767
  0
LINE
  5
257
100
AcDbEntity
  8
0
100
AcDbLine
 62
9
  6
CONTINUOUS
 10
1019.3336390749
 20
198.3996500042
 11
1043.5914151358
 21
198.3996500042
  0
LINE
  5
258
100
AcDbEntity
  8
0
100
AcDbLine
 62
7
  6
CONTINUOUS
 10
1083.3336390749
 20
200.8721774767
 11
1018.3336390749
 21
200.8721774767
  0
LINE
  5
259
100
AcDbEntity
  8
0
100
AcDbLine
 62
9
  6
CONTINUOUS
 10
1018.3336390749
 20
202.8721774767
 11
1086.3336390749
 21
202.8721774769
  0
LINE
  5
25A
100
AcDbEntity
  8
0
100
AcDbLine
 62
9
  6
CONTINUOUS
 10
1097.8336390749
 20
205.8721774767
 11
1347.8336390749
 21
205.8721774767
  0
LINE
  5
25B
100
AcDbEntity
  8
0
100
AcDbLine
 62
7
  6
CONTINUOUS
 10
980.3336391284
 20
315.8721774767
 11
980.3336391284
 21
95.8721774767
  0
LINE
  5
25C
100
AcDbEntity
  8
0
100
AcDbLine
 62
7
  6
CONTINUOUS
 10
1000.3336390749
 20
305.7006046014
 11
1000.3336390749
 21
106.0437503519
  0
LINE
  5
25D
100
AcDbEntity
  8
0
100
AcDbLine
 62
9
  6
CONTINUOUS
 10
1001.3336390749
 20
105.8721774767
 11
1001.3336390749
 21
305.8721774767
  0
LINE
  5
25E
100
AcDbEntity
  8
0
100
AcDbLine
 62
9
  6
CONTINUOUS
 10
1018.3336390749
 20
208.8721774767
 11
1086.3336390749
 21
208.8721774765
  0
LINE
  5
25F
100
AcDbEntity
  8
0
100
AcDbLine
 62
7
  6
CONTINUOUS
 10
1018.3336390749
 20
210.8721774767
 11
1083.3336390749
 21
210.8721774767
  0
LINE
  5
260
100
AcDbEntity
  8
0
100
AcDbLine
 62
9
  6
CONTINUOUS
 10
1043.5914151358
 20
213.3447049492
 11
1019.3336390749
 21
213.3447049492
  0
LINE
  5
261
100
AcDbEntity
  8
0
100
AcDbLine
 62
9
  6
CONTINUOUS
 10
1086.3336390749
 20
213.8721774767
 11
1083.3336390749
 21
213.8721774767
  0
LINE
  5
262
100
AcDbEntity
  8
0
100
AcDbLine
 62
9
  6
CONTINUOUS
 10
1015.3336390749
 20
213.8721774767
 11
1013.333639075
 21
213.8721774769
  0
LINE
  5
263
100
AcDbEntity
  8
0
100
AcDbLine
 62
9
  6
CONTINUOUS
 10
1013.3336390749
 20
305.8721774767
 11
1013.3336390749
 21
213.8721774767
  0
LINE
  5
264
100
AcDbEntity
  8
0
100
AcDbLine
 62
9
  6
CONTINUOUS
 10
1013.3336390749
 20
197.8721774767
 11
1013.3336390749
 21
105.8721774767
  0
LINE
  5
265
100
AcDbEntity
  8
0
100
AcDbLine
 62
7
  6
CONTINUOUS
 10
1015.3336390749
 20
303.8721774767
 11
1015.3336390749
 21
213.8721774767
  0
LINE
  5
266
100
AcDbEntity
  8
0
100
AcDbLine
 62
7
  6
CONTINUOUS
 10
1015.3336390749
 20
197.8721774767
 11
1015.3336390749
 21
107.8721774767
  0
LINE
  5
267
100
AcDbEntity
  8
0
100
AcDbLine
 62
9
  6
CONTINUOUS
 10
1018.3336390749
 20
210.8721774767
 11
1018.3336390749
 21
208.8721774767
  0
LINE
  5
268
100
AcDbEntity
  8
0
100
AcDbLine
 62
9
  6
CONTINUOUS
 10
1018.3336390749
 20
160.4601746581
 11
1018.3336390749
 21
105.8721774767
  0
LINE
  5
269
100
AcDbEntity
  8
0
100
AcDbLine
 62
9
  6
CONTINUOUS
 10
1018.3336390749
 20
200.8721774767
 11
1018.3336390751
 21
202.8721774766
  0
LINE
  5
26A
100
AcDbEntity
  8
0
100
AcDbLine
 62
9
  6
CONTINUOUS
 10
1018.3336390749
 20
251.2841802953
 11
1018.3336390751
 21
305.8721774767
  0
LINE
  5
26B
100
AcDbEntity
  8
0
100
AcDbLine
 62
9
  6
CONTINUOUS
 10
1019.3336390749
 20
249.4755030379
 11
1019.3336390749
 21
210.8721774767
  0
LINE
  5
26C
100
AcDbEntity
  8
0
100
AcDbLine
 62
9
  6
CONTINUOUS
 10
1019.3336390749
 20
162.2688519154
 11
1019.3336390749
 21
200.8721774767
  0
LINE
  5
26D
100
AcDbEntity
  8
0
100
AcDbLine
 62
9
  6
CONTINUOUS
 10
1018.2847784424
 20
251.0572428487
 11
1015.3336390749
 21
250.5180059492
  0
LINE
  5
26E
100
AcDbEntity
  8
0
100
AcDbLine
 62
9
  6
CONTINUOUS
 10
1347.8336390749
 20
240.8721774767
 11
1357.8336390749
 21
240.8721774767
  0
LINE
  5
26F
100
AcDbEntity
  8
0
100
AcDbLine
 62
9
  6
CONTINUOUS
 10
1019.3336390749
 20
246.6005584954
 11
1043.5914151358
 21
246.6005584954
  0
LINE
  5
270
100
AcDbEntity
  8
0
100
AcDbLine
 62
9
  6
CONTINUOUS
 10
1019.3336390749
 20
249.4755030379
 11
1043.5914151358
 21
249.4755030379
  0
LINE
  5
271
100
AcDbEntity
  8
02___PRT_ALL_AXES
100
AcDbLine
 62
7
  6
CONTINUOUS
 10
1445.8336390749
 20
256.8721774767
 11
1462.8336390749
 21
256.8721774767
  0
LINE
  5
272
100
AcDbEntity
  8
0
100
AcDbLine
 62
7
  6
CONTINUOUS
 10
1357.8336390749
 20
265.8721774767
 11
1351.8336390749
 21
265.8721774767
  0
LINE
  5
273
100
AcDbEntity
  8
0
100
AcDbLine
 62
9
  6
CONTINUOUS
 10
1000.3336390749
 20
265.8721774767
 11
1015.3336390749
 21
265.8721774767
  0
LINE
  5
274
100
AcDbEntity
  8
02___PRT_ALL_AXES
100
AcDbLine
 62
7
  6
CONTINUOUS
 10
1351.8336390749
 20
265.8721774767
 11
1357.8336390749
 21
265.8721774767
  0
LINE
  5
275
100
AcDbEntity
  8
0
100
AcDbLine
 62
7
  6
CONTINUOUS
 10
1000.333645717
 20
295.8721840845
 11
980.3336471499
 21
315.872185596
  0
LINE
  5
276
100
AcDbEntity
  8
0
100
AcDbLine
 62
9
  6
CONTINUOUS
 10
1046.92753999
 20
250.7958745986
 11
1048.7337160133
 21
248.4878785731
  0
LINE
  5
277
100
AcDbEntity
  8
0
100
AcDbLine
 62
9
  6
CONTINUOUS
 10
1043.5914151358
 20
162.2688519154
 11
1043.5914151358
 21
200.8721774767
  0
LINE
  5
278
100
AcDbEntity
  8
0
100
AcDbLine
 62
9
  6
CONTINUOUS
 10
1043.5914151358
 20
210.8721774767
 11
1043.5914151358
 21
249.4755030379
  0
LINE
  5
279
100
AcDbEntity
  8
0
100
AcDbLine
 62
9
  6
CONTINUOUS
 10
1048.7337160133
 20
163.2564763921
 11
1048.7337160133
 21
198.2661169276
  0
LINE
  5
27A
100
AcDbEntity
  8
0
100
AcDbLine
 62
9
  6
CONTINUOUS
 10
1048.7337160133
 20
213.4782380258
 11
1048.7337160133
 21
248.4878785731
  0
LINE
  5
27B
100
AcDbEntity
  8
02___PRT_ALL_AXES
100
AcDbLine
 62
7
  6
CONTINUOUS
 10
1053.8336390749
 20
553.8721774767
 11
1053.8336390749
 21
570.8721774767
  0
LINE
  5
27C
100
AcDbEntity
  8
0
100
AcDbLine
 62
9
  6
CONTINUOUS
 10
1086.3336390749
 20
275.8721774767
 11
1083.3336390749
 21
275.872168484
  0
LINE
  5
27D
100
AcDbEntity
  8
0
100
AcDbLine
 62
7
  6
CONTINUOUS
 10
1369.8336390749
 20
290.8721774767
 11
1347.8336390749
 21
290.8721774767
  0
LINE
  5
27E
100
AcDbEntity
  8
0
100
AcDbLine
 62
9
  6
CONTINUOUS
 10
1015.3336390749
 20
292.8721774767
 11
1083.3336390749
 21
292.8721774767
  0
LINE
  5
27F
100
AcDbEntity
  8
0
100
AcDbLine
 62
9
  6
CONTINUOUS
 10
1084.3314605117
 20
294.7451608229
 11
1086.3336390749
 21
294.7451608232
  0
LINE
  5
280
100
AcDbEntity
  8
0
100
AcDbLine
 62
7
  6
CONTINUOUS
 10
1080.3336390749
 20
295.8721774767
 11
1018.3336390749
 21
295.8721774767
  0
LINE
  5
281
100
AcDbEntity
  8
0
100
AcDbLine
 62
9
  6
CONTINUOUS
 10
1097.8336390749
 20
296.6745619986
 11
1347.8336390749
 21
296.6745619986
  0
LINE
  5
282
100
AcDbEntity
  8
0
100
AcDbLine
 62
7
  6
CONTINUOUS
 10
835.3336390749
 20
298.0676220496
 11
955.3336390749
 21
298.0676220496
  0
LINE
  5
283
100
AcDbEntity
  8
0
100
AcDbLine
 62
9
  6
CONTINUOUS
 10
1080.3382599782
 20
282.0701361234
 11
1083.3336390749
 21
281.9036907359
  0
LINE
  5
284
100
AcDbEntity
  8
0
100
AcDbLine
 62
9
  6
CONTINUOUS
 10
1078.5541832267
 20
278.0205274219
 11
1080.4759399524
 21
275.7532056298
  0
LINE
  5
285
100
AcDbEntity
  8
0
100
AcDbLine
 62
9
  6
CONTINUOUS
 10
1078.756858095
 20
278.1993265627
 11
1080.6796161056
 21
275.9307105871
  0
LINE
  5
286
100
AcDbEntity
  8
0
100
AcDbLine
 62
9
  6
CONTINUOUS
 10
1080.3336390749
 20
113.8721529804
 11
1080.3336390749
 21
129.3882510053
  0
LINE
  5
287
100
AcDbEntity
  8
0
100
AcDbLine
 62
9
  6
CONTINUOUS
 10
1080.3336390749
 20
282.3561039481
 11
1080.3336390749
 21
297.872201977
  0
LINE
  5
288
100
AcDbEntity
  8
0
100
AcDbLine
 62
9
  6
CONTINUOUS
 10
1080.4759399524
 20
135.9911493235
 11
1080.4759399524
 21
198.1229809738
  0
LINE
  5
289
100
AcDbEntity
  8
0
100
AcDbLine
 62
9
  6
CONTINUOUS
 10
1080.4759399524
 20
213.6213739796
 11
1080.4759399524
 21
275.7532056298
  0
LINE
  5
28A
100
AcDbEntity
  8
0
100
AcDbLine
 62
9
  6
CONTINUOUS
 10
1082.3336390749
 20
105.8721774767
 11
1082.3336390749
 21
114.1785602366
  0
LINE
  5
28B
100
AcDbEntity
  8
0
100
AcDbLine
 62
9
  6
CONTINUOUS
 10
1082.3336390749
 20
297.5657949564
 11
1082.3336390749
 21
305.8721774767
  0
LINE
  5
28C
100
AcDbEntity
  8
0
100
AcDbLine
 62
7
  6
CONTINUOUS
 10
1083.3336390749
 20
118.8721774767
 11
1083.3336390749
 21
197.8721774767
  0
LINE
  5
28D
100
AcDbEntity
  8
0
100
AcDbLine
 62
9
  6
CONTINUOUS
 10
1083.3336390749
 20
200.8721774767
 11
1083.3336390749
 21
210.8721774767
  0
LINE
  5
28E
100
AcDbEntity
  8
0
100
AcDbLine
 62
7
  6
CONTINUOUS
 10
1083.3336390749
 20
213.8721774767
 11
1083.3336390749
 21
292.8721774767
  0
LINE
  5
28F
100
AcDbEntity
  8
0
100
AcDbLine
 62
9
  6
CONTINUOUS
 10
1084.8336390735
 20
135.8721774767
 11
1084.8336390749
 21
197.8721774767
  0
LINE
  5
290
100
AcDbEntity
  8
0
100
AcDbLine
 62
9
  6
CONTINUOUS
 10
1084.8336390749
 20
213.8721774767
 11
1084.8336390735
 21
275.8721774775
  0
LINE
  5
291
100
AcDbEntity
  8
0
100
AcDbLine
 62
7
  6
CONTINUOUS
 10
1086.3336390749
 20
338.8721774767
 11
1086.3336390749
 21
72.8721774767
  0
LINE
  5
292
100
AcDbEntity
  8
0
100
AcDbLine
 62
7
  6
CONTINUOUS
 10
1087.8336390749
 20
477.8721774767
 11
1087.8336390749
 21
448.8721774767
  0
LINE
  5
293
100
AcDbEntity
  8
0
100
AcDbLine
 62
9
  6
CONTINUOUS
 10
1088.3336390749
 20
340.8721774767
 11
1088.3336390749
 21
70.8721774767
  0
LINE
  5
294
100
AcDbEntity
  8
0
100
AcDbLine
 62
7
  6
CONTINUOUS
 10
1097.3336390749
 20
340.8721774767
 11
1097.3336390749
 21
70.8721774767
  0
LINE
  5
295
100
AcDbEntity
  8
3_ALL_AXES
100
AcDbLine
 62
7
  6
CONTINUOUS
 10
1097.3336390749
 20
340.8721774767
 11
1097.3336390749
 21
70.8721774767
  0
LINE
  5
296
100
AcDbEntity
  8
3_ALL_AXES
100
AcDbLine
 62
7
  6
CONTINUOUS
 10
1097.8336390749
 20
267.7066103626
 11
1097.8336390749
 21
71.0007641129
  0
LINE
  5
297
100
AcDbEntity
  8
0
100
AcDbLine
 62
7
  6
CONTINUOUS
 10
1097.8336390749
 20
68.8721783022
 11
1097.8336390749
 21
71.0007641129
  0
LINE
  5
298
100
AcDbEntity
  8
0
100
AcDbLine
 62
7
  6
CONTINUOUS
 10
1097.8336390749
 20
267.7066103626
 11
1097.8336390749
 21
420.8721774767
  0
LINE
  5
299
100
AcDbEntity
  8
0
100
AcDbLine
 62
9
  6
CONTINUOUS
 10
1102.8336390749
 20
480.8721774767
 11
1102.8336390749
 21
465.8721774767
  0
LINE
  5
29A
100
AcDbEntity
  8
0
100
AcDbLine
 62
9
  6
CONTINUOUS
 10
1015.3336390749
 20
303.8721774767
 11
1086.3336390749
 21
303.8721774769
  0
LINE
  5
29B
100
AcDbEntity
  8
0
100
AcDbLine
 62
7
  6
CONTINUOUS
 10
1082.3336390749
 20
305.8721774767
 11
1001.3336390749
 21
305.8721774767
  0
LINE
  5
29C
100
AcDbEntity
  8
0
100
AcDbLine
 62
9
  6
CONTINUOUS
 10
1372.8336390749
 20
305.8721774767
 11
1357.8336390749
 21
305.8721774767
  0
LINE
  5
29D
100
AcDbEntity
  8
0
100
AcDbLine
 62
9
  6
CONTINUOUS
 10
1357.8336390749
 20
310.8721774767
 11
1347.8336390749
 21
310.8721774767
  0
LINE
  5
29E
100
AcDbEntity
  8
02___PRT_ALL_AXES
100
AcDbLine
 62
7
  6
CONTINUOUS
 10
1374.8336390749
 20
312.8721774767
 11
1440.8336390749
 21
312.8721774767
  0
LINE
  5
29F
100
AcDbEntity
  8
02___PRT_ALL_AXES
100
AcDbLine
 62
7
  6
CONTINUOUS
 10
702.6178893581
 20
315.8721774767
 11
739.3336390749
 21
315.8721774767
  0
LINE
  5
2A0
100
AcDbEntity
  8
02___PRT_ALL_AXES
100
AcDbLine
 62
7
  6
CONTINUOUS
 10
749.3336390749
 20
315.8721774767
 11
835.3336390749
 21
315.8721774767
  0
LINE
  5
2A1
100
AcDbEntity
  8
02___PRT_ALL_AXES
100
AcDbLine
 62
7
  6
CONTINUOUS
 10
955.3336390749
 20
315.8721774767
 11
980.3336390306
 21
315.8721774767
  0
LINE
  5
2A2
100
AcDbEntity
  8
0
100
AcDbLine
 62
9
  6
CONTINUOUS
 10
1107.8336390749
 20
465.8721774767
 11
1107.8336390749
 21
448.8721774767
  0
LINE
  5
2A3
100
AcDbEntity
  8
02___PRT_ALL_AXES
100
AcDbLine
 62
7
  6
CONTINUOUS
 10
1109.8336390749
 20
482.8721774767
 11
1109.8336390749
 21
548.8721774767
  0
LINE
  5
2A4
100
AcDbEntity
  8
0
100
AcDbLine
 62
9
  6
CONTINUOUS
 10
1127.8336390749
 20
38.8721774767
 11
1127.8336390875
 21
450.8721774767
  0
LINE
  5
2A5
100
AcDbEntity
  8
0
100
AcDbLine
 62
9
  6
CONTINUOUS
 10
1046.9275369946
 20
160.9484826995
 11
1048.7337160133
 21
163.2564763921
  0
LINE
  5
2A6
100
AcDbEntity
  8
3_ALL_AXES
100
AcDbLine
 62
7
  6
CONTINUOUS
 10
1097.8336390749
 20
340.8721774767
 11
1097.3336390749
 21
340.8721774767
  0
LINE
  5
2A7
100
AcDbEntity
  8
0
100
AcDbLine
 62
7
  6
CONTINUOUS
 10
1097.3336390749
 20
340.8721774767
 11
1088.3336390749
 21
340.8721774767
  0
LINE
  5
2A8
100
AcDbEntity
  8
0
100
AcDbLine
 62
7
  6
CONTINUOUS
 10
835.3336390749
 20
357.8721774767
 11
955.3336390749
 21
357.8721774767
  0
LINE
  5
2A9
100
AcDbEntity
  8
02___PRT_ALL_AXES
100
AcDbLine
 62
7
  6
CONTINUOUS
 10
1137.8336390749
 20
465.8721774767
 11
1137.8336390749
 21
454.8721774767
  0
LINE
  5
2AA
100
AcDbEntity
  8
0
100
AcDbLine
 62
7
  6
CONTINUOUS
 10
1167.8336390749
 20
25.8721774767
 11
1167.8336390749
 21
100.3176907446
  0
LINE
  5
2AB
100
AcDbEntity
  8
0
100
AcDbLine
 62
7
  6
CONTINUOUS
 10
1000.333645717
 20
115.8721708689
 11
980.3336471499
 21
95.8721693574
  0
LINE
  5
2AC
100
AcDbEntity
  8
0
100
AcDbLine
 62
7
  6
CONTINUOUS
 10
1177.8336390749
 20
40.8721774767
 11
1177.8336390749
 21
100.3176907446
  0
LINE
  5
2AD
100
AcDbEntity
  8
02___PRT_ALL_AXES
100
AcDbLine
 62
7
  6
CONTINUOUS
 10
1197.8336390749
 20
454.8721774767
 11
1197.8336390749
 21
465.8721774767
  0
LINE
  5
2AE
100
AcDbEntity
  8
0
100
AcDbLine
 62
9
  6
CONTINUOUS
 10
1078.5541832526
 20
133.7238275095
 11
1080.4759399524
 21
135.9911493235
  0
LINE
  5
2AF
100
AcDbEntity
  8
0
100
AcDbLine
 62
9
  6
CONTINUOUS
 10
1078.756858095
 20
133.5450283907
 11
1080.6796161056
 21
135.8136443663
  0
LINE
  5
2B0
100
AcDbEntity
  8
02___PRT_ALL_AXES
100
AcDbLine
 62
7
  6
CONTINUOUS
 10
1374.8336390749
 20
428.8721774767
 11
1440.8336390749
 21
428.8721774767
  0
LINE
  5
2B1
100
AcDbEntity
  8
0
100
AcDbLine
 62
9
  6
CONTINUOUS
 10
1205.8336390749
 20
25.8721774767
 11
1205.8336390749
 21
43.8721774767
  0
LINE
  5
2B2
100
AcDbEntity
  8
0
100
AcDbLine
 62
7
  6
CONTINUOUS
 10
1217.8336390749
 20
65.4620392738
 11
1217.8336390749
 21
25.8721774767
  0
LINE
  5
2B3
100
AcDbEntity
  8
02___PRT_ALL_AXES
100
AcDbLine
 62
7
  6
CONTINUOUS
 10
1225.8336390749
 20
482.8721774767
 11
1225.8336390749
 21
548.8721774767
  0
LINE
  5
2B4
100
AcDbEntity
  8
0
100
AcDbLine
 62
9
  6
CONTINUOUS
 10
1227.8336390749
 20
465.8721774767
 11
1227.8336390749
 21
450.8721774767
  0
LINE
  5
2B5
100
AcDbEntity
  8
0
100
AcDbLine
 62
9
  6
CONTINUOUS
 10
1357.8336390749
 20
430.8721774767
 11
1340.8566920842
 21
430.8721774767
  0
LINE
  5
2B6
100
AcDbEntity
  8
0
100
AcDbLine
 62
9
  6
CONTINUOUS
 10
1372.8336390749
 20
435.8721774767
 11
1357.8336390749
 21
435.8721774767
  0
LINE
  5
2B7
100
AcDbEntity
  8
0
100
AcDbLine
 62
7
  6
CONTINUOUS
 10
1117.0633094606
 20
448.8721774767
 11
1087.8336390749
 21
448.8721774767
  0
LINE
  5
2B8
100
AcDbEntity
  8
0
100
AcDbLine
 62
9
  6
CONTINUOUS
 10
1201.5006035895
 20
449.1303564533
 11
1317.8336390749
 21
449.1303564533
  0
LINE
  5
2B9
100
AcDbEntity
  8
0
100
AcDbLine
 62
9
  6
CONTINUOUS
 10
1127.8336390897
 20
449.1303719728
 11
1134.1666745603
 21
449.1303564533
  0
LINE
  5
2BA
100
AcDbEntity
  8
0
100
AcDbLine
 62
7
  6
CONTINUOUS
 10
1369.8336390749
 20
450.8721774767
 11
1201.8336390749
 21
450.8721774767
  0
LINE
  5
2BB
100
AcDbEntity
  8
0
100
AcDbLine
 62
7
  6
CONTINUOUS
 10
1133.8336390749
 20
450.8721774767
 11
1127.8336390749
 21
450.8721774767
  0
LINE
  5
2BC
100
AcDbEntity
  8
0
100
AcDbLine
 62
9
  6
CONTINUOUS
 10
1232.8336390749
 20
480.8721774767
 11
1232.8336390749
 21
465.8721774767
  0
LINE
  5
2BD
100
AcDbEntity
  8
0
100
AcDbLine
 62
7
  6
CONTINUOUS
 10
1247.8336390749
 20
477.8721774767
 11
1247.8336390749
 21
450.8721774767
  0
LINE
  5
2BE
100
AcDbEntity
  8
0
100
AcDbLine
 62
7
  6
CONTINUOUS
 10
1247.8336390749
 20
465.8721774767
 11
1197.8336390749
 21
465.8721774767
  0
LINE
  5
2BF
100
AcDbEntity
  8
0
100
AcDbLine
 62
7
  6
CONTINUOUS
 10
1137.8338141807
 20
465.8721774767
 11
1087.8336390749
 21
465.8721774767
  0
LINE
  5
2C0
100
AcDbEntity
  8
02___PRT_ALL_AXES
100
AcDbLine
 62
7
  6
CONTINUOUS
 10
1137.8338141807
 20
465.8721774767
 11
1197.8334639691
 21
465.8721774767
  0
LINE
  5
2C1
100
AcDbEntity
  8
0
100
AcDbLine
 62
9
  6
CONTINUOUS
 10
1087.8336390749
 20
477.8721774767
 11
1247.8336390749
 21
477.8721774767
  0
LINE
  5
2C2
100
AcDbEntity
  8
0
100
AcDbLine
 62
7
  6
CONTINUOUS
 10
1090.8336390749
 20
480.8721774767
 11
1244.8336390749
 21
480.8721774767
  0
LINE
  5
2C3
100
AcDbEntity
  8
0
100
AcDbLine
 62
9
  6
CONTINUOUS
 10
1109.8336390749
 20
482.8721774767
 11
1225.8336390749
 21
482.8721774767
  0
LINE
  5
2C4
100
AcDbEntity
  8
02___PRT_ALL_AXES
100
AcDbLine
 62
7
  6
CONTINUOUS
 10
1445.8336390749
 20
484.8721774767
 11
1462.8336390749
 21
484.8721774767
  0
LINE
  5
2C5
100
AcDbEntity
  8
02___PRT_ALL_AXES
100
AcDbLine
 62
7
  6
CONTINUOUS
 10
1281.8336390749
 20
553.8721774767
 11
1281.8336390749
 21
570.8721774767
  0
LINE
  5
2C6
100
AcDbEntity
  8
0
100
AcDbLine
 62
9
  6
CONTINUOUS
 10
1317.8336390749
 20
449.1303564533
 11
1317.8336390749
 21
38.8721774767
  0
LINE
  5
2C7
100
AcDbEntity
  8
0
100
AcDbLine
 62
9
  6
CONTINUOUS
 10
1225.8336390749
 20
548.8721774767
 11
1109.8336390749
 21
548.8721774767
  0
LINE
  5
2C8
100
AcDbEntity
  8
0
100
AcDbLine
 62
7
  6
CONTINUOUS
 10
1056.8336390749
 20
550.8721774767
 11
1278.8336390749
 21
550.8721774767
  0
LINE
  5
2C9
100
AcDbEntity
  8
0
100
AcDbLine
 62
9
  6
CONTINUOUS
 10
1281.8336390749
 20
553.8721774767
 11
1053.8336390749
 21
553.8721774767
  0
LINE
  5
2CA
100
AcDbEntity
  8
0
100
AcDbLine
 62
7
  6
CONTINUOUS
 10
1347.8336390749
 20
407.8905680409
 11
1347.8336390749
 21
85.877356013
  0
LINE
  5
2CB
100
AcDbEntity
  8
0
100
AcDbLine
 62
9
  6
CONTINUOUS
 10
1351.8336390749
 20
265.8721774767
 11
1351.8336390749
 21
145.8721774767
  0
LINE
  5
2CC
100
AcDbEntity
  8
0
100
AcDbLine
 62
9
  6
CONTINUOUS
 10
1351.8336390749
 20
105.8721774767
 11
1351.8336390749
 21
83.8293949884
  0
LINE
  5
2CD
100
AcDbEntity
  8
02___PRT_ALL_AXES
100
AcDbLine
 62
7
  6
CONTINUOUS
 10
1357.8336390749
 20
265.8721774767
 11
1357.8336390749
 21
145.8721774767
  0
LINE
  5
2CE
100
AcDbEntity
  8
02___PRT_ALL_AXES
100
AcDbLine
 62
7
  6
CONTINUOUS
 10
1357.8336390749
 20
105.8720023709
 11
1357.8336390749
 21
45.8723525825
  0
LINE
  5
2CF
100
AcDbEntity
  8
0
100
AcDbLine
 62
7
  6
CONTINUOUS
 10
1357.8336390749
 20
290.8721774767
 11
1357.8336390749
 21
450.8721774767
  0
LINE
  5
2D0
100
AcDbEntity
  8
02___PRT_ALL_AXES
100
AcDbLine
 62
7
  6
CONTINUOUS
 10
1053.8343044769
 20
570.8721774767
 11
1281.8329736729
 21
570.8721774767
  0
LINE
  5
2D1
100
AcDbEntity
  8
0
100
AcDbLine
 62
9
  6
CONTINUOUS
 10
1369.8336390749
 20
450.8721774767
 11
1369.8336390749
 21
290.8721774767
  0
LINE
  5
2D2
100
AcDbEntity
  8
0
100
AcDbLine
 62
7
  6
CONTINUOUS
 10
1372.8336390749
 20
447.8721774767
 11
1372.8336390749
 21
293.8721774767
  0
LINE
  5
2D3
100
AcDbEntity
  8
0
100
AcDbLine
 62
9
  6
CONTINUOUS
 10
1374.8336390749
 20
428.8721774767
 11
1374.8336390749
 21
312.8721774767
  0
LWPOLYLINE
  5
2D4
100
AcDbEntity
  8
0
100
AcDbPolyline
 62
7
  6
CONTINUOUS
 90
4
 70
0
 10
1336.0664769745
 20
45.0485970057
 10
1336.8355854382
 20
45.5105201714
 10
1338.1038690006
 20
45.8527034455
 10
1338.4975342679
 20
45.8721220278
  0
LINE
  5
2D5
100
AcDbEntity
  8
0
100
AcDbLine
 62
9
  6
CONTINUOUS
 10
1440.8336390749
 20
312.8721774767
 11
1440.8336390749
 21
428.8721774767
  0
LINE
  5
2D6
100
AcDbEntity
  8
0
100
AcDbLine
 62
7
  6
CONTINUOUS
 10
1442.8336390749
 20
481.8721774767
 11
1442.8336390749
 21
259.8721774767
  0
LINE
  5
2D7
100
AcDbEntity
  8
0
100
AcDbLine
 62
9
  6
CONTINUOUS
 10
1445.8336390749
 20
256.8721774767
 11
1445.8336390749
 21
484.8721774767
  0
LINE
  5
2D8
100
AcDbEntity
  8
02___PRT_ALL_AXES
100
AcDbLine
 62
7
  6
CONTINUOUS
 10
1462.8336390749
 20
484.8715120747
 11
1462.8336390749
 21
256.8728428786
  0
LINE
  5
2D9
100
AcDbEntity
  8
0
100
AcDbLine
 62
7
  6
CONTINUOUS
 10
317.0298592056
 20
25.8721774767
 11
267.0298592056
 21
25.8721774767
  0
LINE
  5
2DA
100
AcDbEntity
  8
0
100
AcDbLine
 62
7
  6
CONTINUOUS
 10
77.0298592056
 20
25.8721774767
 11
27.0298592056
 21
25.8721774767
  0
LINE
  5
2DB
100
AcDbEntity
  8
0
100
AcDbLine
 62
7
  6
CONTINUOUS
 10
257.8877235818
 20
38.8721774767
 11
86.1719948293
 21
38.8721774767
  0
LINE
  5
2DC
100
AcDbEntity
  8
0
100
AcDbLine
 62
9
  6
CONTINUOUS
 10
27.0298592056
 20
40.8721774767
 11
74.0298592056
 21
40.8721774767
  0
LINE
  5
2DD
100
AcDbEntity
  8
0
100
AcDbLine
 62
9
  6
CONTINUOUS
 10
270.0298592056
 20
40.8721774767
 11
317.0298592056
 21
40.8721774767
  0
LINE
  5
2DE
100
AcDbEntity
  8
0
100
AcDbLine
 62
7
  6
CONTINUOUS
 10
30.0298592056
 20
43.8721774767
 11
77.0298592056
 21
43.8721774767
  0
LINE
  5
2DF
100
AcDbEntity
  8
0
100
AcDbLine
 62
7
  6
CONTINUOUS
 10
267.0298592056
 20
43.8721774767
 11
314.0298592056
 21
43.8721774767
  0
LINE
  5
2E0
100
AcDbEntity
  8
0
100
AcDbLine
 62
9
  6
CONTINUOUS
 10
122.9220471792
 20
85.8773559672
 11
126.3580241865
 21
83.8293878618
  0
LINE
  5
2E1
100
AcDbEntity
  8
0
100
AcDbLine
 62
7
  6
CONTINUOUS
 10
22.0298592056
 20
296.6745619986
 11
22.0298592056
 21
205.8721774767
  0
LINE
  5
2E2
100
AcDbEntity
  8
0
100
AcDbLine
 62
7
  6
CONTINUOUS
 10
27.0298592056
 20
25.8721774767
 11
27.0298592056
 21
43.8721774767
  0
LINE
  5
2E3
100
AcDbEntity
  8
0
100
AcDbLine
 62
9
  6
CONTINUOUS
 10
39.0298592056
 20
25.8721774767
 11
39.0298592056
 21
43.8721774767
  0
LINE
  5
2E4
100
AcDbEntity
  8
0
100
AcDbLine
 62
9
  6
CONTINUOUS
 10
52.0298592056
 20
296.6745619986
 11
52.0298592056
 21
205.8721774767
  0
LINE
  5
2E5
100
AcDbEntity
  8
0
100
AcDbLine
 62
9
  6
CONTINUOUS
 10
124.0298592056
 20
141.8721774767
 11
254.0298592056
 21
141.8721774767
  0
LINE
  5
2E6
100
AcDbEntity
  8
02___PRT_ALL_AXES
100
AcDbLine
 62
7
  6
CONTINUOUS
 10
247.3670327153
 20
49.3928683432
 11
267.0298592056
 21
29.730041853
  0
LINE
  5
2E7
100
AcDbEntity
  8
0
100
AcDbLine
 62
7
  6
CONTINUOUS
 10
64.0298592056
 20
465.8721774767
 11
64.0298592056
 21
408.9242836018
  0
LINE
  5
2E8
100
AcDbEntity
  8
02___PRT_ALL_AXES
100
AcDbLine
 62
7
  6
CONTINUOUS
 10
77.0298592056
 20
25.8721774767
 11
77.0298592056
 21
29.730041853
  0
LINE
  5
2E9
100
AcDbEntity
  8
02___PRT_ALL_AXES
100
AcDbLine
 62
7
  6
CONTINUOUS
 10
124.0298592056
 20
145.8721774767
 11
254.0298592056
 21
145.8721774767
  0
LINE
  5
2EA
100
AcDbEntity
  8
0
100
AcDbLine
 62
7
  6
CONTINUOUS
 10
270.0298592056
 20
40.8721774767
 11
257.3951617241
 21
53.5068749582
  0
LINE
  5
2EB
100
AcDbEntity
  8
0
100
AcDbLine
 62
9
  6
CONTINUOUS
 10
95.0298592056
 20
240.8721774767
 11
95.0298592056
 21
170.8721774767
  0
LINE
  5
2EC
100
AcDbEntity
  8
02___PRT_ALL_AXES
100
AcDbLine
 62
7
  6
CONTINUOUS
 10
99.0298592056
 20
240.8721774767
 11
99.0298592056
 21
170.8721774767
  0
LINE
  5
2ED
100
AcDbEntity
  8
0
100
AcDbLine
 62
9
  6
CONTINUOUS
 10
283.0298592056
 20
170.8721774767
 11
279.0298592056
 21
170.8721774767
  0
LINE
  5
2EE
100
AcDbEntity
  8
0
100
AcDbLine
 62
9
  6
CONTINUOUS
 10
95.0298592056
 20
170.8721774767
 11
99.0298592056
 21
170.8721774767
  0
LINE
  5
2EF
100
AcDbEntity
  8
0
100
AcDbLine
 62
7
  6
CONTINUOUS
 10
109.0298592056
 20
413.6955247437
 11
109.0298592056
 21
397.3340335968
  0
LINE
  5
2F0
100
AcDbEntity
  8
0
100
AcDbLine
 62
7
  6
CONTINUOUS
 10
109.0298592056
 20
344.4104153177
 11
109.0298592056
 21
328.0489010888
  0
LINE
  5
2F1
100
AcDbEntity
  8
0
100
AcDbLine
 62
9
  6
CONTINUOUS
 10
112.0298592056
 20
411.5758635669
 11
112.0298592056
 21
399.4286682749
  0
LINE
  5
2F2
100
AcDbEntity
  8
0
100
AcDbLine
 62
9
  6
CONTINUOUS
 10
112.0298592056
 20
342.3164429121
 11
112.0298592056
 21
330.1679199554
  0
LINE
  5
2F3
100
AcDbEntity
  8
0
100
AcDbLine
 62
9
  6
CONTINUOUS
 10
124.0298592056
 20
269.8721774767
 11
124.0298592056
 21
265.8721774767
  0
LINE
  5
2F4
100
AcDbEntity
  8
0
100
AcDbLine
 62
9
  6
CONTINUOUS
 10
124.0298592056
 20
141.8721774767
 11
124.0298592056
 21
145.8721774767
  0
LINE
  5
2F5
100
AcDbEntity
  8
0
100
AcDbLine
 62
9
  6
CONTINUOUS
 10
52.0298592056
 20
205.8721774767
 11
22.0298592056
 21
205.8721774768
  0
LINE
  5
2F6
100
AcDbEntity
  8
0
100
AcDbLine
 62
9
  6
CONTINUOUS
 10
326.0298592056
 20
205.8721774767
 11
356.0298592056
 21
205.8721774767
  0
LINE
  5
2F7
100
AcDbEntity
  8
0
100
AcDbLine
 62
9
  6
CONTINUOUS
 10
283.0298592056
 20
240.8721774767
 11
279.0298592056
 21
240.8721774767
  0
LINE
  5
2F8
100
AcDbEntity
  8
0
100
AcDbLine
 62
9
  6
CONTINUOUS
 10
95.0298592056
 20
240.8721774767
 11
99.0298592056
 21
240.8721774767
  0
LINE
  5
2F9
100
AcDbEntity
  8
0
100
AcDbLine
 62
7
  6
CONTINUOUS
 10
182.0298592056
 20
570.8721774767
 11
182.0298592056
 21
553.8721774767
  0
LINE
  5
2FA
100
AcDbEntity
  8
02___PRT_ALL_AXES
100
AcDbLine
 62
7
  6
CONTINUOUS
 10
182.0298592056
 20
553.8721774767
 11
182.0298592056
 21
570.8721774767
  0
LINE
  5
2FB
100
AcDbEntity
  8
0
100
AcDbLine
 62
7
  6
CONTINUOUS
 10
27.0298592056
 20
43.8721774767
 11
59.6186914853
 21
100.3176907446
  0
LINE
  5
2FC
100
AcDbEntity
  8
02___PRT_ALL_AXES
100
AcDbLine
 62
7
  6
CONTINUOUS
 10
254.0298592056
 20
265.8721774767
 11
232.896849073
 21
265.8721774767
  0
LINE
  5
2FD
100
AcDbEntity
  8
02___PRT_ALL_AXES
100
AcDbLine
 62
7
  6
CONTINUOUS
 10
145.1628693382
 20
265.8721774767
 11
124.0298592056
 21
265.8721774767
  0
LINE
  5
2FE
100
AcDbEntity
  8
0
100
AcDbLine
 62
9
  6
CONTINUOUS
 10
254.0298592056
 20
269.8721774767
 11
241.837263623
 21
269.8721774767
  0
LINE
  5
2FF
100
AcDbEntity
  8
0
100
AcDbLine
 62
9
  6
CONTINUOUS
 10
136.2224554253
 20
269.8721774767
 11
124.0298592056
 21
269.8721774767
  0
LINE
  5
300
100
AcDbEntity
  8
0
100
AcDbLine
 62
7
  6
CONTINUOUS
 10
297.0369942334
 20
78.5008353974
 11
317.0298592056
 21
43.8721774767
  0
LINE
  5
301
100
AcDbEntity
  8
0
100
AcDbLine
 62
7
  6
CONTINUOUS
 10
216.0298592056
 20
459.1215885936
 11
216.0298592056
 21
450.8721774767
  0
LINE
  5
302
100
AcDbEntity
  8
0
100
AcDbLine
 62
7
  6
CONTINUOUS
 10
146.2065119386
 20
290.8721774767
 11
162.5680030855
 21
290.8721774767
  0
LINE
  5
303
100
AcDbEntity
  8
0
100
AcDbLine
 62
7
  6
CONTINUOUS
 10
215.4916213646
 20
290.8721774767
 11
231.8531355934
 21
290.8721774767
  0
LINE
  5
304
100
AcDbEntity
  8
0
100
AcDbLine
 62
9
  6
CONTINUOUS
 10
148.3261731153
 20
293.8721774767
 11
160.4733684074
 21
293.8721774767
  0
LINE
  5
305
100
AcDbEntity
  8
0
100
AcDbLine
 62
9
  6
CONTINUOUS
 10
217.5855937701
 20
293.8721774767
 11
229.7341167268
 21
293.8721774767
  0
LINE
  5
306
100
AcDbEntity
  8
0
100
AcDbLine
 62
9
  6
CONTINUOUS
 10
52.0298592056
 20
296.6745619986
 11
22.0298592056
 21
296.6745619986
  0
LINE
  5
307
100
AcDbEntity
  8
0
100
AcDbLine
 62
9
  6
CONTINUOUS
 10
326.0298592056
 20
296.6745619986
 11
356.0298592056
 21
296.6745619976
  0
LINE
  5
308
100
AcDbEntity
  8
0
100
AcDbLine
 62
9
  6
CONTINUOUS
 10
231.0298592056
 20
480.8721774767
 11
231.0298592056
 21
476.6113710573
  0
LINE
  5
309
100
AcDbEntity
  8
0
100
AcDbLine
 62
9
  6
CONTINUOUS
 10
231.0298592056
 20
466.1772873968
 11
231.0298592056
 21
465.8721774767
  0
LINE
  5
30A
100
AcDbEntity
  8
0
100
AcDbLine
 62
7
  6
CONTINUOUS
 10
238.0298592056
 20
482.8721774767
 11
238.0298592056
 21
548.8721774767
  0
LINE
  5
30B
100
AcDbEntity
  8
02___PRT_ALL_AXES
100
AcDbLine
 62
7
  6
CONTINUOUS
 10
238.0298592056
 20
482.8721774767
 11
238.0298592056
 21
548.8721774767
  0
LINE
  5
30C
100
AcDbEntity
  8
0
100
AcDbLine
 62
9
  6
CONTINUOUS
 10
254.0298592056
 20
269.8721774767
 11
254.0298592056
 21
265.8721774767
  0
LINE
  5
30D
100
AcDbEntity
  8
0
100
AcDbLine
 62
9
  6
CONTINUOUS
 10
254.0298592056
 20
141.8721774767
 11
254.0298592056
 21
145.8721774767
  0
LINE
  5
30E
100
AcDbEntity
  8
0
100
AcDbLine
 62
9
  6
CONTINUOUS
 10
266.0298592056
 20
330.1684913865
 11
266.0298592056
 21
342.3156866785
  0
LINE
  5
30F
100
AcDbEntity
  8
0
100
AcDbLine
 62
9
  6
CONTINUOUS
 10
266.0298592056
 20
399.4279120413
 11
266.0298592056
 21
411.576434998
  0
LINE
  5
310
100
AcDbEntity
  8
02___PRT_ALL_AXES
100
AcDbLine
 62
7
  6
CONTINUOUS
 10
267.0298592056
 20
25.8721774767
 11
267.0298592056
 21
29.730041853
  0
LINE
  5
311
100
AcDbEntity
  8
0
100
AcDbLine
 62
7
  6
CONTINUOUS
 10
269.0298592056
 20
328.0488302097
 11
269.0298592056
 21
344.4103213566
  0
LINE
  5
312
100
AcDbEntity
  8
0
100
AcDbLine
 62
7
  6
CONTINUOUS
 10
269.0298592056
 20
397.3339396357
 11
269.0298592056
 21
413.6954538646
  0
LINE
  5
313
100
AcDbEntity
  8
02___PRT_ALL_AXES
100
AcDbLine
 62
7
  6
CONTINUOUS
 10
279.0298592056
 20
170.8721774767
 11
279.0298592056
 21
240.8721774767
  0
LINE
  5
314
100
AcDbEntity
  8
0
100
AcDbLine
 62
9
  6
CONTINUOUS
 10
283.0298592056
 20
170.8721774767
 11
283.0298592056
 21
240.8721774767
  0
LINE
  5
315
100
AcDbEntity
  8
0
100
AcDbLine
 62
9
  6
CONTINUOUS
 10
305.0298592056
 20
25.8721774767
 11
305.0298592056
 21
43.8721774767
  0
LINE
  5
316
100
AcDbEntity
  8
0
100
AcDbLine
 62
7
  6
CONTINUOUS
 10
98.6197210027
 20
65.4620392738
 11
74.0298592056
 21
40.8721774767
  0
LINE
  5
317
100
AcDbEntity
  8
02___PRT_ALL_AXES
100
AcDbLine
 62
7
  6
CONTINUOUS
 10
77.0298592056
 20
29.730041853
 11
107.4525807496
 21
60.152763397
  0
LINE
  5
318
100
AcDbEntity
  8
0
100
AcDbLine
 62
7
  6
CONTINUOUS
 10
317.0298592056
 20
25.8721774767
 11
317.0298592056
 21
43.8721774767
  0
LINE
  5
319
100
AcDbEntity
  8
0
100
AcDbLine
 62
9
  6
CONTINUOUS
 10
326.0298592056
 20
205.8721774767
 11
326.0298592056
 21
296.6745619986
  0
LINE
  5
31A
100
AcDbEntity
  8
0
100
AcDbLine
 62
9
  6
CONTINUOUS
 10
326.0298592056
 20
392.1732530891
 11
326.0298592056
 21
448.8721774767
  0
LINE
  5
31B
100
AcDbEntity
  8
0
100
AcDbLine
 62
7
  6
CONTINUOUS
 10
346.0298592056
 20
353.5955598816
 11
346.0298592056
 21
448.8721774767
  0
LINE
  5
31C
100
AcDbEntity
  8
0
100
AcDbLine
 62
7
  6
CONTINUOUS
 10
354.0298592056
 20
482.8721774767
 11
354.0298592056
 21
548.8721774767
  0
LINE
  5
31D
100
AcDbEntity
  8
02___PRT_ALL_AXES
100
AcDbLine
 62
7
  6
CONTINUOUS
 10
354.0298592056
 20
482.8721774767
 11
354.0298592056
 21
548.8721774767
  0
LINE
  5
31E
100
AcDbEntity
  8
0
100
AcDbLine
 62
9
  6
CONTINUOUS
 10
356.0298592056
 20
465.8721774767
 11
356.0298592056
 21
448.8721774767
  0
LINE
  5
31F
100
AcDbEntity
  8
0
100
AcDbLine
 62
7
  6
CONTINUOUS
 10
356.0298592056
 20
205.8721774767
 11
356.0298592056
 21
296.6745619986
  0
LINE
  5
320
100
AcDbEntity
  8
0
100
AcDbLine
 62
9
  6
CONTINUOUS
 10
361.0298592056
 20
480.8721774767
 11
361.0298592056
 21
465.8721774767
  0
LINE
  5
321
100
AcDbEntity
  8
0
100
AcDbLine
 62
9
  6
CONTINUOUS
 10
229.7335452958
 20
447.8721774767
 11
217.5863500037
 21
447.8721774767
  0
LINE
  5
322
100
AcDbEntity
  8
0
100
AcDbLine
 62
9
  6
CONTINUOUS
 10
160.474124641
 20
447.8721774767
 11
148.3256016843
 21
447.8721774767
  0
LINE
  5
323
100
AcDbEntity
  8
0
100
AcDbLine
 62
7
  6
CONTINUOUS
 10
376.0298592056
 20
448.8721774767
 11
272.1640252189
 21
448.8721774767
  0
LINE
  5
324
100
AcDbEntity
  8
0
100
AcDbLine
 62
7
  6
CONTINUOUS
 10
231.8532064725
 20
450.8721774767
 11
215.4917153257
 21
450.8721774767
  0
LINE
  5
325
100
AcDbEntity
  8
0
100
AcDbLine
 62
7
  6
CONTINUOUS
 10
162.5680970465
 20
450.8721774767
 11
146.2065828177
 21
450.8721774767
  0
LINE
  5
326
100
AcDbEntity
  8
0
100
AcDbLine
 62
9
  6
CONTINUOUS
 10
144.600442796
 20
454.8721774767
 11
163.3207552908
 21
454.8721774767
  0
LINE
  5
327
100
AcDbEntity
  8
0
100
AcDbLine
 62
7
  6
CONTINUOUS
 10
376.0298592056
 20
477.8721774767
 11
376.0298592056
 21
448.8721774767
  0
LINE
  5
328
100
AcDbEntity
  8
0
100
AcDbLine
 62
7
  6
CONTINUOUS
 10
376.0298592056
 20
465.8721774767
 11
251.8392482319
 21
465.8721774767
  0
LINE
  5
329
100
AcDbEntity
  8
02___PRT_ALL_AXES
100
AcDbLine
 62
7
  6
CONTINUOUS
 10
64.0298592056
 20
465.8721774767
 11
126.2204701792
 21
465.8721774767
  0
LINE
  5
32A
100
AcDbEntity
  8
02___PRT_ALL_AXES
100
AcDbLine
 62
7
  6
CONTINUOUS
 10
146.6194751815
 20
465.8721774767
 11
158.4137131285
 21
465.8721774767
  0
LINE
  5
32B
100
AcDbEntity
  8
0
100
AcDbLine
 62
7
  6
CONTINUOUS
 10
219.6466906386
 20
465.8721774767
 11
231.4397037549
 21
465.8721774767
  0
LINE
  5
32C
100
AcDbEntity
  8
0
100
AcDbLine
 62
9
  6
CONTINUOUS
 10
228.1678799974
 20
477.8721774767
 11
376.0298592056
 21
477.8721774767
  0
LINE
  5
32D
100
AcDbEntity
  8
0
100
AcDbLine
 62
7
  6
CONTINUOUS
 10
410.0298592056
 20
570.8721774767
 11
410.0298592056
 21
553.8721774767
  0
LINE
  5
32E
100
AcDbEntity
  8
02___PRT_ALL_AXES
100
AcDbLine
 62
7
  6
CONTINUOUS
 10
410.0298592056
 20
553.8721774767
 11
410.0298592056
 21
570.8721774767
  0
LINE
  5
32F
100
AcDbEntity
  8
0
100
AcDbLine
 62
9
  6
CONTINUOUS
 10
255.1376712323
 20
85.8773559667
 11
251.7017107725
 21
83.8293977248
  0
LINE
  5
330
100
AcDbEntity
  8
0
100
AcDbLine
 62
7
  6
CONTINUOUS
 10
219.0298592056
 20
480.8721774767
 11
373.0298592056
 21
480.8721774767
  0
LINE
  5
331
100
AcDbEntity
  8
0
100
AcDbLine
 62
9
  6
CONTINUOUS
 10
238.0298592056
 20
482.8721774767
 11
354.0298592056
 21
482.8721774767
  0
LINE
  5
332
100
AcDbEntity
  8
0
100
AcDbLine
 62
9
  6
CONTINUOUS
 10
354.0298592056
 20
548.8721774767
 11
238.0298592056
 21
548.8721774767
  0
LINE
  5
333
100
AcDbEntity
  8
0
100
AcDbLine
 62
7
  6
CONTINUOUS
 10
407.0298592056
 20
550.8721774767
 11
185.0298592056
 21
550.8721774767
  0
LINE
  5
334
100
AcDbEntity
  8
0
100
AcDbLine
 62
9
  6
CONTINUOUS
 10
410.0298592056
 20
553.8721774767
 11
182.0298592056
 21
553.8721774767
  0
LINE
  5
335
100
AcDbEntity
  8
02___PRT_ALL_AXES
100
AcDbLine
 62
7
  6
CONTINUOUS
 10
182.0298592056
 20
570.8721774767
 11
410.0298592056
 21
570.8721774767
  0
LINE
  5
336
100
AcDbEntity
  8
02___PRT_ALL_AXES
100
AcDbLine
 62
7
  6
CONTINUOUS
 10
-1023.6493512429
 20
256.8728428786
 11
-1023.6493512429
 21
484.8715120747
  0
LINE
  5
337
100
AcDbEntity
  8
0
100
AcDbLine
 62
9
  6
CONTINUOUS
 10
-1006.6493512429
 20
484.8721774767
 11
-1006.6493512429
 21
256.8721774767
  0
LINE
  5
338
100
AcDbEntity
  8
0
100
AcDbLine
 62
7
  6
CONTINUOUS
 10
-1003.6493512429
 20
259.8721774767
 11
-1003.6493512429
 21
481.8721774767
  0
LINE
  5
339
100
AcDbEntity
  8
0
100
AcDbLine
 62
9
  6
CONTINUOUS
 10
-1001.6493512429
 20
428.8721774767
 11
-1001.6493512429
 21
312.8721774767
  0
LINE
  5
33A
100
AcDbEntity
  8
0
100
AcDbLine
 62
9
  6
CONTINUOUS
 10
-935.6493512429
 20
312.8721774767
 11
-935.6493512429
 21
428.8721774767
  0
LINE
  5
33B
100
AcDbEntity
  8
0
100
AcDbLine
 62
7
  6
CONTINUOUS
 10
-933.6493512429
 20
293.8721774767
 11
-933.6493512429
 21
447.8721774767
  0
LINE
  5
33C
100
AcDbEntity
  8
0
100
AcDbLine
 62
9
  6
CONTINUOUS
 10
-930.6493512429
 20
290.8721774767
 11
-930.6493512429
 21
450.8721774767
  0
LINE
  5
33D
100
AcDbEntity
  8
02___PRT_ALL_AXES
100
AcDbLine
 62
7
  6
CONTINUOUS
 10
-918.6493512429
 20
45.8723525825
 11
-918.6493512429
 21
105.8720023709
  0
LINE
  5
33E
100
AcDbEntity
  8
02___PRT_ALL_AXES
100
AcDbLine
 62
7
  6
CONTINUOUS
 10
-918.6493512429
 20
145.8721774767
 11
-918.6493512429
 21
265.8721774767
  0
LINE
  5
33F
100
AcDbEntity
  8
0
100
AcDbLine
 62
7
  6
CONTINUOUS
 10
-918.6493512429
 20
290.8721774767
 11
-918.6493512429
 21
450.8721774767
  0
LINE
  5
340
100
AcDbEntity
  8
0
100
AcDbLine
 62
9
  6
CONTINUOUS
 10
-912.6493512429
 20
83.8293949884
 11
-912.6493512429
 21
105.8721774745
  0
LINE
  5
341
100
AcDbEntity
  8
0
100
AcDbLine
 62
9
  6
CONTINUOUS
 10
-912.6493512429
 20
145.8721774767
 11
-912.6493512429
 21
265.8721774767
  0
LINE
  5
342
100
AcDbEntity
  8
0
100
AcDbLine
 62
7
  6
CONTINUOUS
 10
-908.6493512429
 20
85.8773559672
 11
-908.6493512429
 21
407.8905680409
  0
LINE
  5
343
100
AcDbEntity
  8
0
100
AcDbLine
 62
7
  6
CONTINUOUS
 10
-328.6493512429
 20
25.8721774767
 11
-513.6493512429
 21
25.8721774767
  0
LINE
  5
344
100
AcDbEntity
  8
0
100
AcDbLine
 62
7
  6
CONTINUOUS
 10
-728.6493512429
 20
25.8721774767
 11
-778.6493512429
 21
25.8721774767
  0
LINE
  5
345
100
AcDbEntity
  8
0
100
AcDbLine
 62
3
  6
CONTINUOUS
 10
-328.6493512429
 20
28.8721774767
 11
-513.6493512429
 21
28.8721774767
  0
LINE
  5
346
100
AcDbEntity
  8
0
100
AcDbLine
 62
9
  6
CONTINUOUS
 10
-328.6493512429
 20
31.8721774767
 11
-513.6493512429
 21
31.8721774767
  0
LINE
  5
347
100
AcDbEntity
  8
0
100
AcDbLine
 62
7
  6
CONTINUOUS
 10
-878.6493512429
 20
38.8721774767
 11
-778.6493512429
 21
38.8721774767
  0
LINE
  5
348
100
AcDbEntity
  8
0
100
AcDbLine
 62
7
  6
CONTINUOUS
 10
-728.6493512429
 20
38.8721774767
 11
-688.6493512429
 21
38.8721774767
  0
LINE
  5
349
100
AcDbEntity
  8
0
100
AcDbLine
 62
9
  6
CONTINUOUS
 10
-778.6493512429
 20
40.8721774767
 11
-738.6493512429
 21
40.8721774767
  0
LINE
  5
34A
100
AcDbEntity
  8
0
100
AcDbLine
 62
7
  6
CONTINUOUS
 10
-728.6493512429
 20
43.8721774767
 11
-775.6493512429
 21
43.8721774767
  0
LINE
  5
34B
100
AcDbEntity
  8
02___PRT_ALL_AXES
100
AcDbLine
 62
7
  6
CONTINUOUS
 10
-918.6493512429
 20
45.8721774767
 11
-899.3132466516
 21
45.8721774767
  0
LWPOLYLINE
  5
34C
100
AcDbEntity
  8
0
100
AcDbPolyline
 62
7
  6
CONTINUOUS
 90
4
 70
0
 10
-899.3132464359
 20
45.8721220278
 10
-898.9195811686
 20
45.8527034455
 10
-897.6512976062
 20
45.5105201713
 10
-896.8821891425
 20
45.0485970057
  0
LINE
  5
34D
100
AcDbEntity
  8
0
100
AcDbLine
 62
9
  6
CONTINUOUS
 10
-878.6493512429
 20
38.8721774767
 11
-878.6493512429
 21
449.1303564533
  0
LINE
  5
34E
100
AcDbEntity
  8
0
100
AcDbLine
 62
7
  6
CONTINUOUS
 10
-778.6493512429
 20
53.5068749582
 11
-738.6493512429
 21
53.5068749582
  0
LINE
  5
34F
100
AcDbEntity
  8
3_ALL_AXES
100
AcDbLine
 62
7
  6
CONTINUOUS
 10
-658.6493512429
 20
70.8721774767
 11
-658.1493512429
 21
70.8721774767
  0
LINE
  5
350
100
AcDbEntity
  8
0
100
AcDbLine
 62
7
  6
CONTINUOUS
 10
-658.1493512429
 20
70.8721774767
 11
-649.1493512429
 21
70.8721774767
  0
LINE
  5
351
100
AcDbEntity
  8
0
100
AcDbLine
 62
7
  6
CONTINUOUS
 10
-738.6493512429
 20
78.5008353974
 11
-728.6493512429
 21
78.5008353974
  0
LINE
  5
352
100
AcDbEntity
  8
02___PRT_ALL_AXES
100
AcDbLine
 62
7
  6
CONTINUOUS
 10
-842.6493512429
 20
553.8721774767
 11
-842.6493512429
 21
570.8721774767
  0
LINE
  5
353
100
AcDbEntity
  8
0
100
AcDbLine
 62
9
  6
CONTINUOUS
 10
-328.6493512429
 20
87.8721774767
 11
-513.6493512429
 21
87.8721774767
  0
LINE
  5
354
100
AcDbEntity
  8
0
100
AcDbLine
 62
7
  6
CONTINUOUS
 10
-509.1493512429
 20
93.8721774767
 11
-333.1493512429
 21
93.8721774767
  0
LINE
  5
355
100
AcDbEntity
  8
0
100
AcDbLine
 62
3
  6
CONTINUOUS
 10
-328.6493512429
 20
93.8721774767
 11
-333.1493512429
 21
93.8721774767
  0
LINE
  5
356
100
AcDbEntity
  8
0
100
AcDbLine
 62
3
  6
CONTINUOUS
 10
-509.1493512429
 20
93.8721774767
 11
-513.6493512429
 21
93.8721774767
  0
LINE
  5
357
100
AcDbEntity
  8
02___PRT_ALL_AXES
100
AcDbLine
 62
7
  6
CONTINUOUS
 10
-263.4336015261
 20
95.8721774767
 11
-300.1493512429
 21
95.8721774767
  0
LINE
  5
358
100
AcDbEntity
  8
02___PRT_ALL_AXES
100
AcDbLine
 62
7
  6
CONTINUOUS
 10
-310.1493512429
 20
95.8721774767
 11
-333.1493512429
 21
95.8721774767
  0
LINE
  5
359
100
AcDbEntity
  8
02___PRT_ALL_AXES
100
AcDbLine
 62
7
  6
CONTINUOUS
 10
-509.1493512429
 20
95.8721774767
 11
-541.1493511986
 21
95.8721774767
  0
LINE
  5
35A
100
AcDbEntity
  8
0
100
AcDbLine
 62
7
  6
CONTINUOUS
 10
-643.1493512429
 20
105.8721774767
 11
-562.1493512429
 21
105.8721774767
  0
LINE
  5
35B
100
AcDbEntity
  8
0
100
AcDbLine
 62
7
  6
CONTINUOUS
 10
-509.1493512429
 20
105.8721774767
 11
-333.1493512429
 21
105.8721774767
  0
LINE
  5
35C
100
AcDbEntity
  8
02___PRT_ALL_AXES
100
AcDbLine
 62
7
  6
CONTINUOUS
 10
-912.6493512429
 20
105.8721774767
 11
-918.6493512429
 21
105.8721774767
  0
LINE
  5
35D
100
AcDbEntity
  8
0
100
AcDbLine
 62
9
  6
CONTINUOUS
 10
-576.1493512429
 20
107.8721774767
 11
-647.1493512429
 21
107.8721774765
  0
LINE
  5
35E
100
AcDbEntity
  8
0
100
AcDbLine
 62
7
  6
CONTINUOUS
 10
-808.6493512429
 20
477.8721774767
 11
-808.6493512429
 21
448.8721774767
  0
LINE
  5
35F
100
AcDbEntity
  8
0
100
AcDbLine
 62
9
  6
CONTINUOUS
 10
-793.6493512429
 20
480.8721774767
 11
-793.6493512429
 21
465.8721774767
  0
LINE
  5
360
100
AcDbEntity
  8
0
100
AcDbLine
 62
9
  6
CONTINUOUS
 10
-788.6493512429
 20
465.8721774767
 11
-788.6493512429
 21
448.8721774767
  0
LINE
  5
361
100
AcDbEntity
  8
02___PRT_ALL_AXES
100
AcDbLine
 62
7
  6
CONTINUOUS
 10
-786.6493512429
 20
482.8721774767
 11
-786.6493512429
 21
548.8721774767
  0
LINE
  5
362
100
AcDbEntity
  8
0
100
AcDbLine
 62
7
  6
CONTINUOUS
 10
-641.1493512429
 20
115.8721774767
 11
-579.1493512429
 21
115.8721774767
  0
LINE
  5
363
100
AcDbEntity
  8
0
100
AcDbLine
 62
9
  6
CONTINUOUS
 10
-645.1471726798
 20
116.9991941305
 11
-647.1493512429
 21
116.9991941302
  0
LINE
  5
364
100
AcDbEntity
  8
0
100
AcDbLine
 62
9
  6
CONTINUOUS
 10
-576.1493512429
 20
118.8721774767
 11
-644.1493512429
 21
118.8721774767
  0
LINE
  5
365
100
AcDbEntity
  8
0
100
AcDbLine
 62
9
  6
CONTINUOUS
 10
-644.1493512429
 20
135.8721864694
 11
-647.1493512429
 21
135.8721774767
  0
LINE
  5
366
100
AcDbEntity
  8
0
100
AcDbLine
 62
9
  6
CONTINUOUS
 10
-641.1539721462
 20
129.67421883
 11
-644.1493512429
 21
129.8406642175
  0
LINE
  5
367
100
AcDbEntity
  8
0
100
AcDbLine
 62
7
  6
CONTINUOUS
 10
-778.6493512429
 20
25.8721774767
 11
-778.6493512429
 21
53.5068749582
  0
LINE
  5
368
100
AcDbEntity
  8
0
100
AcDbLine
 62
7
  6
CONTINUOUS
 10
-778.6493512429
 20
392.1732530891
 11
-778.6493512429
 21
448.8721774767
  0
LINE
  5
369
100
AcDbEntity
  8
0
100
AcDbLine
 62
9
  6
CONTINUOUS
 10
-766.6493512429
 20
25.8721774767
 11
-766.6493512429
 21
43.8721774767
  0
LINE
  5
36A
100
AcDbEntity
  8
0
100
AcDbLine
 62
9
  6
CONTINUOUS
 10
-758.6493512429
 20
353.5955598816
 11
-758.6493512429
 21
448.8721774767
  0
LINE
  5
36B
100
AcDbEntity
  8
0
100
AcDbLine
 62
9
  6
CONTINUOUS
 10
-579.1004906104
 20
160.6871121046
 11
-576.1493512429
 21
161.2263490041
  0
LINE
  5
36C
100
AcDbEntity
  8
0
100
AcDbLine
 62
7
  6
CONTINUOUS
 10
-918.6493512429
 20
145.8721774767
 11
-912.6493512429
 21
145.8721774767
  0
LINE
  5
36D
100
AcDbEntity
  8
0
100
AcDbLine
 62
9
  6
CONTINUOUS
 10
-561.1493512429
 20
145.8721774767
 11
-576.1493512429
 21
145.8721774767
  0
LINE
  5
36E
100
AcDbEntity
  8
02___PRT_ALL_AXES
100
AcDbLine
 62
7
  6
CONTINUOUS
 10
-912.6493512429
 20
145.8721774767
 11
-918.6493512429
 21
145.8721774767
  0
LINE
  5
36F
100
AcDbEntity
  8
0
100
AcDbLine
 62
9
  6
CONTINUOUS
 10
-580.1493512429
 20
162.2688519154
 11
-604.4071273038
 21
162.2688519154
  0
LINE
  5
370
100
AcDbEntity
  8
0
100
AcDbLine
 62
9
  6
CONTINUOUS
 10
-580.1493512429
 20
165.1437964579
 11
-604.4071273038
 21
165.1437964579
  0
LINE
  5
371
100
AcDbEntity
  8
0
100
AcDbLine
 62
9
  6
CONTINUOUS
 10
-908.6493512429
 20
170.8721774767
 11
-918.6493512429
 21
170.8721774767
  0
LINE
  5
372
100
AcDbEntity
  8
0
100
AcDbLine
 62
7
  6
CONTINUOUS
 10
-738.6493512429
 20
40.8721774767
 11
-738.6493512429
 21
78.5008353974
  0
LINE
  5
373
100
AcDbEntity
  8
0
100
AcDbLine
 62
7
  6
CONTINUOUS
 10
-728.6493512429
 20
25.8721774767
 11
-728.6493512429
 21
78.5008353974
  0
LINE
  5
374
100
AcDbEntity
  8
0
100
AcDbLine
 62
9
  6
CONTINUOUS
 10
-647.1493512429
 20
197.8721774767
 11
-644.1493512429
 21
197.8721774767
  0
LINE
  5
375
100
AcDbEntity
  8
0
100
AcDbLine
 62
9
  6
CONTINUOUS
 10
-576.1493512429
 20
197.8721774767
 11
-574.149351243
 21
197.8721774765
  0
LINE
  5
376
100
AcDbEntity
  8
0
100
AcDbLine
 62
9
  6
CONTINUOUS
 10
-604.4071273038
 20
198.3996500042
 11
-580.1493512429
 21
198.3996500042
  0
LINE
  5
377
100
AcDbEntity
  8
0
100
AcDbLine
 62
7
  6
CONTINUOUS
 10
-579.1493512429
 20
200.8721774767
 11
-644.1493512429
 21
200.8721774767
  0
LINE
  5
378
100
AcDbEntity
  8
0
100
AcDbLine
 62
9
  6
CONTINUOUS
 10
-579.1493512429
 20
202.8721774767
 11
-647.1493512429
 21
202.8721774769
  0
LINE
  5
379
100
AcDbEntity
  8
0
100
AcDbLine
 62
9
  6
CONTINUOUS
 10
-658.6493512429
 20
205.8721774767
 11
-908.6493512429
 21
205.8721774767
  0
LINE
  5
37A
100
AcDbEntity
  8
0
100
AcDbLine
 62
9
  6
CONTINUOUS
 10
-639.572570263
 20
133.5450283907
 11
-641.4953282737
 21
135.8136443663
  0
LINE
  5
37B
100
AcDbEntity
  8
0
100
AcDbLine
 62
9
  6
CONTINUOUS
 10
-639.3698953948
 20
133.7238275314
 11
-641.2916521204
 21
135.9911493235
  0
LINE
  5
37C
100
AcDbEntity
  8
0
100
AcDbLine
 62
9
  6
CONTINUOUS
 10
-698.6493512429
 20
353.5955598816
 11
-698.6493512429
 21
448.8721774767
  0
LINE
  5
37D
100
AcDbEntity
  8
0
100
AcDbLine
 62
9
  6
CONTINUOUS
 10
-579.1493512429
 20
208.8721774767
 11
-647.1493512429
 21
208.8721774765
  0
LINE
  5
37E
100
AcDbEntity
  8
0
100
AcDbLine
 62
7
  6
CONTINUOUS
 10
-644.1493512429
 20
210.8721774767
 11
-579.1493512429
 21
210.8721774767
  0
LINE
  5
37F
100
AcDbEntity
  8
0
100
AcDbLine
 62
9
  6
CONTINUOUS
 10
-580.1493512429
 20
213.3447049492
 11
-604.4071273038
 21
213.3447049492
  0
LINE
  5
380
100
AcDbEntity
  8
0
100
AcDbLine
 62
9
  6
CONTINUOUS
 10
-576.1493512429
 20
213.8721774767
 11
-574.1493512429
 21
213.8721774767
  0
LINE
  5
381
100
AcDbEntity
  8
0
100
AcDbLine
 62
9
  6
CONTINUOUS
 10
-644.1493512429
 20
213.8721774767
 11
-647.1493512429
 21
213.8721774767
  0
LINE
  5
382
100
AcDbEntity
  8
0
100
AcDbLine
 62
7
  6
CONTINUOUS
 10
-561.1493578851
 20
115.8721708689
 11
-541.1493593179
 21
95.8721693574
  0
LINE
  5
383
100
AcDbEntity
  8
0
100
AcDbLine
 62
9
  6
CONTINUOUS
 10
-607.743252158
 20
160.9484803548
 11
-609.5494281813
 21
163.2564763803
  0
LINE
  5
384
100
AcDbEntity
  8
0
100
AcDbLine
 62
9
  6
CONTINUOUS
 10
-688.6493512429
 20
38.8721774767
 11
-688.6493512429
 21
360.5038717807
  0
LINE
  5
385
100
AcDbEntity
  8
0
100
AcDbLine
 62
7
  6
CONTINUOUS
 10
-678.6493512429
 20
389.1401789695
 11
-678.6493512429
 21
448.8721774767
  0
LINE
  5
386
100
AcDbEntity
  8
02___PRT_ALL_AXES
100
AcDbLine
 62
7
  6
CONTINUOUS
 10
-670.6493512429
 20
482.8721774767
 11
-670.6493512429
 21
548.8721774767
  0
LINE
  5
387
100
AcDbEntity
  8
0
100
AcDbLine
 62
9
  6
CONTINUOUS
 10
-668.6493512429
 20
465.8721774767
 11
-668.6493512429
 21
448.8721774767
  0
LINE
  5
388
100
AcDbEntity
  8
0
100
AcDbLine
 62
9
  6
CONTINUOUS
 10
-663.6493512429
 20
480.8721774767
 11
-663.6493512429
 21
465.8721774767
  0
LINE
  5
389
100
AcDbEntity
  8
0
100
AcDbLine
 62
7
  6
CONTINUOUS
 10
-658.6493512429
 20
420.8721774767
 11
-658.6493512429
 21
68.8721783022
  0
LINE
  5
38A
100
AcDbEntity
  8
3_ALL_AXES
100
AcDbLine
 62
7
  6
CONTINUOUS
 10
-658.1493512429
 20
70.8721774767
 11
-658.1493512429
 21
340.8721774767
  0
LINE
  5
38B
100
AcDbEntity
  8
0
100
AcDbLine
 62
7
  6
CONTINUOUS
 10
-658.1493512429
 20
70.8721774767
 11
-658.1493512429
 21
340.8721774767
  0
LINE
  5
38C
100
AcDbEntity
  8
0
100
AcDbLine
 62
9
  6
CONTINUOUS
 10
-908.6493512429
 20
240.8721774767
 11
-918.6493512429
 21
240.8721774767
  0
LINE
  5
38D
100
AcDbEntity
  8
0
100
AcDbLine
 62
9
  6
CONTINUOUS
 10
-604.4071273038
 20
246.6005584954
 11
-580.1493512429
 21
246.6005584954
  0
LINE
  5
38E
100
AcDbEntity
  8
0
100
AcDbLine
 62
9
  6
CONTINUOUS
 10
-604.4071273038
 20
249.4755030379
 11
-580.1493512429
 21
249.4755030379
  0
LINE
  5
38F
100
AcDbEntity
  8
02___PRT_ALL_AXES
100
AcDbLine
 62
7
  6
CONTINUOUS
 10
-1006.6493512429
 20
256.8721774767
 11
-1023.6493512429
 21
256.8721774767
  0
LINE
  5
390
100
AcDbEntity
  8
0
100
AcDbLine
 62
7
  6
CONTINUOUS
 10
-918.6493512429
 20
265.8721774767
 11
-912.6493512429
 21
265.8721774767
  0
LINE
  5
391
100
AcDbEntity
  8
0
100
AcDbLine
 62
9
  6
CONTINUOUS
 10
-561.1493512429
 20
265.8721774767
 11
-576.1493512429
 21
265.8721774767
  0
LINE
  5
392
100
AcDbEntity
  8
0
100
AcDbLine
 62
9
  6
CONTINUOUS
 10
-576.1493512429
 20
250.5180059492
 11
-579.1004906104
 21
251.0572428487
  0
LINE
  5
393
100
AcDbEntity
  8
0
100
AcDbLine
 62
9
  6
CONTINUOUS
 10
-649.1493512429
 20
70.8721774767
 11
-649.1493512429
 21
340.8721774767
  0
LINE
  5
394
100
AcDbEntity
  8
0
100
AcDbLine
 62
7
  6
CONTINUOUS
 10
-648.6493512429
 20
477.8721774767
 11
-648.6493512429
 21
448.8721774767
  0
LINE
  5
395
100
AcDbEntity
  8
0
100
AcDbLine
 62
7
  6
CONTINUOUS
 10
-647.1493512429
 20
72.8721774767
 11
-647.1493512429
 21
338.8721774767
  0
LINE
  5
396
100
AcDbEntity
  8
0
100
AcDbLine
 62
9
  6
CONTINUOUS
 10
-645.6493512415
 20
275.8721774767
 11
-645.6493512429
 21
213.8721774767
  0
LINE
  5
397
100
AcDbEntity
  8
0
100
AcDbLine
 62
9
  6
CONTINUOUS
 10
-645.6493512429
 20
197.8721774767
 11
-645.6493512415
 21
135.8721774759
  0
LINE
  5
398
100
AcDbEntity
  8
0
100
AcDbLine
 62
7
  6
CONTINUOUS
 10
-644.1493512429
 20
292.8721774767
 11
-644.1493512429
 21
213.8721774767
  0
LINE
  5
399
100
AcDbEntity
  8
0
100
AcDbLine
 62
7
  6
CONTINUOUS
 10
-644.1493512429
 20
197.8721774767
 11
-644.1493512429
 21
118.8721774767
  0
LINE
  5
39A
100
AcDbEntity
  8
0
100
AcDbLine
 62
9
  6
CONTINUOUS
 10
-644.1493512429
 20
200.8721774767
 11
-644.1493512429
 21
210.8721774767
  0
LINE
  5
39B
100
AcDbEntity
  8
0
100
AcDbLine
 62
9
  6
CONTINUOUS
 10
-643.1493512429
 20
105.8721774767
 11
-643.1493512429
 21
114.178559997
  0
LINE
  5
39C
100
AcDbEntity
  8
0
100
AcDbLine
 62
9
  6
CONTINUOUS
 10
-643.1493512429
 20
297.5657947167
 11
-643.1493512429
 21
305.8721774767
  0
LINE
  5
39D
100
AcDbEntity
  8
0
100
AcDbLine
 62
9
  6
CONTINUOUS
 10
-641.2916521204
 20
275.7532056298
 11
-641.2916521204
 21
213.6213739796
  0
LINE
  5
39E
100
AcDbEntity
  8
0
100
AcDbLine
 62
9
  6
CONTINUOUS
 10
-641.2916521204
 20
198.1229809738
 11
-641.2916521204
 21
135.9911493235
  0
LINE
  5
39F
100
AcDbEntity
  8
0
100
AcDbLine
 62
9
  6
CONTINUOUS
 10
-641.1493512429
 20
129.3882510053
 11
-641.1493512429
 21
113.8721529764
  0
LINE
  5
3A0
100
AcDbEntity
  8
0
100
AcDbLine
 62
9
  6
CONTINUOUS
 10
-641.1493512429
 20
282.3561039481
 11
-641.1493512429
 21
297.872201973
  0
LINE
  5
3A1
100
AcDbEntity
  8
0
100
AcDbLine
 62
9
  6
CONTINUOUS
 10
-644.1493512429
 20
281.9036907359
 11
-641.1539721462
 21
282.0701361234
  0
LINE
  5
3A2
100
AcDbEntity
  8
0
100
AcDbLine
 62
9
  6
CONTINUOUS
 10
-647.1493512429
 20
275.8721774767
 11
-644.1493512429
 21
275.8721684472
  0
LINE
  5
3A3
100
AcDbEntity
  8
0
100
AcDbLine
 62
7
  6
CONTINUOUS
 10
-930.6493512429
 20
290.8721774767
 11
-908.6493512429
 21
290.8721774767
  0
LINE
  5
3A4
100
AcDbEntity
  8
0
100
AcDbLine
 62
9
  6
CONTINUOUS
 10
-576.1493512429
 20
292.8721774767
 11
-644.1493512429
 21
292.8721774767
  0
LINE
  5
3A5
100
AcDbEntity
  8
0
100
AcDbLine
 62
9
  6
CONTINUOUS
 10
-647.1493512429
 20
294.7451608232
 11
-645.1471725327
 21
294.7451608229
  0
LINE
  5
3A6
100
AcDbEntity
  8
0
100
AcDbLine
 62
7
  6
CONTINUOUS
 10
-579.1493512429
 20
295.8721774767
 11
-641.1493512429
 21
295.8721774767
  0
LINE
  5
3A7
100
AcDbEntity
  8
0
100
AcDbLine
 62
9
  6
CONTINUOUS
 10
-658.6493512429
 20
296.6745619986
 11
-908.6493512429
 21
296.6745619986
  0
LINE
  5
3A8
100
AcDbEntity
  8
0
100
AcDbLine
 62
7
  6
CONTINUOUS
 10
-396.1493512429
 20
298.0676220496
 11
-516.1493512429
 21
298.0676220496
  0
LINE
  5
3A9
100
AcDbEntity
  8
02___PRT_ALL_AXES
100
AcDbLine
 62
7
  6
CONTINUOUS
 10
-614.6493512429
 20
553.8721774767
 11
-614.6493512429
 21
570.8721774767
  0
LINE
  5
3AA
100
AcDbEntity
  8
0
100
AcDbLine
 62
9
  6
CONTINUOUS
 10
-609.5494281813
 20
248.4878785613
 11
-609.5494281813
 21
213.4782380258
  0
LINE
  5
3AB
100
AcDbEntity
  8
0
100
AcDbLine
 62
9
  6
CONTINUOUS
 10
-609.5494281813
 20
198.2661169276
 11
-609.5494281813
 21
163.2564763803
  0
LINE
  5
3AC
100
AcDbEntity
  8
0
100
AcDbLine
 62
9
  6
CONTINUOUS
 10
-604.4071273038
 20
162.2688519154
 11
-604.4071273038
 21
200.8721774767
  0
LINE
  5
3AD
100
AcDbEntity
  8
0
100
AcDbLine
 62
9
  6
CONTINUOUS
 10
-604.4071273038
 20
210.8721774767
 11
-604.4071273038
 21
249.4755030379
  0
LINE
  5
3AE
100
AcDbEntity
  8
0
100
AcDbLine
 62
9
  6
CONTINUOUS
 10
-641.4953282737
 20
275.9307105871
 11
-639.572570263
 21
278.1993265627
  0
LINE
  5
3AF
100
AcDbEntity
  8
0
100
AcDbLine
 62
9
  6
CONTINUOUS
 10
-641.2916521204
 20
275.7532056298
 11
-639.3698954206
 21
278.0205274438
  0
LINE
  5
3B0
100
AcDbEntity
  8
0
100
AcDbLine
 62
9
  6
CONTINUOUS
 10
-576.1493512429
 20
303.8721774767
 11
-647.1493512429
 21
303.8721774769
  0
LINE
  5
3B1
100
AcDbEntity
  8
0
100
AcDbLine
 62
9
  6
CONTINUOUS
 10
-933.6493512429
 20
305.8721774767
 11
-918.6493512429
 21
305.8721774767
  0
LINE
  5
3B2
100
AcDbEntity
  8
3_ALL_AXES
100
AcDbLine
 62
7
  6
CONTINUOUS
 10
-574.1493512429
 20
305.8721774767
 11
-562.1493512429
 21
305.8721774767
  0
LINE
  5
3B3
100
AcDbEntity
  8
0
100
AcDbLine
 62
7
  6
CONTINUOUS
 10
-562.1493512429
 20
305.8721774767
 11
-643.1493512429
 21
305.8721774767
  0
LINE
  5
3B4
100
AcDbEntity
  8
0
100
AcDbLine
 62
9
  6
CONTINUOUS
 10
-918.6493512429
 20
310.8721774767
 11
-908.6493512429
 21
310.8721774767
  0
LINE
  5
3B5
100
AcDbEntity
  8
02___PRT_ALL_AXES
100
AcDbLine
 62
7
  6
CONTINUOUS
 10
-935.6493512429
 20
312.8721774767
 11
-1001.6493512429
 21
312.8721774767
  0
LINE
  5
3B6
100
AcDbEntity
  8
02___PRT_ALL_AXES
100
AcDbLine
 62
7
  6
CONTINUOUS
 10
-263.4336015261
 20
315.8721774767
 11
-300.1493512429
 21
315.8721774767
  0
LINE
  5
3B7
100
AcDbEntity
  8
02___PRT_ALL_AXES
100
AcDbLine
 62
7
  6
CONTINUOUS
 10
-310.1493512429
 20
315.8721774767
 11
-396.1493512429
 21
315.8721774767
  0
LINE
  5
3B8
100
AcDbEntity
  8
02___PRT_ALL_AXES
100
AcDbLine
 62
7
  6
CONTINUOUS
 10
-516.1493512429
 20
315.8721774767
 11
-541.1493511986
 21
315.8721774767
  0
LINE
  5
3B9
100
AcDbEntity
  8
0
100
AcDbLine
 62
9
  6
CONTINUOUS
 10
-580.1493512429
 20
162.2688519154
 11
-580.1493512429
 21
200.8721774767
  0
LINE
  5
3BA
100
AcDbEntity
  8
0
100
AcDbLine
 62
9
  6
CONTINUOUS
 10
-580.1493512429
 20
210.8721774767
 11
-580.1493512429
 21
249.4755030379
  0
LINE
  5
3BB
100
AcDbEntity
  8
0
100
AcDbLine
 62
9
  6
CONTINUOUS
 10
-579.1493512429
 20
210.8721774767
 11
-579.1493512432
 21
208.8721774767
  0
LINE
  5
3BC
100
AcDbEntity
  8
0
100
AcDbLine
 62
9
  6
CONTINUOUS
 10
-579.1493512432
 20
105.8721774767
 11
-579.1493512429
 21
160.4601746581
  0
LINE
  5
3BD
100
AcDbEntity
  8
0
100
AcDbLine
 62
9
  6
CONTINUOUS
 10
-579.1493512429
 20
200.8721774767
 11
-579.1493512429
 21
202.8721774767
  0
LINE
  5
3BE
100
AcDbEntity
  8
0
100
AcDbLine
 62
9
  6
CONTINUOUS
 10
-579.1493512429
 20
251.2841802953
 11
-579.1493512429
 21
305.8721774767
  0
LINE
  5
3BF
100
AcDbEntity
  8
0
100
AcDbLine
 62
7
  6
CONTINUOUS
 10
-576.1493512429
 20
107.8721774767
 11
-576.1493512429
 21
197.8721774767
  0
LINE
  5
3C0
100
AcDbEntity
  8
0
100
AcDbLine
 62
7
  6
CONTINUOUS
 10
-576.1493512429
 20
213.8721774767
 11
-576.1493512429
 21
303.8721774767
  0
LINE
  5
3C1
100
AcDbEntity
  8
0
100
AcDbLine
 62
9
  6
CONTINUOUS
 10
-574.1493512429
 20
105.8721774767
 11
-574.1493512429
 21
197.8721774767
  0
LINE
  5
3C2
100
AcDbEntity
  8
0
100
AcDbLine
 62
9
  6
CONTINUOUS
 10
-574.1493512429
 20
213.8721774767
 11
-574.1493512429
 21
305.8721774767
  0
LINE
  5
3C3
100
AcDbEntity
  8
0
100
AcDbLine
 62
9
  6
CONTINUOUS
 10
-562.1493512429
 20
305.8721774767
 11
-562.1493512429
 21
105.8721774767
  0
LINE
  5
3C4
100
AcDbEntity
  8
0
100
AcDbLine
 62
9
  6
CONTINUOUS
 10
-609.5494281813
 20
248.4878785613
 11
-607.7432491626
 21
250.7958722539
  0
LINE
  5
3C5
100
AcDbEntity
  8
0
100
AcDbLine
 62
7
  6
CONTINUOUS
 10
-561.1493578851
 20
295.8721840845
 11
-541.1493593179
 21
315.872185596
  0
LINE
  5
3C6
100
AcDbEntity
  8
3_ALL_AXES
100
AcDbLine
 62
7
  6
CONTINUOUS
 10
-658.6493512429
 20
340.8721774767
 11
-658.1493512429
 21
340.8721774767
  0
LINE
  5
3C7
100
AcDbEntity
  8
0
100
AcDbLine
 62
7
  6
CONTINUOUS
 10
-658.1493512429
 20
340.8721774767
 11
-649.1493512429
 21
340.8721774767
  0
LINE
  5
3C8
100
AcDbEntity
  8
0
100
AcDbLine
 62
7
  6
CONTINUOUS
 10
-758.6493512429
 20
353.5955598816
 11
-698.6493512429
 21
353.5955598816
  0
LINE
  5
3C9
100
AcDbEntity
  8
0
100
AcDbLine
 62
7
  6
CONTINUOUS
 10
-516.1493512429
 20
357.8721774767
 11
-396.1493512429
 21
357.8721774767
  0
LINE
  5
3CA
100
AcDbEntity
  8
0
100
AcDbLine
 62
7
  6
CONTINUOUS
 10
-561.1493512429
 20
106.0437503519
 11
-561.1493512429
 21
305.7006046014
  0
LINE
  5
3CB
100
AcDbEntity
  8
0
100
AcDbLine
 62
7
  6
CONTINUOUS
 10
-541.1493512965
 20
95.8721774767
 11
-541.1493512965
 21
315.8721774767
  0
LINE
  5
3CC
100
AcDbEntity
  8
0
100
AcDbLine
 62
7
  6
CONTINUOUS
 10
-516.1493512429
 20
298.0676220496
 11
-516.1493512429
 21
357.8721774767
  0
LINE
  5
3CD
100
AcDbEntity
  8
0
100
AcDbLine
 62
7
  6
CONTINUOUS
 10
-513.6493512429
 20
25.8721774767
 11
-513.6493512429
 21
28.8721774767
  0
LINE
  5
3CE
100
AcDbEntity
  8
0
100
AcDbLine
 62
3
  6
CONTINUOUS
 10
-513.6493512429
 20
28.8721774767
 11
-513.6493512429
 21
93.8721774767
  0
LINE
  5
3CF
100
AcDbEntity
  8
0
100
AcDbLine
 62
7
  6
CONTINUOUS
 10
-509.1493512429
 20
93.8721774767
 11
-509.1493512429
 21
105.8721774767
  0
LINE
  5
3D0
100
AcDbEntity
  8
0
100
AcDbLine
 62
9
  6
CONTINUOUS
 10
-498.6493512429
 20
25.8721774767
 11
-498.6493512429
 21
28.8721774767
  0
LINE
  5
3D1
100
AcDbEntity
  8
02___PRT_ALL_AXES
100
AcDbLine
 62
7
  6
CONTINUOUS
 10
-935.6493512429
 20
428.8721774767
 11
-1001.6493512429
 21
428.8721774767
  0
LINE
  5
3D2
100
AcDbEntity
  8
0
100
AcDbLine
 62
9
  6
CONTINUOUS
 10
-901.6724042522
 20
430.8721774767
 11
-918.6493512429
 21
430.8721774767
  0
LINE
  5
3D3
100
AcDbEntity
  8
0
100
AcDbLine
 62
9
  6
CONTINUOUS
 10
-933.6493512429
 20
435.8721774767
 11
-918.6493512429
 21
435.8721774767
  0
LINE
  5
3D4
100
AcDbEntity
  8
0
100
AcDbLine
 62
7
  6
CONTINUOUS
 10
-648.6493512429
 20
448.8721774767
 11
-808.6493512429
 21
448.8721774767
  0
LINE
  5
3D5
100
AcDbEntity
  8
0
100
AcDbLine
 62
9
  6
CONTINUOUS
 10
-808.6493512429
 20
449.1303564533
 11
-878.6493512429
 21
449.1303564533
  0
LINE
  5
3D6
100
AcDbEntity
  8
0
100
AcDbLine
 62
7
  6
CONTINUOUS
 10
-930.6493512429
 20
450.8721774767
 11
-808.6493512429
 21
450.8721774767
  0
LINE
  5
3D7
100
AcDbEntity
  8
0
100
AcDbLine
 62
7
  6
CONTINUOUS
 10
-648.6493512429
 20
465.8721774767
 11
-808.6493512429
 21
465.8721774767
  0
LINE
  5
3D8
100
AcDbEntity
  8
0
100
AcDbLine
 62
9
  6
CONTINUOUS
 10
-808.6493512429
 20
477.8721774767
 11
-648.6493512429
 21
477.8721774767
  0
LINE
  5
3D9
100
AcDbEntity
  8
0
100
AcDbLine
 62
7
  6
CONTINUOUS
 10
-805.6493512429
 20
480.8721774767
 11
-651.6493512429
 21
480.8721774767
  0
LINE
  5
3DA
100
AcDbEntity
  8
0
100
AcDbLine
 62
9
  6
CONTINUOUS
 10
-786.6493512429
 20
482.8721774767
 11
-670.6493512429
 21
482.8721774767
  0
LINE
  5
3DB
100
AcDbEntity
  8
02___PRT_ALL_AXES
100
AcDbLine
 62
7
  6
CONTINUOUS
 10
-1006.6493512429
 20
484.8721774767
 11
-1023.6493512429
 21
484.8721774767
  0
LINE
  5
3DC
100
AcDbEntity
  8
0
100
AcDbLine
 62
7
  6
CONTINUOUS
 10
-396.1493512429
 20
298.0676220496
 11
-396.1493512429
 21
357.8721774767
  0
LINE
  5
3DD
100
AcDbEntity
  8
0
100
AcDbLine
 62
9
  6
CONTINUOUS
 10
-670.6493512429
 20
548.8721774767
 11
-786.6493512429
 21
548.8721774767
  0
LINE
  5
3DE
100
AcDbEntity
  8
0
100
AcDbLine
 62
7
  6
CONTINUOUS
 10
-839.6493512429
 20
550.8721774767
 11
-617.6493512429
 21
550.8721774767
  0
LINE
  5
3DF
100
AcDbEntity
  8
0
100
AcDbLine
 62
9
  6
CONTINUOUS
 10
-614.6493512429
 20
553.8721774767
 11
-842.6493512429
 21
553.8721774767
  0
LINE
  5
3E0
100
AcDbEntity
  8
0
100
AcDbLine
 62
7
  6
CONTINUOUS
 10
-300.1493512429
 20
305.8721774767
 11
-310.1493512429
 21
315.8721774767
  0
LINE
  5
3E1
100
AcDbEntity
  8
0
100
AcDbLine
 62
9
  6
CONTINUOUS
 10
-343.6493512429
 20
25.8721774767
 11
-343.6493512429
 21
28.8721774767
  0
LINE
  5
3E2
100
AcDbEntity
  8
02___PRT_ALL_AXES
100
AcDbLine
 62
7
  6
CONTINUOUS
 10
-842.648685841
 20
570.8721774767
 11
-614.6500166449
 21
570.8721774767
  0
LINE
  5
3E3
100
AcDbEntity
  8
0
100
AcDbLine
 62
7
  6
CONTINUOUS
 10
-241.0072138572
 20
301.7300593779
 11
-249.2914644666
 21
310.0143116541
  0
LINE
  5
3E4
100
AcDbEntity
  8
0
100
AcDbLine
 62
7
  6
CONTINUOUS
 10
-333.1493512429
 20
93.8721774767
 11
-333.1493512429
 21
105.8721774767
  0
LINE
  5
3E5
100
AcDbEntity
  8
0
100
AcDbLine
 62
7
  6
CONTINUOUS
 10
-328.6493512429
 20
25.8721774767
 11
-328.6493512429
 21
28.8721774767
  0
LINE
  5
3E6
100
AcDbEntity
  8
0
100
AcDbLine
 62
3
  6
CONTINUOUS
 10
-328.6493512429
 20
28.8721774767
 11
-328.6493512429
 21
93.8721774767
  0
LINE
  5
3E7
100
AcDbEntity
  8
0
100
AcDbLine
 62
7
  6
CONTINUOUS
 10
-310.1493512429
 20
95.8721774767
 11
-310.1493512429
 21
315.8721774767
  0
LINE
  5
3E8
100
AcDbEntity
  8
0
100
AcDbLine
 62
7
  6
CONTINUOUS
 10
-300.1493512429
 20
95.8734667081
 11
-300.1493512429
 21
315.8708882453
  0
LINE
  5
3E9
100
AcDbEntity
  8
0
100
AcDbLine
 62
9
  6
CONTINUOUS
 10
-263.433601525
 20
95.8721774769
 11
-263.433601525
 21
315.8721774765
  0
LINE
  5
3EA
100
AcDbEntity
  8
0
100
AcDbLine
 62
9
  6
CONTINUOUS
 10
-249.2914644641
 20
101.730043302
 11
-249.2914644641
 21
310.0143116514
  0
LINE
  5
3EB
100
AcDbEntity
  8
0
100
AcDbLine
 62
7
  6
CONTINUOUS
 10
-300.1493512429
 20
105.8721774767
 11
-310.1493512429
 21
95.8721774767
  0
LINE
  5
3EC
100
AcDbEntity
  8
0
100
AcDbLine
 62
9
  6
CONTINUOUS
 10
-241.0072138578
 20
301.7300593786
 11
-241.0072138578
 21
110.0142955748
  0
LINE
  5
3ED
100
AcDbEntity
  8
0
100
AcDbLine
 62
7
  6
CONTINUOUS
 10
-235.1493512429
 20
287.587918362
 11
-235.1493512429
 21
124.1564365914
  0
LINE
  5
3EE
100
AcDbEntity
  8
0
100
AcDbLine
 62
7
  6
CONTINUOUS
 10
-241.0072138572
 20
110.0142955755
 11
-249.2914644666
 21
101.7300432992
  0
LINE
  5
3EF
100
AcDbEntity
  8
0
100
AcDbLine
 62
7
  6
CONTINUOUS
 10
1816.9718113249
 20
25.8721774767
 11
1866.9718113249
 21
25.8721774767
  0
LINE
  5
3F0
100
AcDbEntity
  8
0
100
AcDbLine
 62
7
  6
CONTINUOUS
 10
2056.9718113249
 20
25.8721774767
 11
2106.9718113249
 21
25.8721774767
  0
LINE
  5
3F1
100
AcDbEntity
  8
0
100
AcDbLine
 62
3
  6
CONTINUOUS
 10
1816.9718113249
 20
28.8721774767
 11
1843.9718113249
 21
28.8721774767
  0
LINE
  5
3F2
100
AcDbEntity
  8
0
100
AcDbLine
 62
3
  6
CONTINUOUS
 10
2079.9718113249
 20
28.8721774767
 11
2106.9718113249
 21
28.8721774767
  0
LINE
  5
3F3
100
AcDbEntity
  8
0
100
AcDbLine
 62
9
  6
CONTINUOUS
 10
2076.9718113249
 20
31.8721774767
 11
2073.9718113249
 21
31.8721774767
  0
LINE
  5
3F4
100
AcDbEntity
  8
0
100
AcDbLine
 62
9
  6
CONTINUOUS
 10
1846.9718113249
 20
31.8721774767
 11
1849.9718113249
 21
31.8721774767
  0
LINE
  5
3F5
100
AcDbEntity
  8
0
100
AcDbLine
 62
7
  6
CONTINUOUS
 10
1876.1139469487
 20
38.8721774767
 11
2047.8296757012
 21
38.8721774767
  0
LINE
  5
3F6
100
AcDbEntity
  8
0
100
AcDbLine
 62
9
  6
CONTINUOUS
 10
2076.9718113249
 20
87.8721774767
 11
2073.9718113249
 21
87.8721774767
  0
LINE
  5
3F7
100
AcDbEntity
  8
0
100
AcDbLine
 62
9
  6
CONTINUOUS
 10
1846.9718113249
 20
87.8721774767
 11
1849.9718113249
 21
87.8721774767
  0
LINE
  5
3F8
100
AcDbEntity
  8
0
100
AcDbLine
 62
7
  6
CONTINUOUS
 10
1852.9718113249
 20
90.8721774767
 11
2070.9718113249
 21
90.8721774767
  0
LINE
  5
3F9
100
AcDbEntity
  8
0
100
AcDbLine
 62
7
  6
CONTINUOUS
 10
1851.9718113249
 20
93.8721774767
 11
1852.9718113249
 21
93.8721774767
  0
LINE
  5
3FA
100
AcDbEntity
  8
0
100
AcDbLine
 62
3
  6
CONTINUOUS
 10
1852.9718113249
 20
93.8721774767
 11
2070.9718113249
 21
93.8721774767
  0
LINE
  5
3FB
100
AcDbEntity
  8
0
100
AcDbLine
 62
7
  6
CONTINUOUS
 10
2070.9718113249
 20
93.8721774767
 11
2071.9718113249
 21
93.8721774767
  0
LINE
  5
3FC
100
AcDbEntity
  8
0
100
AcDbLine
 62
7
  6
CONTINUOUS
 10
1723.9718113249
 20
570.8721774767
 11
1723.9718113249
 21
553.8721774767
  0
LINE
  5
3FD
100
AcDbEntity
  8
02___PRT_ALL_AXES
100
AcDbLine
 62
7
  6
CONTINUOUS
 10
1723.9718113249
 20
553.8721774767
 11
1723.9718113249
 21
570.8721774767
  0
LINE
  5
3FE
100
AcDbEntity
  8
0
100
AcDbLine
 62
7
  6
CONTINUOUS
 10
1851.9718113249
 20
105.8721774767
 11
1916.1460543754
 21
105.8721774767
  0
LINE
  5
3FF
100
AcDbEntity
  8
0
100
AcDbLine
 62
7
  6
CONTINUOUS
 10
2007.7975682745
 20
105.8721774767
 11
2071.9718113249
 21
105.8721774767
  0
LINE
  5
400
100
AcDbEntity
  8
0
100
AcDbLine
 62
7
  6
CONTINUOUS
 10
2021.9718113249
 20
106.0437503519
 11
2008.0906768242
 21
106.0437503519
  0
LINE
  5
401
100
AcDbEntity
  8
0
100
AcDbLine
 62
7
  6
CONTINUOUS
 10
1915.8529458257
 20
106.0437503519
 11
1901.9718113249
 21
106.0437503519
  0
LINE
  5
402
100
AcDbEntity
  8
0
100
AcDbLine
 62
7
  6
CONTINUOUS
 10
1757.9718113249
 20
477.8721774767
 11
1757.9718113249
 21
448.8721774767
  0
LINE
  5
403
100
AcDbEntity
  8
0
100
AcDbLine
 62
9
  6
CONTINUOUS
 10
1772.9718113249
 20
480.8721774767
 11
1772.9718113249
 21
465.8721774767
  0
LINE
  5
404
100
AcDbEntity
  8
0
100
AcDbLine
 62
9
  6
CONTINUOUS
 10
1777.9718113249
 20
465.8721774767
 11
1777.9718113249
 21
448.8721774767
  0
LINE
  5
405
100
AcDbEntity
  8
0
100
AcDbLine
 62
7
  6
CONTINUOUS
 10
1777.9718113249
 20
296.6745619986
 11
1777.9718113249
 21
205.8721774767
  0
LINE
  5
406
100
AcDbEntity
  8
0
100
AcDbLine
 62
7
  6
CONTINUOUS
 10
1779.9718113249
 20
482.8721774767
 11
1779.9718113249
 21
548.8721774767
  0
LINE
  5
407
100
AcDbEntity
  8
02___PRT_ALL_AXES
100
AcDbLine
 62
7
  6
CONTINUOUS
 10
1779.9718113249
 20
482.8721774767
 11
1779.9718113249
 21
548.8721774767
  0
LINE
  5
408
100
AcDbEntity
  8
0
100
AcDbLine
 62
9
  6
CONTINUOUS
 10
1862.1433842002
 20
145.8721774767
 11
1861.9718113249
 21
145.8721774767
  0
LINE
  5
409
100
AcDbEntity
  8
0
100
AcDbLine
 62
9
  6
CONTINUOUS
 10
2061.8002384497
 20
145.8721774767
 11
2061.9718113249
 21
145.8721774767
  0
LINE
  5
40A
100
AcDbEntity
  8
0
100
AcDbLine
 62
7
  6
CONTINUOUS
 10
1787.9718113249
 20
353.5955598816
 11
1787.9718113249
 21
448.8721774767
  0
LINE
  5
40B
100
AcDbEntity
  8
0
100
AcDbLine
 62
9
  6
CONTINUOUS
 10
1807.9718113249
 20
296.6745619986
 11
1807.9718113249
 21
205.8721774767
  0
LINE
  5
40C
100
AcDbEntity
  8
0
100
AcDbLine
 62
9
  6
CONTINUOUS
 10
1807.9718113249
 20
389.1401789695
 11
1807.9718113249
 21
448.8721774767
  0
LINE
  5
40D
100
AcDbEntity
  8
0
100
AcDbLine
 62
7
  6
CONTINUOUS
 10
1816.9718113249
 20
25.8721774767
 11
1816.9718113249
 21
43.8721774767
  0
LINE
  5
40E
100
AcDbEntity
  8
0
100
AcDbLine
 62
9
  6
CONTINUOUS
 10
1807.9718113249
 20
205.8721774767
 11
1777.9718113249
 21
205.8721774767
  0
LINE
  5
40F
100
AcDbEntity
  8
0
100
AcDbLine
 62
9
  6
CONTINUOUS
 10
2096.8895729735
 20
205.8721774767
 11
2111.9718113249
 21
205.8721774767
  0
LINE
  5
410
100
AcDbEntity
  8
0
100
AcDbLine
 62
7
  6
CONTINUOUS
 10
2056.9718113249
 20
29.730041853
 11
2047.8296757012
 21
38.8721774767
  0
LINE
  5
411
100
AcDbEntity
  8
0
100
AcDbLine
 62
9
  6
CONTINUOUS
 10
1831.9718113249
 20
25.8721774767
 11
1831.9718113249
 21
28.8721774767
  0
LINE
  5
412
100
AcDbEntity
  8
0
100
AcDbLine
 62
9
  6
CONTINUOUS
 10
1843.9718113249
 20
28.8721774767
 11
1843.9718113249
 21
25.8721774767
  0
LINE
  5
413
100
AcDbEntity
  8
0
100
AcDbLine
 62
3
  6
CONTINUOUS
 10
1846.9718113249
 20
31.8721774767
 11
1846.9718113249
 21
87.8721774767
  0
LINE
  5
414
100
AcDbEntity
  8
0
100
AcDbLine
 62
7
  6
CONTINUOUS
 10
1849.9718113249
 20
31.8721774767
 11
1849.9718113249
 21
87.8721774767
  0
LINE
  5
415
100
AcDbEntity
  8
0
100
AcDbLine
 62
7
  6
CONTINUOUS
 10
1851.9718113249
 20
93.8721774767
 11
1851.9718113249
 21
105.8721774767
  0
LINE
  5
416
100
AcDbEntity
  8
0
100
AcDbLine
 62
9
  6
CONTINUOUS
 10
1852.9718113249
 20
93.8721774767
 11
1852.9718113249
 21
90.8721774767
  0
LINE
  5
417
100
AcDbEntity
  8
0
100
AcDbLine
 62
7
  6
CONTINUOUS
 10
1861.9718113249
 20
265.8721774767
 11
1861.9718113249
 21
251.6768307068
  0
LINE
  5
418
100
AcDbEntity
  8
0
100
AcDbLine
 62
7
  6
CONTINUOUS
 10
1861.9718113249
 20
160.0675242466
 11
1861.9718113249
 21
145.8721774767
  0
LINE
  5
419
100
AcDbEntity
  8
0
100
AcDbLine
 62
7
  6
CONTINUOUS
 10
1862.1433842002
 20
145.8721774767
 11
1862.1433842002
 21
159.7533119851
  0
LINE
  5
41A
100
AcDbEntity
  8
0
100
AcDbLine
 62
7
  6
CONTINUOUS
 10
1862.1433842002
 20
251.9910429682
 11
1862.1433842002
 21
265.8721774767
  0
LINE
  5
41B
100
AcDbEntity
  8
02___PRT_ALL_AXES
100
AcDbLine
 62
7
  6
CONTINUOUS
 10
1866.9718113249
 20
25.8721774767
 11
1866.9718113249
 21
29.730041853
  0
LINE
  5
41C
100
AcDbEntity
  8
0
100
AcDbLine
 62
7
  6
CONTINUOUS
 10
1895.9718113249
 20
482.8721774767
 11
1895.9718113249
 21
548.8721774767
  0
LINE
  5
41D
100
AcDbEntity
  8
02___PRT_ALL_AXES
100
AcDbLine
 62
7
  6
CONTINUOUS
 10
1895.9718113249
 20
482.8721774767
 11
1895.9718113249
 21
548.8721774767
  0
LINE
  5
41E
100
AcDbEntity
  8
0
100
AcDbLine
 62
9
  6
CONTINUOUS
 10
1897.9718113249
 20
465.8721774767
 11
1897.9718113249
 21
448.8721774767
  0
LINE
  5
41F
100
AcDbEntity
  8
0
100
AcDbLine
 62
9
  6
CONTINUOUS
 10
1862.1433842002
 20
265.8721774767
 11
1861.9718113249
 21
265.8721774767
  0
LINE
  5
420
100
AcDbEntity
  8
0
100
AcDbLine
 62
9
  6
CONTINUOUS
 10
2061.8002384497
 20
265.8721774767
 11
2061.9718113249
 21
265.8721774767
  0
LINE
  5
421
100
AcDbEntity
  8
0
100
AcDbLine
 62
7
  6
CONTINUOUS
 10
1901.9718113249
 20
298.0676220496
 11
1901.9718113249
 21
357.8721774767
  0
LINE
  5
422
100
AcDbEntity
  8
0
100
AcDbLine
 62
9
  6
CONTINUOUS
 10
1902.9718113249
 20
480.8721774767
 11
1902.9718113249
 21
465.8721774767
  0
LINE
  5
423
100
AcDbEntity
  8
0
100
AcDbLine
 62
7
  6
CONTINUOUS
 10
1917.9718113249
 20
477.8721774767
 11
1917.9718113249
 21
448.8721774767
  0
LINE
  5
424
100
AcDbEntity
  8
0
100
AcDbLine
 62
9
  6
CONTINUOUS
 10
1807.9718113249
 20
296.6745619986
 11
1777.9718113249
 21
296.6745619986
  0
LINE
  5
425
100
AcDbEntity
  8
0
100
AcDbLine
 62
9
  6
CONTINUOUS
 10
2081.9718113249
 20
296.6745619986
 11
2111.9718113249
 21
296.6745619981
  0
LINE
  5
426
100
AcDbEntity
  8
0
100
AcDbLine
 62
7
  6
CONTINUOUS
 10
1939.9718113249
 20
465.8721774767
 11
1939.9718113249
 21
454.8721774767
  0
LINE
  5
427
100
AcDbEntity
  8
0
100
AcDbLine
 62
7
  6
CONTINUOUS
 10
1951.9718113249
 20
570.8721774767
 11
1951.9718113249
 21
553.8721774767
  0
LINE
  5
428
100
AcDbEntity
  8
02___PRT_ALL_AXES
100
AcDbLine
 62
7
  6
CONTINUOUS
 10
1951.9718113249
 20
553.8721774767
 11
1951.9718113249
 21
570.8721774767
  0
LINE
  5
429
100
AcDbEntity
  8
0
100
AcDbLine
 62
7
  6
CONTINUOUS
 10
1836.9646762971
 20
78.5008353974
 11
1816.9718113249
 21
43.8721774767
  0
LINE
  5
42A
100
AcDbEntity
  8
0
100
AcDbLine
 62
7
  6
CONTINUOUS
 10
2106.9718113249
 20
43.8721774767
 11
2074.3829790452
 21
100.3176907446
  0
LINE
  5
42B
100
AcDbEntity
  8
0
100
AcDbLine
 62
7
  6
CONTINUOUS
 10
1901.9718113249
 20
357.8721774767
 11
2021.9718113249
 21
357.8721774767
  0
LINE
  5
42C
100
AcDbEntity
  8
0
100
AcDbLine
 62
9
  6
CONTINUOUS
 10
2004.9718112793
 20
450.8719828422
 11
2004.9718113249
 21
454.8721774769
  0
LINE
  5
42D
100
AcDbEntity
  8
0
100
AcDbLine
 62
7
  6
CONTINUOUS
 10
2021.9718113249
 20
298.0676220496
 11
2021.9718113249
 21
357.8721774767
  0
LINE
  5
42E
100
AcDbEntity
  8
0
100
AcDbLine
 62
9
  6
CONTINUOUS
 10
2002.7987376944
 20
420.8721774767
 11
1887.1448883741
 21
420.8721774767
  0
LINE
  5
42F
100
AcDbEntity
  8
02___PRT_ALL_AXES
100
AcDbLine
 62
7
  6
CONTINUOUS
 10
2056.9718113249
 20
25.8721774767
 11
2056.9718113249
 21
29.730041853
  0
LINE
  5
430
100
AcDbEntity
  8
0
100
AcDbLine
 62
7
  6
CONTINUOUS
 10
2061.8002384497
 20
265.8721774767
 11
2061.8002384497
 21
251.9910429682
  0
LINE
  5
431
100
AcDbEntity
  8
0
100
AcDbLine
 62
7
  6
CONTINUOUS
 10
2061.8002384497
 20
159.7533119851
 11
2061.8002384497
 21
145.8721774767
  0
LINE
  5
432
100
AcDbEntity
  8
0
100
AcDbLine
 62
7
  6
CONTINUOUS
 10
2061.9718113249
 20
145.8721774767
 11
2061.9718113249
 21
160.0675242466
  0
LINE
  5
433
100
AcDbEntity
  8
0
100
AcDbLine
 62
7
  6
CONTINUOUS
 10
2061.9718113249
 20
251.6768307068
 11
2061.9718113249
 21
265.8721774767
  0
LINE
  5
434
100
AcDbEntity
  8
0
100
AcDbLine
 62
7
  6
CONTINUOUS
 10
2069.9718113249
 20
465.8721774767
 11
2069.9718113249
 21
408.9242836018
  0
LINE
  5
435
100
AcDbEntity
  8
0
100
AcDbLine
 62
9
  6
CONTINUOUS
 10
2070.9718113249
 20
93.8721774767
 11
2070.9718113249
 21
90.8721774767
  0
LINE
  5
436
100
AcDbEntity
  8
0
100
AcDbLine
 62
7
  6
CONTINUOUS
 10
2071.9718113249
 20
93.8721774767
 11
2071.9718113249
 21
105.8721774767
  0
LINE
  5
437
100
AcDbEntity
  8
0
100
AcDbLine
 62
7
  6
CONTINUOUS
 10
2073.9718113249
 20
87.8721774767
 11
2073.9718113249
 21
31.8721774767
  0
LINE
  5
438
100
AcDbEntity
  8
0
100
AcDbLine
 62
3
  6
CONTINUOUS
 10
2076.9718113249
 20
87.8721774767
 11
2076.9718113249
 21
31.8721774767
  0
LINE
  5
439
100
AcDbEntity
  8
0
100
AcDbLine
 62
7
  6
CONTINUOUS
 10
1876.1139469487
 20
38.8721774767
 11
1866.9718113249
 21
29.730041853
  0
LINE
  5
43A
100
AcDbEntity
  8
0
100
AcDbLine
 62
7
  6
CONTINUOUS
 10
1917.9718113249
 20
448.8721774767
 11
1757.9718113249
 21
448.8721774767
  0
LINE
  5
43B
100
AcDbEntity
  8
0
100
AcDbLine
 62
7
  6
CONTINUOUS
 10
2004.9718081316
 20
450.8721774767
 11
1917.9718113249
 21
450.8721774767
  0
LINE
  5
43C
100
AcDbEntity
  8
0
100
AcDbLine
 62
9
  6
CONTINUOUS
 10
1939.9718113249
 20
454.8721774767
 11
2004.9718113249
 21
454.8721774767
  0
LINE
  5
43D
100
AcDbEntity
  8
0
100
AcDbLine
 62
9
  6
CONTINUOUS
 10
2079.9718113249
 20
28.8721774767
 11
2079.9718113249
 21
25.8721774767
  0
LINE
  5
43E
100
AcDbEntity
  8
0
100
AcDbLine
 62
9
  6
CONTINUOUS
 10
2081.9718113249
 20
250.5937381074
 11
2081.9718113249
 21
256.8214749372
  0
LINE
  5
43F
100
AcDbEntity
  8
0
100
AcDbLine
 62
9
  6
CONTINUOUS
 10
2081.9718113249
 20
267.7066103626
 11
2081.9718113249
 21
296.6745619986
  0
LINE
  5
440
100
AcDbEntity
  8
0
100
AcDbLine
 62
9
  6
CONTINUOUS
 10
2091.9718113249
 20
25.8721774767
 11
2091.9718113249
 21
28.8721774767
  0
LINE
  5
441
100
AcDbEntity
  8
0
100
AcDbLine
 62
7
  6
CONTINUOUS
 10
1917.9718113249
 20
465.8721774767
 11
1757.9718113249
 21
465.8721774767
  0
LINE
  5
442
100
AcDbEntity
  8
02___PRT_ALL_AXES
100
AcDbLine
 62
7
  6
CONTINUOUS
 10
1939.9718113249
 20
465.8721774767
 11
2069.9718113249
 21
465.8721774767
  0
LINE
  5
443
100
AcDbEntity
  8
0
100
AcDbLine
 62
9
  6
CONTINUOUS
 10
1757.9718113249
 20
477.8721774767
 11
1917.9718113249
 21
477.8721774767
  0
LINE
  5
444
100
AcDbEntity
  8
0
100
AcDbLine
 62
7
  6
CONTINUOUS
 10
2106.9718113249
 20
25.8721774767
 11
2106.9718113249
 21
43.8721774767
  0
LINE
  5
445
100
AcDbEntity
  8
0
100
AcDbLine
 62
7
  6
CONTINUOUS
 10
2111.9718113249
 20
205.8721774767
 11
2111.9718113249
 21
296.6745619986
  0
LINE
  5
446
100
AcDbEntity
  8
0
100
AcDbLine
 62
7
  6
CONTINUOUS
 10
1760.9718113249
 20
480.8721774767
 11
1914.9718113249
 21
480.8721774767
  0
LINE
  5
447
100
AcDbEntity
  8
0
100
AcDbLine
 62
9
  6
CONTINUOUS
 10
1779.9718113249
 20
482.8721774767
 11
1895.9718113249
 21
482.8721774767
  0
LINE
  5
448
100
AcDbEntity
  8
0
100
AcDbLine
 62
9
  6
CONTINUOUS
 10
1895.9718113249
 20
548.8721774767
 11
1779.9718113249
 21
548.8721774767
  0
LINE
  5
449
100
AcDbEntity
  8
0
100
AcDbLine
 62
7
  6
CONTINUOUS
 10
1948.9718113249
 20
550.8721774767
 11
1726.9718113249
 21
550.8721774767
  0
LINE
  5
44A
100
AcDbEntity
  8
0
100
AcDbLine
 62
9
  6
CONTINUOUS
 10
1951.9718113249
 20
553.8721774767
 11
1723.9718113249
 21
553.8721774767
  0
LINE
  5
44B
100
AcDbEntity
  8
02___PRT_ALL_AXES
100
AcDbLine
 62
7
  6
CONTINUOUS
 10
1723.9718113249
 20
570.8721774767
 11
1951.9718113249
 21
570.8721774767
  0
LINE
  5
44C
100
AcDbEntity
  8
0
100
AcDbLine
 62
7
  6
CONTINUOUS
 10
674.3336390749
 20
-471.752200328
 11
674.3336390749
 21
-308.3207042494
  0
LINE
  5
44D
100
AcDbEntity
  8
0
100
AcDbLine
 62
9
  6
CONTINUOUS
 10
680.1915020284
 20
-485.8943345294
 11
680.1915020284
 21
-294.1785700484
  0
LINE
  5
44E
100
AcDbEntity
  8
0
100
AcDbLine
 62
9
  6
CONTINUOUS
 10
688.4757523221
 20
-285.8943180879
 11
688.4757523221
 21
-494.1785864899
  0
LINE
  5
44F
100
AcDbEntity
  8
0
100
AcDbLine
 62
9
  6
CONTINUOUS
 10
702.6178893686
 20
-280.0364522889
 11
702.6178893686
 21
-500.0364522889
  0
LINE
  5
450
100
AcDbEntity
  8
0
100
AcDbLine
 62
7
  6
CONTINUOUS
 10
680.1915020284
 20
-485.8943345294
 11
688.4757523221
 21
-494.1785864899
  0
LINE
  5
451
100
AcDbEntity
  8
0
100
AcDbLine
 62
7
  6
CONTINUOUS
 10
739.3336390749
 20
-280.0364522889
 11
739.3336390749
 21
-500.0364522889
  0
LINE
  5
452
100
AcDbEntity
  8
0
100
AcDbLine
 62
7
  6
CONTINUOUS
 10
749.3336390749
 20
-280.0364522889
 11
749.3336390749
 21
-500.0364522889
  0
LINE
  5
453
100
AcDbEntity
  8
0
100
AcDbLine
 62
7
  6
CONTINUOUS
 10
739.3336390749
 20
-490.0364522889
 11
749.3336390749
 21
-500.0364522889
  0
LINE
  5
454
100
AcDbEntity
  8
0
100
AcDbLine
 62
3
  6
CONTINUOUS
 10
767.8336390749
 20
-260.0364522889
 11
767.8336390749
 21
-280.0364522889
  0
LINE
  5
455
100
AcDbEntity
  8
0
100
AcDbLine
 62
3
  6
CONTINUOUS
 10
767.8336390749
 20
-500.0364522889
 11
767.8336390749
 21
-520.0364522889
  0
LINE
  5
456
100
AcDbEntity
  8
0
100
AcDbLine
 62
7
  6
CONTINUOUS
 10
680.1915020284
 20
-294.1785700484
 11
688.4757523221
 21
-285.8943180879
  0
LINE
  5
457
100
AcDbEntity
  8
02___PRT_ALL_AXES
100
AcDbLine
 62
3
  6
CONTINUOUS
 10
784.3336390749
 20
-522.0364522889
 11
784.3336390749
 21
-518.0364522889
  0
LINE
  5
458
100
AcDbEntity
  8
02___PRT_ALL_AXES
100
AcDbLine
 62
3
  6
CONTINUOUS
 10
784.3336390749
 20
-262.0364522889
 11
784.3336390749
 21
-258.0364522889
  0
LINE
  5
459
100
AcDbEntity
  8
02___PRT_ALL_AXES
100
AcDbLine
 62
3
  6
CONTINUOUS
 10
796.3336390749
 20
-258.0364522889
 11
796.3336390749
 21
-262.0364522889
  0
LINE
  5
45A
100
AcDbEntity
  8
02___PRT_ALL_AXES
100
AcDbLine
 62
3
  6
CONTINUOUS
 10
796.3336390749
 20
-518.0364522889
 11
796.3336390749
 21
-522.0364522889
  0
LINE
  5
45B
100
AcDbEntity
  8
0
100
AcDbLine
 62
7
  6
CONTINUOUS
 10
739.3336390749
 20
-290.0364522889
 11
749.3336390749
 21
-280.0364522889
  0
LINE
  5
45C
100
AcDbEntity
  8
0
100
AcDbLine
 62
7
  6
CONTINUOUS
 10
835.3336390749
 20
-330.0364522889
 11
835.3336390749
 21
-450.0364522889
  0
LINE
  5
45D
100
AcDbEntity
  8
0
100
AcDbLine
 62
7
  6
CONTINUOUS
 10
1317.8336390749
 20
-540.0364522889
 11
1127.8336390749
 21
-540.0364522889
  0
LINE
  5
45E
100
AcDbEntity
  8
0
100
AcDbLine
 62
3
  6
CONTINUOUS
 10
782.8336390749
 20
-535.0364522889
 11
937.8336390749
 21
-535.0364522889
  0
LINE
  5
45F
100
AcDbEntity
  8
0
100
AcDbLine
 62
7
  6
CONTINUOUS
 10
1097.3336390749
 20
-525.0364522889
 11
1088.3336390749
 21
-525.0364522889
  0
LINE
  5
460
100
AcDbEntity
  8
3_ALL_AXES
100
AcDbLine
 62
7
  6
CONTINUOUS
 10
1097.3336390749
 20
-525.0364522889
 11
1097.8336390749
 21
-525.0364522889
  0
LINE
  5
461
100
AcDbEntity
  8
02___PRT_ALL_AXES
100
AcDbLine
 62
3
  6
CONTINUOUS
 10
924.3336390749
 20
-522.0364522889
 11
924.3336390749
 21
-518.0364522889
  0
LINE
  5
462
100
AcDbEntity
  8
02___PRT_ALL_AXES
100
AcDbLine
 62
3
  6
CONTINUOUS
 10
924.3336390749
 20
-262.0364522889
 11
924.3336390749
 21
-258.0364522889
  0
LINE
  5
463
100
AcDbEntity
  8
0
100
AcDbLine
 62
9
  6
CONTINUOUS
 10
767.8336390749
 20
-508.0364522889
 11
952.8336390749
 21
-508.0364522889
  0
LINE
  5
464
100
AcDbEntity
  8
0
100
AcDbLine
 62
3
  6
CONTINUOUS
 10
767.8336390749
 20
-505.0364522889
 11
952.8336390749
 21
-505.0364522889
  0
LINE
  5
465
100
AcDbEntity
  8
0
100
AcDbLine
 62
7
  6
CONTINUOUS
 10
702.6178893686
 20
-500.0364522889
 11
739.3336390749
 21
-500.0364522889
  0
LINE
  5
466
100
AcDbEntity
  8
02___PRT_ALL_AXES
100
AcDbLine
 62
7
  6
CONTINUOUS
 10
702.6178893686
 20
-500.0364522889
 11
739.3336390749
 21
-500.0364522889
  0
LINE
  5
467
100
AcDbEntity
  8
02___PRT_ALL_AXES
100
AcDbLine
 62
7
  6
CONTINUOUS
 10
749.3336390749
 20
-500.0364522889
 11
980.3336390749
 21
-500.0364522889
  0
LINE
  5
468
100
AcDbEntity
  8
0
100
AcDbLine
 62
7
  6
CONTINUOUS
 10
749.3336390749
 20
-500.0364522889
 11
980.3336390749
 21
-500.0364522889
  0
LINE
  5
469
100
AcDbEntity
  8
3_ALL_AXES
100
AcDbLine
 62
7
  6
CONTINUOUS
 10
1013.3336390749
 20
-490.0364522889
 11
1001.3336390749
 21
-490.0364522889
  0
LINE
  5
46A
100
AcDbEntity
  8
0
100
AcDbLine
 62
7
  6
CONTINUOUS
 10
1001.3336390749
 20
-490.0364522889
 11
1083.3336390749
 21
-490.0364522889
  0
LINE
  5
46B
100
AcDbEntity
  8
02___PRT_ALL_AXES
100
AcDbLine
 62
3
  6
CONTINUOUS
 10
936.3336390749
 20
-258.0364522889
 11
936.3336390749
 21
-262.0364522889
  0
LINE
  5
46C
100
AcDbEntity
  8
02___PRT_ALL_AXES
100
AcDbLine
 62
3
  6
CONTINUOUS
 10
936.3336390749
 20
-518.0364522889
 11
936.3336390749
 21
-522.0364522889
  0
LINE
  5
46D
100
AcDbEntity
  8
0
100
AcDbLine
 62
3
  6
CONTINUOUS
 10
952.8336390749
 20
-260.0364522889
 11
952.8336390749
 21
-280.0364522889
  0
LINE
  5
46E
100
AcDbEntity
  8
0
100
AcDbLine
 62
3
  6
CONTINUOUS
 10
952.8336390749
 20
-500.0364522889
 11
952.8336390749
 21
-520.0364522889
  0
LINE
  5
46F
100
AcDbEntity
  8
0
100
AcDbLine
 62
7
  6
CONTINUOUS
 10
955.3336390749
 20
-450.0364522889
 11
955.3336390749
 21
-330.0364522889
  0
LINE
  5
470
100
AcDbEntity
  8
0
100
AcDbLine
 62
9
  6
CONTINUOUS
 10
1015.3336390749
 20
-488.0364522889
 11
1086.3336390749
 21
-488.0364522889
  0
LINE
  5
471
100
AcDbEntity
  8
0
100
AcDbLine
 62
7
  6
CONTINUOUS
 10
1462.8336390749
 20
-487.0364522889
 11
1445.8336390749
 21
-487.0364522889
  0
LINE
  5
472
100
AcDbEntity
  8
02___PRT_ALL_AXES
100
AcDbLine
 62
7
  6
CONTINUOUS
 10
1445.8336390749
 20
-487.0364522889
 11
1462.8336390749
 21
-487.0364522889
  0
LINE
  5
473
100
AcDbEntity
  8
0
100
AcDbLine
 62
9
  6
CONTINUOUS
 10
1086.3336390749
 20
-478.9094356351
 11
1083.3336390749
 21
-478.9094356351
  0
LINE
  5
474
100
AcDbEntity
  8
0
100
AcDbLine
 62
9
  6
CONTINUOUS
 10
1083.3336390749
 20
-472.6644376367
 11
1080.3336390749
 21
-472.6644376367
  0
LINE
  5
475
100
AcDbEntity
  8
0
100
AcDbLine
 62
9
  6
CONTINUOUS
 10
1083.3336390749
 20
-466.7553613562
 11
1080.3336390749
 21
-466.7553613562
  0
LINE
  5
476
100
AcDbEntity
  8
0
100
AcDbLine
 62
7
  6
CONTINUOUS
 10
1357.8336390749
 20
-463.0364522889
 11
1351.8336390749
 21
-463.0364522889
  0
LINE
  5
477
100
AcDbEntity
  8
0
100
AcDbLine
 62
9
  6
CONTINUOUS
 10
1083.3336390749
 20
-460.0364432594
 11
1086.3336390749
 21
-460.0364522889
  0
LINE
  5
478
100
AcDbEntity
  8
0
100
AcDbLine
 62
7
  6
CONTINUOUS
 10
980.3336390749
 20
-280.0364522889
 11
980.3336390749
 21
-500.0364522889
  0
LINE
  5
479
100
AcDbEntity
  8
0
100
AcDbLine
 62
7
  6
CONTINUOUS
 10
1369.8336390749
 20
-453.0364522889
 11
1340.8566920842
 21
-453.0364522889
  0
LINE
  5
47A
100
AcDbEntity
  8
0
100
AcDbLine
 62
7
  6
CONTINUOUS
 10
835.3336390749
 20
-450.0364522889
 11
955.3336390749
 21
-450.0364522889
  0
LINE
  5
47B
100
AcDbEntity
  8
0
100
AcDbLine
 62
9
  6
CONTINUOUS
 10
1000.3336390749
 20
-450.0364522889
 11
1015.3336390749
 21
-450.0364522889
  0
LINE
  5
47C
100
AcDbEntity
  8
0
100
AcDbLine
 62
9
  6
CONTINUOUS
 10
1201.5006035895
 20
-441.199717595
 11
1317.8336390749
 21
-441.199717595
  0
LINE
  5
47D
100
AcDbEntity
  8
0
100
AcDbLine
 62
9
  6
CONTINUOUS
 10
1127.8336390897
 20
-441.1996828835
 11
1134.1666745603
 21
-441.199717595
  0
LINE
  5
47E
100
AcDbEntity
  8
0
100
AcDbLine
 62
9
  6
CONTINUOUS
 10
1372.8336390749
 20
-438.0364522889
 11
1357.8336390749
 21
-438.0364522889
  0
LINE
  5
47F
100
AcDbEntity
  8
0
100
AcDbLine
 62
9
  6
CONTINUOUS
 10
1015.3336390749
 20
-435.8431111935
 11
1018.3336390749
 21
-435.8431111935
  0
LINE
  5
480
100
AcDbEntity
  8
0
100
AcDbLine
 62
9
  6
CONTINUOUS
 10
1043.5914151358
 20
-434.8276344568
 11
1019.3336390749
 21
-434.8276344568
  0
LINE
  5
481
100
AcDbEntity
  8
0
100
AcDbLine
 62
9
  6
CONTINUOUS
 10
1083.3336390749
 20
-434.0364522889
 11
1086.3336390749
 21
-434.0364522889
  0
LINE
  5
482
100
AcDbEntity
  8
0
100
AcDbLine
 62
9
  6
CONTINUOUS
 10
1357.8336390749
 20
-433.0364522889
 11
1197.8336415515
 21
-433.0364522889
  0
LINE
  5
483
100
AcDbEntity
  8
0
100
AcDbLine
 62
9
  6
CONTINUOUS
 10
1015.3336390749
 20
-433.0364522889
 11
1013.3336390749
 21
-433.0364522889
  0
LINE
  5
484
100
AcDbEntity
  8
0
100
AcDbLine
 62
9
  6
CONTINUOUS
 10
1137.8336428784
 20
-433.0364522889
 11
1127.8336390749
 21
-433.0364490956
  0
LINE
  5
485
100
AcDbEntity
  8
0
100
AcDbLine
 62
9
  6
CONTINUOUS
 10
1043.5914151358
 20
-431.8743696985
 11
1019.3336390749
 21
-431.8743696985
  0
LINE
  5
486
100
AcDbEntity
  8
0
100
AcDbLine
 62
7
  6
CONTINUOUS
 10
1374.8336390749
 20
-431.0364522889
 11
1440.8336390749
 21
-431.0364522889
  0
LINE
  5
487
100
AcDbEntity
  8
02___PRT_ALL_AXES
100
AcDbLine
 62
7
  6
CONTINUOUS
 10
1374.8336390749
 20
-431.0364522889
 11
1440.8336390749
 21
-431.0364522889
  0
LINE
  5
488
100
AcDbEntity
  8
0
100
AcDbLine
 62
7
  6
CONTINUOUS
 10
1082.3336390749
 20
-430.0364522889
 11
1018.3336390749
 21
-430.0364522889
  0
LINE
  5
489
100
AcDbEntity
  8
0
100
AcDbLine
 62
7
  6
CONTINUOUS
 10
1000.3336390749
 20
-290.2080251641
 11
1000.3336390749
 21
-489.8648794136
  0
LINE
  5
48A
100
AcDbEntity
  8
0
100
AcDbLine
 62
9
  6
CONTINUOUS
 10
1001.3336390749
 20
-490.0364522889
 11
1001.3336390749
 21
-290.0364522889
  0
LINE
  5
48B
100
AcDbEntity
  8
0
100
AcDbLine
 62
9
  6
CONTINUOUS
 10
1013.3336390749
 20
-290.0364522889
 11
1013.3336390749
 21
-347.0364522889
  0
LINE
  5
48C
100
AcDbEntity
  8
0
100
AcDbLine
 62
9
  6
CONTINUOUS
 10
1013.3336390749
 20
-433.0364522889
 11
1013.3336390749
 21
-490.0364522889
  0
LINE
  5
48D
100
AcDbEntity
  8
0
100
AcDbLine
 62
9
  6
CONTINUOUS
 10
1018.3336390749
 20
-428.0364522889
 11
1086.3336390749
 21
-428.0364522889
  0
LINE
  5
48E
100
AcDbEntity
  8
0
100
AcDbLine
 62
7
  6
CONTINUOUS
 10
1015.3336390749
 20
-292.0364522889
 11
1015.3336390749
 21
-347.0364522889
  0
LINE
  5
48F
100
AcDbEntity
  8
0
100
AcDbLine
 62
7
  6
CONTINUOUS
 10
1015.3336390749
 20
-433.0364522889
 11
1015.3336390749
 21
-488.0364522889
  0
LINE
  5
490
100
AcDbEntity
  8
0
100
AcDbLine
 62
9
  6
CONTINUOUS
 10
1018.3336390749
 20
-430.0364522889
 11
1018.3336390751
 21
-428.0364522889
  0
LINE
  5
491
100
AcDbEntity
  8
0
100
AcDbLine
 62
9
  6
CONTINUOUS
 10
1018.3336390751
 20
-290.0364522889
 11
1018.3336390749
 21
-344.2297933843
  0
LINE
  5
492
100
AcDbEntity
  8
0
100
AcDbLine
 62
9
  6
CONTINUOUS
 10
1018.3336390749
 20
-350.0364522889
 11
1018.3336390749
 21
-352.0364522889
  0
LINE
  5
493
100
AcDbEntity
  8
0
100
AcDbLine
 62
9
  6
CONTINUOUS
 10
1018.3336390749
 20
-435.8431111935
 11
1018.3336390749
 21
-490.0364522889
  0
LINE
  5
494
100
AcDbEntity
  8
0
100
AcDbLine
 62
9
  6
CONTINUOUS
 10
1019.3336390749
 20
-345.245270121
 11
1019.3336390749
 21
-350.0364522889
  0
LINE
  5
495
100
AcDbEntity
  8
0
100
AcDbLine
 62
9
  6
CONTINUOUS
 10
1019.3336390749
 20
-430.0364522889
 11
1019.3336390749
 21
-434.8276344568
  0
LINE
  5
496
100
AcDbEntity
  8
0
100
AcDbLine
 62
9
  6
CONTINUOUS
 10
1043.5914151358
 20
-350.0364522889
 11
1043.5914151358
 21
-345.245270121
  0
LINE
  5
497
100
AcDbEntity
  8
0
100
AcDbLine
 62
9
  6
CONTINUOUS
 10
1043.5914151358
 20
-430.0364522889
 11
1043.5914151358
 21
-434.8276344568
  0
LINE
  5
498
100
AcDbEntity
  8
0
100
AcDbLine
 62
9
  6
CONTINUOUS
 10
1048.7337160133
 20
-433.7513316158
 11
1048.7337160133
 21
-430.0364522889
  0
LINE
  5
499
100
AcDbEntity
  8
0
100
AcDbLine
 62
9
  6
CONTINUOUS
 10
1048.7337160133
 20
-350.0364522889
 11
1048.7337160133
 21
-346.3215729619
  0
LINE
  5
49A
100
AcDbEntity
  8
0
100
AcDbLine
 62
9
  6
CONTINUOUS
 10
1018.3336390749
 20
-352.0364522889
 11
1086.3336390749
 21
-352.0364522889
  0
LINE
  5
49B
100
AcDbEntity
  8
0
100
AcDbLine
 62
7
  6
CONTINUOUS
 10
1018.3336390749
 20
-350.0364522889
 11
1082.3336390749
 21
-350.0364522889
  0
LINE
  5
49C
100
AcDbEntity
  8
0
100
AcDbLine
 62
9
  6
CONTINUOUS
 10
1019.3336390749
 20
-348.1985348793
 11
1043.5914151358
 21
-348.1985348793
  0
LINE
  5
49D
100
AcDbEntity
  8
0
100
AcDbLine
 62
9
  6
CONTINUOUS
 10
1015.3336390749
 20
-347.0364522889
 11
1013.333639075
 21
-347.0364522886
  0
LINE
  5
49E
100
AcDbEntity
  8
0
100
AcDbLine
 62
9
  6
CONTINUOUS
 10
1083.3336390749
 20
-346.0364522889
 11
1086.3336390749
 21
-346.0364522889
  0
LINE
  5
49F
100
AcDbEntity
  8
0
100
AcDbLine
 62
7
  6
CONTINUOUS
 10
1125.0102918079
 20
-346.0364522889
 11
1141.3717829548
 21
-346.0364522889
  0
LINE
  5
4A0
100
AcDbEntity
  8
0
100
AcDbLine
 62
7
  6
CONTINUOUS
 10
1194.2954012339
 20
-346.0364522889
 11
1210.6569154628
 21
-346.0364522889
  0
LINE
  5
4A1
100
AcDbEntity
  8
0
100
AcDbLine
 62
9
  6
CONTINUOUS
 10
1019.3336390749
 20
-345.245270121
 11
1043.5914151358
 21
-345.245270121
  0
LINE
  5
4A2
100
AcDbEntity
  8
0
100
AcDbLine
 62
9
  6
CONTINUOUS
 10
1015.3336390749
 20
-344.2297933843
 11
1018.3336390749
 21
-344.2297933843
  0
LINE
  5
4A3
100
AcDbEntity
  8
0
100
AcDbLine
 62
9
  6
CONTINUOUS
 10
1127.1299529847
 20
-343.0364522889
 11
1139.2771482767
 21
-343.0364522889
  0
LINE
  5
4A4
100
AcDbEntity
  8
0
100
AcDbLine
 62
9
  6
CONTINUOUS
 10
1196.3893736395
 20
-343.0364522889
 11
1208.5378965962
 21
-343.0364522889
  0
LINE
  5
4A5
100
AcDbEntity
  8
0
100
AcDbLine
 62
7
  6
CONTINUOUS
 10
1000.3336457001
 20
-300.0364456642
 11
980.3336471723
 21
-280.036444192
  0
LINE
  5
4A6
100
AcDbEntity
  8
0
100
AcDbLine
 62
9
  6
CONTINUOUS
 10
1048.7337160082
 20
-346.321572956
 11
1046.8053531843
 21
-344.0574553615
  0
LINE
  5
4A7
100
AcDbEntity
  8
0
100
AcDbLine
 62
9
  6
CONTINUOUS
 10
1080.3336390749
 20
-472.6644376367
 11
1080.3336390749
 21
-466.7553613562
  0
LINE
  5
4A8
100
AcDbEntity
  8
0
100
AcDbLine
 62
9
  6
CONTINUOUS
 10
1080.3336390749
 20
-311.4870883891
 11
1080.3336390749
 21
-307.4084669411
  0
LINE
  5
4A9
100
AcDbEntity
  8
0
100
AcDbLine
 62
9
  6
CONTINUOUS
 10
1080.4759399524
 20
-460.6188697996
 11
1080.4759399524
 21
-430.0364522889
  0
LINE
  5
4AA
100
AcDbEntity
  8
0
100
AcDbLine
 62
9
  6
CONTINUOUS
 10
1080.4759399524
 20
-350.0364522889
 11
1080.4759399524
 21
-339.2147983559
  0
LINE
  5
4AB
100
AcDbEntity
  8
0
100
AcDbLine
 62
9
  6
CONTINUOUS
 10
1082.3336390749
 20
-350.0364522889
 11
1082.3336390749
 21
-430.0364522889
  0
LINE
  5
4AC
100
AcDbEntity
  8
0
100
AcDbLine
 62
7
  6
CONTINUOUS
 10
1083.3336390749
 20
-472.6644376312
 11
1083.3336390749
 21
-430.1638015211
  0
LINE
  5
4AD
100
AcDbEntity
  8
0
100
AcDbLine
 62
7
  6
CONTINUOUS
 10
1083.3336390749
 20
-349.9090941944
 11
1083.3336390749
 21
-342.3913188382
  0
LINE
  5
4AE
100
AcDbEntity
  8
0
100
AcDbLine
 62
7
  6
CONTINUOUS
 10
1083.3336390749
 20
-310.7728888556
 11
1083.3336390749
 21
-307.4084669465
  0
LINE
  5
4AF
100
AcDbEntity
  8
0
100
AcDbLine
 62
9
  6
CONTINUOUS
 10
1083.3336390749
 20
-291.7739209568
 11
1083.3336390749
 21
-301.1634689427
  0
LINE
  5
4B0
100
AcDbEntity
  8
0
100
AcDbLine
 62
9
  6
CONTINUOUS
 10
1083.3336390749
 20
-478.9094356351
 11
1083.3336390749
 21
-490.0364522889
  0
LINE
  5
4B1
100
AcDbEntity
  8
0
100
AcDbLine
 62
9
  6
CONTINUOUS
 10
1084.8336390735
 20
-460.0364522889
 11
1084.8336295307
 21
-434.0364522889
  0
LINE
  5
4B2
100
AcDbEntity
  8
0
100
AcDbLine
 62
9
  6
CONTINUOUS
 10
1084.8336295297
 20
-346.0364522889
 11
1084.8336300704
 21
-344.1419715483
  0
LINE
  5
4B3
100
AcDbEntity
  8
0
100
AcDbLine
 62
7
  6
CONTINUOUS
 10
1086.3336390749
 20
-523.0364522889
 11
1086.3336390749
 21
-345.5428822438
  0
LINE
  5
4B4
100
AcDbEntity
  8
0
100
AcDbLine
 62
7
  6
CONTINUOUS
 10
1086.3336390749
 20
-309.3478464551
 11
1086.3336390749
 21
-291.9803330366
  0
LINE
  5
4B5
100
AcDbEntity
  8
0
100
AcDbLine
 62
7
  6
CONTINUOUS
 10
1087.8336390749
 20
-223.2131050219
 11
1087.8336390749
 21
-239.5745961688
  0
LINE
  5
4B6
100
AcDbEntity
  8
0
100
AcDbLine
 62
7
  6
CONTINUOUS
 10
1087.8336390749
 20
-292.4982144479
 11
1087.8336390749
 21
-308.8597286768
  0
LINE
  5
4B7
100
AcDbEntity
  8
0
100
AcDbLine
 62
9
  6
CONTINUOUS
 10
1088.3336390749
 20
-347.5823980351
 11
1088.3336390749
 21
-525.0364522889
  0
LINE
  5
4B8
100
AcDbEntity
  8
0
100
AcDbLine
 62
9
  6
CONTINUOUS
 10
1090.8336390749
 20
-225.3327661986
 11
1090.8336390749
 21
-237.4799614907
  0
LINE
  5
4B9
100
AcDbEntity
  8
0
100
AcDbLine
 62
9
  6
CONTINUOUS
 10
1090.8336390749
 20
-294.5921868534
 11
1090.8336390749
 21
-306.7407098102
  0
LINE
  5
4BA
100
AcDbEntity
  8
3_ALL_AXES
100
AcDbLine
 62
7
  6
CONTINUOUS
 10
1097.3336390749
 20
-355.4868437999
 11
1097.3336390749
 21
-525.0364516289
  0
LINE
  5
4BB
100
AcDbEntity
  8
0
100
AcDbLine
 62
7
  6
CONTINUOUS
 10
1097.3336390749
 20
-355.4868437999
 11
1097.3336390749
 21
-525.0363771581
  0
LINE
  5
4BC
100
AcDbEntity
  8
0
100
AcDbLine
 62
7
  6
CONTINUOUS
 10
1097.8336390749
 20
-510.0364522889
 11
1097.8336390749
 21
-355.78879387
  0
LINE
  5
4BD
100
AcDbEntity
  8
3_ALL_AXES
100
AcDbLine
 62
7
  6
CONTINUOUS
 10
1097.8336390749
 20
-510.0364522889
 11
1097.8336390749
 21
-525.0364516289
  0
LINE
  5
4BE
100
AcDbEntity
  8
0
100
AcDbLine
 62
7
  6
CONTINUOUS
 10
955.3336390749
 20
-330.0364522889
 11
835.3336390749
 21
-330.0364522889
  0
LINE
  5
4BF
100
AcDbEntity
  8
0
100
AcDbLine
 62
9
  6
CONTINUOUS
 10
1000.3336390749
 20
-330.0364522889
 11
1015.3336390749
 21
-330.0364522889
  0
LINE
  5
4C0
100
AcDbEntity
  8
0
100
AcDbLine
 62
7
  6
CONTINUOUS
 10
1374.8336390749
 20
-315.0364522889
 11
1440.8336390749
 21
-315.0364522889
  0
LINE
  5
4C1
100
AcDbEntity
  8
02___PRT_ALL_AXES
100
AcDbLine
 62
7
  6
CONTINUOUS
 10
1374.8336390749
 20
-315.0364522889
 11
1440.8336390749
 21
-315.0364522889
  0
LINE
  5
4C2
100
AcDbEntity
  8
0
100
AcDbLine
 62
9
  6
CONTINUOUS
 10
1357.8336390749
 20
-313.0364522889
 11
1271.5931926116
 21
-313.0364522889
  0
LINE
  5
4C3
100
AcDbEntity
  8
0
100
AcDbLine
 62
9
  6
CONTINUOUS
 10
1127.8336390749
 20
-540.0364522889
 11
1127.8336390749
 21
-372.6698284639
  0
LINE
  5
4C4
100
AcDbEntity
  8
0
100
AcDbLine
 62
9
  6
CONTINUOUS
 10
1127.8336390749
 20
-362.5036898958
 11
1127.8336390749
 21
-346.0364522889
  0
LINE
  5
4C5
100
AcDbEntity
  8
0
100
AcDbLine
 62
9
  6
CONTINUOUS
 10
1048.7337139822
 20
-433.7513340007
 11
1046.8053531843
 21
-436.0154492162
  0
LINE
  5
4C6
100
AcDbEntity
  8
0
100
AcDbLine
 62
7
  6
CONTINUOUS
 10
1000.3336457003
 20
-480.0364589134
 11
980.3336471726
 21
-500.0364603855
  0
LINE
  5
4C7
100
AcDbEntity
  8
0
100
AcDbLine
 62
9
  6
CONTINUOUS
 10
1372.8336390749
 20
-308.0364522889
 11
1357.8336390749
 21
-308.0364522889
  0
LINE
  5
4C8
100
AcDbEntity
  8
0
100
AcDbLine
 62
9
  6
CONTINUOUS
 10
1083.3336390749
 20
-307.4084669411
 11
1080.3336390749
 21
-307.4084669411
  0
LINE
  5
4C9
100
AcDbEntity
  8
0
100
AcDbLine
 62
9
  6
CONTINUOUS
 10
1247.8336390749
 20
-304.8731869828
 11
1264.7548825258
 21
-304.8731869828
  0
LINE
  5
4CA
100
AcDbEntity
  8
0
100
AcDbLine
 62
9
  6
CONTINUOUS
 10
1274.9645060778
 20
-304.8731869828
 11
1317.8336390749
 21
-304.8731869828
  0
LINE
  5
4CB
100
AcDbEntity
  8
0
100
AcDbLine
 62
9
  6
CONTINUOUS
 10
1086.3336390749
 20
-301.1634689427
 11
1083.3336390749
 21
-301.1634689427
  0
LINE
  5
4CC
100
AcDbEntity
  8
0
100
AcDbLine
 62
7
  6
CONTINUOUS
 10
1340.8566920842
 20
-293.0364522889
 11
1369.8336390749
 21
-293.0364522889
  0
LINE
  5
4CD
100
AcDbEntity
  8
0
100
AcDbLine
 62
9
  6
CONTINUOUS
 10
1057.0042614099
 20
-292.0364522889
 11
1015.3336390749
 21
-292.0364522889
  0
LINE
  5
4CE
100
AcDbEntity
  8
0
100
AcDbLine
 62
9
  6
CONTINUOUS
 10
1081.9030275341
 20
-292.0364522889
 11
1086.3336390749
 21
-292.0364522889
  0
LINE
  5
4CF
100
AcDbEntity
  8
0
100
AcDbLine
 62
7
  6
CONTINUOUS
 10
1056.4438876772
 20
-290.0364522889
 11
1001.3336390749
 21
-290.0364522889
  0
LINE
  5
4D0
100
AcDbEntity
  8
0
100
AcDbLine
 62
9
  6
CONTINUOUS
 10
1084.8336390746
 20
-304.2859679421
 11
1082.9586390749
 21
-301.9440936925
  0
LINE
  5
4D1
100
AcDbEntity
  8
0
100
AcDbLine
 62
9
  6
CONTINUOUS
 10
1080.4759399513
 20
-460.6188698009
 11
1078.5475771233
 21
-462.9032765947
  0
LINE
  5
4D2
100
AcDbEntity
  8
0
100
AcDbLine
 62
7
  6
CONTINUOUS
 10
1357.8336390749
 20
-283.0364522889
 11
1351.8336390749
 21
-283.0364522889
  0
LINE
  5
4D3
100
AcDbEntity
  8
0
100
AcDbLine
 62
7
  6
CONTINUOUS
 10
702.6178893686
 20
-280.0364522889
 11
739.3336390749
 21
-280.0364522889
  0
LINE
  5
4D4
100
AcDbEntity
  8
02___PRT_ALL_AXES
100
AcDbLine
 62
7
  6
CONTINUOUS
 10
702.6178893686
 20
-280.0364522889
 11
739.3336390749
 21
-280.0364522889
  0
LINE
  5
4D5
100
AcDbEntity
  8
0
100
AcDbLine
 62
7
  6
CONTINUOUS
 10
749.3336390749
 20
-280.0364522889
 11
980.3336390749
 21
-280.0364522889
  0
LINE
  5
4D6
100
AcDbEntity
  8
02___PRT_ALL_AXES
100
AcDbLine
 62
7
  6
CONTINUOUS
 10
749.3336390749
 20
-280.0364522889
 11
980.3336390749
 21
-280.0364522889
  0
LINE
  5
4D7
100
AcDbEntity
  8
0
100
AcDbLine
 62
3
  6
CONTINUOUS
 10
767.8336390749
 20
-275.0364522889
 11
952.8336390749
 21
-275.0364522889
  0
LINE
  5
4D8
100
AcDbEntity
  8
0
100
AcDbLine
 62
9
  6
CONTINUOUS
 10
767.8336390749
 20
-272.0364522889
 11
952.8336390749
 21
-272.0364522889
  0
LINE
  5
4D9
100
AcDbEntity
  8
0
100
AcDbLine
 62
7
  6
CONTINUOUS
 10
1462.8336390749
 20
-259.0364522889
 11
1445.8336390749
 21
-259.0364522889
  0
LINE
  5
4DA
100
AcDbEntity
  8
02___PRT_ALL_AXES
100
AcDbLine
 62
7
  6
CONTINUOUS
 10
1445.8336390749
 20
-259.0364522889
 11
1462.8336390749
 21
-259.0364522889
  0
LINE
  5
4DB
100
AcDbEntity
  8
0
100
AcDbLine
 62
9
  6
CONTINUOUS
 10
1084.8336390751
 20
-475.786936636
 11
1082.9586390751
 21
-478.1288108854
  0
LINE
  5
4DC
100
AcDbEntity
  8
0
100
AcDbLine
 62
3
  6
CONTINUOUS
 10
782.8336390749
 20
-245.0364522889
 11
937.8336390749
 21
-245.0364522889
  0
LINE
  5
4DD
100
AcDbEntity
  8
0
100
AcDbLine
 62
7
  6
CONTINUOUS
 10
1264.6830966078
 20
-206.0364522889
 11
1317.8336390749
 21
-206.0364522889
  0
LINE
  5
4DE
100
AcDbEntity
  8
0
100
AcDbLine
 62
9
  6
CONTINUOUS
 10
1244.8336390749
 20
-306.7401383791
 11
1244.8336390749
 21
-294.5929430871
  0
LINE
  5
4DF
100
AcDbEntity
  8
0
100
AcDbLine
 62
9
  6
CONTINUOUS
 10
1244.8336390749
 20
-237.4807177243
 11
1244.8336390749
 21
-225.3321947676
  0
LINE
  5
4E0
100
AcDbEntity
  8
0
100
AcDbLine
 62
7
  6
CONTINUOUS
 10
1247.8336390749
 20
-308.8597995558
 11
1247.8336390749
 21
-292.498308409
  0
LINE
  5
4E1
100
AcDbEntity
  8
0
100
AcDbLine
 62
7
  6
CONTINUOUS
 10
1247.8336390749
 20
-239.5746901299
 11
1247.8336390749
 21
-223.213175901
  0
LINE
  5
4E2
100
AcDbEntity
  8
0
100
AcDbLine
 62
9
  6
CONTINUOUS
 10
1208.5373251651
 20
-189.0364522889
 11
1196.3901298731
 21
-189.0364522889
  0
LINE
  5
4E3
100
AcDbEntity
  8
0
100
AcDbLine
 62
9
  6
CONTINUOUS
 10
1139.2779045103
 20
-189.0364522889
 11
1127.1293815536
 21
-189.0364522889
  0
LINE
  5
4E4
100
AcDbEntity
  8
0
100
AcDbLine
 62
7
  6
CONTINUOUS
 10
1210.6569863419
 20
-186.0364522889
 11
1194.295495195
 21
-186.0364522889
  0
LINE
  5
4E5
100
AcDbEntity
  8
0
100
AcDbLine
 62
7
  6
CONTINUOUS
 10
1141.3718769159
 20
-186.0364522889
 11
1125.010362687
 21
-186.0364522889
  0
LINE
  5
4E6
100
AcDbEntity
  8
0
100
AcDbLine
 62
9
  6
CONTINUOUS
 10
1317.8336390749
 20
-206.0364522889
 11
1317.8336390749
 21
-304.8731869828
  0
LINE
  5
4E7
100
AcDbEntity
  8
0
100
AcDbLine
 62
9
  6
CONTINUOUS
 10
1317.8336390749
 20
-441.199717595
 11
1317.8336390749
 21
-540.0364522889
  0
LINE
  5
4E8
100
AcDbEntity
  8
0
100
AcDbLine
 62
7
  6
CONTINUOUS
 10
1347.8336390749
 20
-510.0364522889
 11
1347.8336390749
 21
-453.0364522889
  0
LINE
  5
4E9
100
AcDbEntity
  8
0
100
AcDbLine
 62
7
  6
CONTINUOUS
 10
1347.8336390749
 20
-293.0364522889
 11
1347.8336390749
 21
-236.0364522889
  0
LINE
  5
4EA
100
AcDbEntity
  8
0
100
AcDbLine
 62
9
  6
CONTINUOUS
 10
1351.8336390749
 20
-283.0364522889
 11
1351.8336390749
 21
-293.0364522889
  0
LINE
  5
4EB
100
AcDbEntity
  8
0
100
AcDbLine
 62
9
  6
CONTINUOUS
 10
1351.8336390749
 20
-453.0364522889
 11
1351.8336390749
 21
-463.0364522889
  0
LINE
  5
4EC
100
AcDbEntity
  8
02___PRT_ALL_AXES
100
AcDbLine
 62
7
  6
CONTINUOUS
 10
1357.8336390749
 20
-283.0364522889
 11
1357.8336390749
 21
-293.0364522889
  0
LINE
  5
4ED
100
AcDbEntity
  8
0
100
AcDbLine
 62
7
  6
CONTINUOUS
 10
1357.8336390749
 20
-293.0364522889
 11
1357.8336390749
 21
-453.0364522889
  0
LINE
  5
4EE
100
AcDbEntity
  8
02___PRT_ALL_AXES
100
AcDbLine
 62
7
  6
CONTINUOUS
 10
1357.8336390749
 20
-453.0364522889
 11
1357.8336390749
 21
-463.0364522889
  0
LINE
  5
4EF
100
AcDbEntity
  8
0
100
AcDbLine
 62
9
  6
CONTINUOUS
 10
1369.8336390749
 20
-293.0364522889
 11
1369.8336390749
 21
-453.0364522889
  0
LINE
  5
4F0
100
AcDbEntity
  8
0
100
AcDbLine
 62
7
  6
CONTINUOUS
 10
1372.8336390749
 20
-296.0364522889
 11
1372.8336390749
 21
-450.0364522889
  0
LINE
  5
4F1
100
AcDbEntity
  8
0
100
AcDbLine
 62
9
  6
CONTINUOUS
 10
1374.8336390749
 20
-315.0364522889
 11
1374.8336390749
 21
-431.0364522889
  0
LINE
  5
4F2
100
AcDbEntity
  8
0
100
AcDbLine
 62
9
  6
CONTINUOUS
 10
1440.8336390749
 20
-431.0364522889
 11
1440.8336390749
 21
-315.0364522889
  0
LINE
  5
4F3
100
AcDbEntity
  8
0
100
AcDbLine
 62
7
  6
CONTINUOUS
 10
1442.8336390749
 20
-484.0364522889
 11
1442.8336390749
 21
-262.0364522889
  0
LINE
  5
4F4
100
AcDbEntity
  8
0
100
AcDbLine
 62
9
  6
CONTINUOUS
 10
1445.8336390749
 20
-487.0364522889
 11
1445.8336390749
 21
-259.0364522889
  0
LINE
  5
4F5
100
AcDbEntity
  8
02___PRT_ALL_AXES
100
AcDbLine
 62
7
  6
CONTINUOUS
 10
1462.8336390749
 20
-259.0364522889
 11
1462.8336390749
 21
-487.0364522889
  0
ARC
  5
4F6
100
AcDbEntity
  8
0
100
AcDbCircle
 62
7
  6
CONTINUOUS
 10
694.3336390749
 20
124.1564294372
 40
20.0
100
AcDbArc
 50
179.9999985716
 51
224.9999928613
  0
ARC
  5
4F7
100
AcDbEntity
  8
0
100
AcDbCircle
 62
7
  6
CONTINUOUS
 10
702.6178893686
 20
115.8721774767
 40
20.0
100
AcDbArc
 50
224.9999941405
 51
270.0
  0
ARC
  5
4F8
100
AcDbEntity
  8
0
100
AcDbCircle
 62
9
  6
CONTINUOUS
 10
1018.3336390749
 20
197.8721774767
 40
5.0
100
AcDbArc
 50
90.0
 51
180.0
  0
ARC
  5
4F9
100
AcDbEntity
  8
0
100
AcDbCircle
 62
7
  6
CONTINUOUS
 10
1018.3343615755
 20
118.8722351139
 40
3.0007225012
100
AcDbArc
 50
180.0011005245
 51
189.0014361729
  0
ARC
  5
4FA
100
AcDbEntity
  8
0
100
AcDbCircle
 62
7
  6
CONTINUOUS
 10
1018.3336390749
 20
197.8721774767
 40
3.0
100
AcDbArc
 50
90.0
 51
180.0
  0
ARC
  5
4FB
100
AcDbEntity
  8
0
100
AcDbCircle
 62
7
  6
CONTINUOUS
 10
1001.3336390749
 20
108.8721774767
 40
3.0
100
AcDbArc
 50
250.5287793655
 51
270.0
  0
ARC
  5
4FC
100
AcDbEntity
  8
0
100
AcDbCircle
 62
7
  6
CONTINUOUS
 10
1018.3336384833
 20
118.8721768851
 40
2.9999994084
100
AcDbArc
 50
179.9999887013
 51
270.0000112987
  0
ARC
  5
4FD
100
AcDbEntity
  8
0
100
AcDbCircle
 62
7
  6
CONTINUOUS
 10
1013.3336390749
 20
107.8721774767
 40
2.0
100
AcDbArc
 50
270.0
 51
360.0
  0
ARC
  5
4FE
100
AcDbEntity
  8
0
100
AcDbCircle
 62
9
  6
CONTINUOUS
 10
1100.3442929836
 20
-7712.1325363941
 40
7925.7788134199
100
AcDbArc
 50
90.1436292879
 51
90.3730976105
  0
ARC
  5
4FF
100
AcDbEntity
  8
0
100
AcDbCircle
 62
7
  6
CONTINUOUS
 10
1127.8336390749
 20
68.8721774767
 40
30.0
100
AcDbArc
 50
179.9999992848
 51
270.0
  0
ARC
  5
500
100
AcDbEntity
  8
0
100
AcDbCircle
 62
7
  6
CONTINUOUS
 10
1082.3336390749
 20
116.9991941305
 40
4.0
100
AcDbArc
 50
0.0
 51
51.3178125718
  0
ARC
  5
501
100
AcDbEntity
  8
0
100
AcDbCircle
 62
7
  6
CONTINUOUS
 10
1082.3336390749
 20
101.8721774767
 40
4.0
100
AcDbArc
 50
0.0
 51
90.0
  0
ARC
  5
502
100
AcDbEntity
  8
0
100
AcDbCircle
 62
7
  6
CONTINUOUS
 10
1080.3336390197
 20
118.8721775285
 40
3.0000000693
100
AcDbArc
 50
270.0000004485
 51
359.9999919412
  0
ARC
  5
503
100
AcDbEntity
  8
0
100
AcDbCircle
 62
7
  6
CONTINUOUS
 10
1088.3336390749
 20
72.8721774767
 40
2.0
100
AcDbArc
 50
180.0
 51
270.0
  0
ARC
  5
504
100
AcDbEntity
  8
0
100
AcDbCircle
 62
9
  6
CONTINUOUS
 10
1054.0962229664
 20
168.6999655001
 40
10.5581979605
100
AcDbArc
 50
227.2368936971
 51
228.6664716416
  0
ARC
  5
505
100
AcDbEntity
  8
0
100
AcDbCircle
 62
9
  6
CONTINUOUS
 10
1089.1801169208
 20
129.3883235873
 40
8.8464778462
100
AcDbArc
 50
178.1480263931
 51
180.0004700902
  0
ARC
  5
506
100
AcDbEntity
  8
0
100
AcDbCircle
 62
9
  6
CONTINUOUS
 10
1075.2726940689
 20
129.8405994259
 40
8.0609450063
100
AcDbArc
 50
0.0004605273
 51
3.748799154
  0
ARC
  5
507
100
AcDbEntity
  8
0
100
AcDbCircle
 62
9
  6
CONTINUOUS
 10
1075.2754462614
 20
129.8407082099
 40
8.0581915904
100
AcDbArc
 50
3.749306778
 51
4.5876920569
  0
ARC
  5
508
100
AcDbEntity
  8
0
100
AcDbCircle
 62
9
  6
CONTINUOUS
 10
1073.3588638663
 20
127.6304884958
 40
8.0075042218
100
AcDbArc
 50
47.614387124
 51
49.5483357646
  0
ARC
  5
509
100
AcDbEntity
  8
0
100
AcDbCircle
 62
9
  6
CONTINUOUS
 10
1075.348903834
 20
129.9025814119
 40
7.9597210111
100
AcDbArc
 50
47.9552407642
 51
49.9000778349
  0
ARC
  5
50A
100
AcDbEntity
  8
0
100
AcDbCircle
 62
7
  6
CONTINUOUS
 10
1087.3335881675
 20
123.2441676737
 40
3.9999490926
100
AcDbArc
 50
180.0
 51
231.3179876942
  0
ARC
  5
50B
100
AcDbEntity
  8
0
100
AcDbCircle
 62
7
  6
CONTINUOUS
 10
1080.3336390749
 20
197.8721774767
 40
3.0
100
AcDbArc
 50
0.0
 51
90.0
  0
ARC
  5
50C
100
AcDbEntity
  8
0
100
AcDbCircle
 62
7
  6
CONTINUOUS
 10
1083.3336390749
 20
197.8721774767
 40
3.0
100
AcDbArc
 50
0.0
 51
90.0
  0
ARC
  5
50D
100
AcDbEntity
  8
0
100
AcDbCircle
 62
9
  6
CONTINUOUS
 10
1082.942422457
 20
199.6147314123
 40
1.259150209
100
AcDbArc
 50
73.0336775362
 51
74.2489304775
  0
ARC
  5
50E
100
AcDbEntity
  8
0
100
AcDbCircle
 62
7
  6
CONTINUOUS
 10
1317.8336390749
 20
68.8721774767
 40
30.0
100
AcDbArc
 50
270.0
 51
307.4479810768
  0
ARC
  5
50F
100
AcDbEntity
  8
0
100
AcDbCircle
 62
7
  6
CONTINUOUS
 10
1351.8336390749
 20
109.872185804
 40
4.0000009396
100
AcDbArc
 50
179.9999999148
 51
269.9999999999
  0
ARC
  5
510
100
AcDbEntity
  8
0
100
AcDbCircle
 62
7
  6
CONTINUOUS
 10
1214.8336390749
 20
40.8721774767
 40
3.0
100
AcDbArc
 50
0.0
 51
90.0
  0
ARC
  5
511
100
AcDbEntity
  8
0
100
AcDbCircle
 62
7
  6
CONTINUOUS
 10
1351.8336390749
 20
141.8721774767
 40
4.0
100
AcDbArc
 50
90.0
 51
180.0
  0
ARC
  5
512
100
AcDbEntity
  8
0
100
AcDbCircle
 62
7
  6
CONTINUOUS
 10
694.3336390749
 20
287.5879255162
 40
20.0
100
AcDbArc
 50
135.0000071387
 51
180.0000014284
  0
ARC
  5
513
100
AcDbEntity
  8
0
100
AcDbCircle
 62
7
  6
CONTINUOUS
 10
702.6178893686
 20
295.8721774767
 40
20.0
100
AcDbArc
 50
90.0
 51
135.0000058595
  0
ARC
  5
514
100
AcDbEntity
  8
0
100
AcDbCircle
 62
9
  6
CONTINUOUS
 10
1054.0908551746
 20
243.0503595747
 40
10.5501700184
100
AcDbArc
 50
131.3330523951
 51
132.7636975953
  0
ARC
  5
515
100
AcDbEntity
  8
0
100
AcDbCircle
 62
9
  6
CONTINUOUS
 10
1018.3336390749
 20
213.8721774767
 40
5.0
100
AcDbArc
 50
180.0
 51
270.0
  0
ARC
  5
516
100
AcDbEntity
  8
0
100
AcDbCircle
 62
7
  6
CONTINUOUS
 10
1018.3343571796
 20
292.8721217055
 40
3.0007181052
100
AcDbArc
 50
170.9985765912
 51
179.9989351027
  0
ARC
  5
517
100
AcDbEntity
  8
0
100
AcDbCircle
 62
7
  6
CONTINUOUS
 10
1056.8336390749
 20
553.8721774767
 40
3.0
100
AcDbArc
 50
180.0
 51
270.0
  0
ARC
  5
518
100
AcDbEntity
  8
0
100
AcDbCircle
 62
7
  6
CONTINUOUS
 10
1018.3336390749
 20
213.8721774767
 40
3.0
100
AcDbArc
 50
180.0
 51
270.0
  0
ARC
  5
519
100
AcDbEntity
  8
0
100
AcDbCircle
 62
7
  6
CONTINUOUS
 10
1001.3336390749
 20
302.8721774767
 40
3.0
100
AcDbArc
 50
90.0
 51
109.4712206345
  0
ARC
  5
51A
100
AcDbEntity
  8
0
100
AcDbCircle
 62
7
  6
CONTINUOUS
 10
1018.3336389449
 20
292.8721776067
 40
2.99999987
100
AcDbArc
 50
89.9999975178
 51
180.0000024822
  0
ARC
  5
51B
100
AcDbEntity
  8
0
100
AcDbCircle
 62
7
  6
CONTINUOUS
 10
1018.3335001895
 20
292.8735089479
 40
2.9986621881
100
AcDbArc
 50
93.9123904454
 51
99.5825752564
  0
ARC
  5
51C
100
AcDbEntity
  8
0
100
AcDbCircle
 62
7
  6
CONTINUOUS
 10
1013.3336390749
 20
303.8721774767
 40
2.0
100
AcDbArc
 50
0.0
 51
90.0
  0
ARC
  5
51D
100
AcDbEntity
  8
0
100
AcDbCircle
 62
9
  6
CONTINUOUS
 10
1089.1657556177
 20
282.3557993044
 40
8.832116548
100
AcDbArc
 50
179.9980237126
 51
181.8534798042
  0
ARC
  5
51E
100
AcDbEntity
  8
0
100
AcDbCircle
 62
9
  6
CONTINUOUS
 10
1075.2728575447
 20
281.9037505416
 40
8.0607815305
100
AcDbArc
 50
356.2516062747
 51
359.9995749031
  0
ARC
  5
51F
100
AcDbEntity
  8
0
100
AcDbCircle
 62
9
  6
CONTINUOUS
 10
1075.275459027
 20
281.903644566
 40
8.0581786854
100
AcDbArc
 50
355.4184332809
 51
356.251148918
  0
ARC
  5
520
100
AcDbEntity
  8
0
100
AcDbCircle
 62
9
  6
CONTINUOUS
 10
1073.3588526407
 20
284.1138791867
 40
8.0075211912
100
AcDbArc
 50
310.4516660214
 51
312.3856108057
  0
ARC
  5
521
100
AcDbEntity
  8
0
100
AcDbCircle
 62
9
  6
CONTINUOUS
 10
1075.3489049117
 20
281.8417723048
 40
7.9597193709
100
AcDbArc
 50
310.0999219651
 51
312.0447594365
  0
ARC
  5
522
100
AcDbEntity
  8
0
100
AcDbCircle
 62
7
  6
CONTINUOUS
 10
1082.3336390749
 20
294.7451608229
 40
4.0
100
AcDbArc
 50
308.6821874282
 51
360.0
  0
ARC
  5
523
100
AcDbEntity
  8
0
100
AcDbCircle
 62
7
  6
CONTINUOUS
 10
1082.3336390749
 20
309.8721774767
 40
4.0
100
AcDbArc
 50
270.0
 51
360.0
  0
ARC
  5
524
100
AcDbEntity
  8
0
100
AcDbCircle
 62
7
  6
CONTINUOUS
 10
1087.3335881675
 20
288.5001872796
 40
3.9999490926
100
AcDbArc
 50
128.6820123237
 51
180.0
  0
ARC
  5
525
100
AcDbEntity
  8
0
100
AcDbCircle
 62
7
  6
CONTINUOUS
 10
1083.3336390749
 20
213.8721774767
 40
3.0
100
AcDbArc
 50
270.0
 51
360.0
  0
ARC
  5
526
100
AcDbEntity
  8
0
100
AcDbCircle
 62
7
  6
CONTINUOUS
 10
1080.3336390749
 20
213.8721774767
 40
3.0
100
AcDbArc
 50
270.0
 51
360.0
  0
ARC
  5
527
100
AcDbEntity
  8
0
100
AcDbCircle
 62
7
  6
CONTINUOUS
 10
1080.3336425723
 20
292.8721780751
 40
2.9999965026
100
AcDbArc
 50
359.9999885715
 51
89.9999993565
  0
ARC
  5
528
100
AcDbEntity
  8
0
100
AcDbCircle
 62
7
  6
CONTINUOUS
 10
1088.3336390749
 20
338.8721774767
 40
2.0
100
AcDbArc
 50
90.0
 51
180.0
  0
ARC
  5
529
100
AcDbEntity
  8
0
100
AcDbCircle
 62
9
  6
CONTINUOUS
 10
1082.9424224562
 20
212.1296235436
 40
1.2591502116
100
AcDbArc
 50
285.7510699031
 51
286.9663224511
  0
ARC
  5
52A
100
AcDbEntity
  8
0
100
AcDbCircle
 62
7
  6
CONTINUOUS
 10
1127.8336390749
 20
420.8721774767
 40
30.0
100
AcDbArc
 50
89.9922146098
 51
180.0
  0
ARC
  5
52B
100
AcDbEntity
  8
0
100
AcDbCircle
 62
7
  6
CONTINUOUS
 10
1201.833641948
 20
454.8721774767
 40
4.0000003966
100
AcDbArc
 50
180.0
 51
269.9999588452
  0
ARC
  5
52C
100
AcDbEntity
  8
0
100
AcDbCircle
 62
7
  6
CONTINUOUS
 10
1133.8337143243
 20
454.8719439146
 40
3.999961073
100
AcDbArc
 50
269.9989220693
 51
0.0033455934
  0
ARC
  5
52D
100
AcDbEntity
  8
0
100
AcDbCircle
 62
7
  6
CONTINUOUS
 10
1090.8336390749
 20
477.8721774767
 40
3.0
100
AcDbArc
 50
90.0
 51
180.0
  0
ARC
  5
52E
100
AcDbEntity
  8
0
100
AcDbCircle
 62
7
  6
CONTINUOUS
 10
1244.8336390749
 20
477.8721774767
 40
3.0
100
AcDbArc
 50
0.0
 51
90.0
  0
ARC
  5
52F
100
AcDbEntity
  8
0
100
AcDbCircle
 62
7
  6
CONTINUOUS
 10
1227.8336390749
 20
482.8721774767
 40
2.0
100
AcDbArc
 50
180.0
 51
269.999993473
  0
ARC
  5
530
100
AcDbEntity
  8
0
100
AcDbCircle
 62
7
  6
CONTINUOUS
 10
1107.8336390749
 20
482.8721774767
 40
2.0
100
AcDbArc
 50
270.000006527
 51
360.0
  0
ARC
  5
531
100
AcDbEntity
  8
0
100
AcDbCircle
 62
7
  6
CONTINUOUS
 10
1227.8336390749
 20
548.8721774767
 40
2.0
100
AcDbArc
 50
90.0000058765
 51
180.0
  0
ARC
  5
532
100
AcDbEntity
  8
0
100
AcDbCircle
 62
7
  6
CONTINUOUS
 10
1107.8336390749
 20
548.8721774767
 40
2.0
100
AcDbArc
 50
0.0
 51
89.9999941235
  0
ARC
  5
533
100
AcDbEntity
  8
0
100
AcDbCircle
 62
7
  6
CONTINUOUS
 10
1351.8336390749
 20
269.8721774767
 40
4.0
100
AcDbArc
 50
180.0
 51
270.0
  0
ARC
  5
534
100
AcDbEntity
  8
0
100
AcDbCircle
 62
7
  6
CONTINUOUS
 10
1369.8336390749
 20
293.8721774767
 40
3.0
100
AcDbArc
 50
270.0
 51
360.0
  0
ARC
  5
535
100
AcDbEntity
  8
0
100
AcDbCircle
 62
7
  6
CONTINUOUS
 10
1445.8336390749
 20
259.8721774767
 40
3.0
100
AcDbArc
 50
180.0
 51
270.0
  0
ARC
  5
536
100
AcDbEntity
  8
0
100
AcDbCircle
 62
7
  6
CONTINUOUS
 10
1374.8336390749
 20
310.8721774767
 40
2.0
100
AcDbArc
 50
90.0
 51
179.999993473
  0
ARC
  5
537
100
AcDbEntity
  8
0
100
AcDbCircle
 62
7
  6
CONTINUOUS
 10
1440.8336390749
 20
310.8721774767
 40
2.0
100
AcDbArc
 50
0.0000058765
 51
90.0
  0
ARC
  5
538
100
AcDbEntity
  8
0
100
AcDbCircle
 62
7
  6
CONTINUOUS
 10
1278.8336390749
 20
553.8721774767
 40
3.0
100
AcDbArc
 50
270.0
 51
360.0
  0
ARC
  5
539
100
AcDbEntity
  8
0
100
AcDbCircle
 62
7
  6
CONTINUOUS
 10
1369.8336390749
 20
447.8721774767
 40
3.0
100
AcDbArc
 50
0.0
 51
90.0
  0
ARC
  5
53A
100
AcDbEntity
  8
0
100
AcDbCircle
 62
7
  6
CONTINUOUS
 10
1445.8336390749
 20
481.8721774767
 40
3.0
100
AcDbArc
 50
90.0
 51
180.0
  0
ARC
  5
53B
100
AcDbEntity
  8
0
100
AcDbCircle
 62
7
  6
CONTINUOUS
 10
1374.8336390749
 20
430.8721774767
 40
2.0
100
AcDbArc
 50
180.000006527
 51
270.0
  0
ARC
  5
53C
100
AcDbEntity
  8
0
100
AcDbCircle
 62
7
  6
CONTINUOUS
 10
1440.8336390749
 20
430.8721774767
 40
2.0
100
AcDbArc
 50
270.0
 51
359.9999941235
  0
ARC
  5
53D
100
AcDbEntity
  8
0
100
AcDbCircle
 62
9
  6
CONTINUOUS
 10
1100.3442929765
 20
8123.8768897725
 40
7925.7788118449
100
AcDbArc
 50
269.6269023894
 51
269.8563707121
  0
ARC
  5
53E
100
AcDbEntity
  8
0
100
AcDbCircle
 62
9
  6
CONTINUOUS
 10
3773.6433723118
 20
-2891.7953446856
 40
4157.7054534114
100
AcDbArc
 50
130.3724238013
 51
130.9435448796
  0
ARC
  5
53F
100
AcDbEntity
  8
0
100
AcDbCircle
 62
9
  6
CONTINUOUS
 10
3773.6433669941
 20
3303.5396934471
 40
4157.7054452496
100
AcDbArc
 50
229.0564551198
 51
229.6275761992
  0
ARC
  5
540
100
AcDbEntity
  8
0
100
AcDbCircle
 62
7
  6
CONTINUOUS
 10
189.0298592056
 20
296.6745619986
 40
167.0
100
AcDbArc
 50
0.0
 51
55.2783297591
  0
ARC
  5
541
100
AcDbEntity
  8
0
100
AcDbCircle
 62
7
  6
CONTINUOUS
 10
189.0298592056
 20
205.8721774767
 40
167.0
100
AcDbArc
 50
180.0
 51
360.0
  0
ARC
  5
542
100
AcDbEntity
  8
0
100
AcDbCircle
 62
7
  6
CONTINUOUS
 10
189.0298592056
 20
296.6745619986
 40
167.0
100
AcDbArc
 50
124.4858751835
 51
180.0
  0
ARC
  5
543
100
AcDbEntity
  8
0
100
AcDbCircle
 62
9
  6
CONTINUOUS
 10
189.0298592056
 20
296.6745619986
 40
137.0
100
AcDbArc
 50
125.7282544584
 51
131.6538212802
  0
ARC
  5
544
100
AcDbEntity
  8
0
100
AcDbCircle
 62
9
  6
CONTINUOUS
 10
189.0298592056
 20
296.6745619986
 40
137.0
100
AcDbArc
 50
146.4240959141
 51
180.0
  0
ARC
  5
545
100
AcDbEntity
  8
0
100
AcDbCircle
 62
9
  6
CONTINUOUS
 10
189.0298592056
 20
296.6745619986
 40
137.0
100
AcDbArc
 50
0.0
 51
33.5758727887
  0
ARC
  5
546
100
AcDbEntity
  8
0
100
AcDbCircle
 62
9
  6
CONTINUOUS
 10
189.0298592056
 20
296.6745619986
 40
137.0
100
AcDbArc
 50
48.3461071665
 51
54.2717455416
  0
ARC
  5
547
100
AcDbEntity
  8
0
100
AcDbCircle
 62
9
  6
CONTINUOUS
 10
189.0298592056
 20
205.8721774767
 40
137.0
100
AcDbArc
 50
298.8513447926
 51
360.0
  0
ARC
  5
548
100
AcDbEntity
  8
0
100
AcDbCircle
 62
9
  6
CONTINUOUS
 10
189.0298592056
 20
205.8721774767
 40
137.0
100
AcDbArc
 50
180.0
 51
241.1486549695
  0
ARC
  5
549
100
AcDbEntity
  8
0
100
AcDbCircle
 62
9
  6
CONTINUOUS
 10
124.0298592056
 20
240.8721774767
 40
29.0
100
AcDbArc
 50
90.0
 51
180.0
  0
ARC
  5
54A
100
AcDbEntity
  8
0
100
AcDbCircle
 62
9
  6
CONTINUOUS
 10
124.0298592056
 20
170.8721774767
 40
29.0
100
AcDbArc
 50
180.0
 51
270.0
  0
ARC
  5
54B
100
AcDbEntity
  8
02___PRT_ALL_AXES
100
AcDbCircle
 62
7
  6
CONTINUOUS
 10
124.0298592056
 20
170.8721774767
 40
25.0
100
AcDbArc
 50
180.0
 51
270.0
  0
ARC
  5
54C
100
AcDbEntity
  8
02___PRT_ALL_AXES
100
AcDbCircle
 62
7
  6
CONTINUOUS
 10
124.0298592056
 20
240.8721774767
 40
25.0
100
AcDbArc
 50
90.0
 51
180.0
  0
ARC
  5
54D
100
AcDbEntity
  8
02___PRT_ALL_AXES
100
AcDbCircle
 62
7
  6
CONTINUOUS
 10
154.3970085765
 20
287.2610797844
 40
9.0
100
AcDbArc
 50
321.3723797868
 51
173.6276202132
  0
ARC
  5
54E
100
AcDbEntity
  8
02___PRT_ALL_AXES
100
AcDbCircle
 62
7
  6
CONTINUOUS
 10
152.4835914147
 20
282.6416821219
 40
9.0
100
AcDbArc
 50
141.3723797868
 51
353.6276202132
  0
ARC
  5
54F
100
AcDbEntity
  8
0
100
AcDbCircle
 62
7
  6
CONTINUOUS
 10
30.0298592056
 20
40.8721774767
 40
3.0
100
AcDbArc
 50
90.0
 51
180.0
  0
CIRCLE
  5
550
100
AcDbEntity
  8
02___PRT_ALL_AXES
100
AcDbCircle
 62
7
  6
CONTINUOUS
 10
189.0298592056
 20
370.8721774767
 40
114.0
  0
CIRCLE
  5
551
100
AcDbEntity
  8
0
100
AcDbCircle
 62
7
  6
CONTINUOUS
 10
189.0298592056
 20
370.8721774767
 40
50.0
  0
ARC
  5
552
100
AcDbEntity
  8
02___PRT_ALL_AXES
100
AcDbCircle
 62
7
  6
CONTINUOUS
 10
105.4187615133
 20
336.2393268476
 40
9.0
100
AcDbArc
 50
276.3723797868
 51
128.6276202132
  0
ARC
  5
553
100
AcDbEntity
  8
02___PRT_ALL_AXES
100
AcDbCircle
 62
7
  6
CONTINUOUS
 10
105.4187615133
 20
405.5050281057
 40
9.0
100
AcDbArc
 50
231.3723797868
 51
83.6276202132
  0
ARC
  5
554
100
AcDbEntity
  8
02___PRT_ALL_AXES
100
AcDbCircle
 62
7
  6
CONTINUOUS
 10
154.3970085765
 20
454.483275169
 40
9.0
100
AcDbArc
 50
186.3723797868
 51
38.6276202132
  0
ARC
  5
555
100
AcDbEntity
  8
02___PRT_ALL_AXES
100
AcDbCircle
 62
7
  6
CONTINUOUS
 10
100.7993638507
 20
334.3259096858
 40
9.0
100
AcDbArc
 50
96.3723797868
 51
308.6276202132
  0
ARC
  5
556
100
AcDbEntity
  8
02___PRT_ALL_AXES
100
AcDbCircle
 62
7
  6
CONTINUOUS
 10
100.7993638507
 20
407.4184452676
 40
9.0
100
AcDbArc
 50
51.3723797868
 51
263.6276202132
  0
ARC
  5
557
100
AcDbEntity
  8
02___PRT_ALL_AXES
100
AcDbCircle
 62
7
  6
CONTINUOUS
 10
152.4835914147
 20
459.1026728315
 40
9.0
100
AcDbArc
 50
6.3723797868
 51
218.6276202132
  0
ARC
  5
558
100
AcDbEntity
  8
0
100
AcDbCircle
 62
7
  6
CONTINUOUS
 10
60.030043797
 20
408.9245112064
 40
3.9999416017
100
AcDbArc
 50
318.967550653
 51
359.9967396538
  0
ARC
  5
559
100
AcDbEntity
  8
0
100
AcDbCircle
 62
7
  6
CONTINUOUS
 10
185.0298592056
 20
553.8721774767
 40
3.0
100
AcDbArc
 50
180.0
 51
270.0
  0
ARC
  5
55A
100
AcDbEntity
  8
0
100
AcDbCircle
 62
9
  6
CONTINUOUS
 10
254.0298592056
 20
170.8721774767
 40
29.0
100
AcDbArc
 50
270.0
 51
360.0
  0
ARC
  5
55B
100
AcDbEntity
  8
0
100
AcDbCircle
 62
9
  6
CONTINUOUS
 10
254.0298592056
 20
240.8721774767
 40
29.0
100
AcDbArc
 50
0.0
 51
90.0
  0
ARC
  5
55C
100
AcDbEntity
  8
02___PRT_ALL_AXES
100
AcDbCircle
 62
7
  6
CONTINUOUS
 10
254.0298592056
 20
170.8721774767
 40
25.0
100
AcDbArc
 50
270.0
 51
360.0
  0
ARC
  5
55D
100
AcDbEntity
  8
02___PRT_ALL_AXES
100
AcDbCircle
 62
7
  6
CONTINUOUS
 10
254.0298592056
 20
240.8721774767
 40
25.0
100
AcDbArc
 50
0.0
 51
90.0
  0
ARC
  5
55E
100
AcDbEntity
  8
02___PRT_ALL_AXES
100
AcDbCircle
 62
7
  6
CONTINUOUS
 10
223.6627098346
 20
287.2610797844
 40
9.0
100
AcDbArc
 50
6.3723797868
 51
218.6276202132
  0
ARC
  5
55F
100
AcDbEntity
  8
02___PRT_ALL_AXES
100
AcDbCircle
 62
7
  6
CONTINUOUS
 10
225.5761269964
 20
282.6416821219
 40
9.0
100
AcDbArc
 50
186.3723797868
 51
38.6276202132
  0
ARC
  5
560
100
AcDbEntity
  8
0
100
AcDbCircle
 62
7
  6
CONTINUOUS
 10
314.0298592056
 20
40.8721774767
 40
3.0
100
AcDbArc
 50
0.0
 51
90.0
  0
ARC
  5
561
100
AcDbEntity
  8
02___PRT_ALL_AXES
100
AcDbCircle
 62
7
  6
CONTINUOUS
 10
223.6627098346
 20
454.483275169
 40
9.0
100
AcDbArc
 50
141.3723797868
 51
353.6276202132
  0
ARC
  5
562
100
AcDbEntity
  8
02___PRT_ALL_AXES
100
AcDbCircle
 62
7
  6
CONTINUOUS
 10
272.6409568978
 20
405.5050281057
 40
9.0
100
AcDbArc
 50
96.3723797868
 51
308.6276202132
  0
ARC
  5
563
100
AcDbEntity
  8
02___PRT_ALL_AXES
100
AcDbCircle
 62
7
  6
CONTINUOUS
 10
272.6409568978
 20
336.2393268476
 40
9.0
100
AcDbArc
 50
51.3723797868
 51
263.6276202132
  0
ARC
  5
564
100
AcDbEntity
  8
02___PRT_ALL_AXES
100
AcDbCircle
 62
7
  6
CONTINUOUS
 10
225.5761269964
 20
459.1026728315
 40
9.0
100
AcDbArc
 50
321.3723797868
 51
173.6276202132
  0
ARC
  5
565
100
AcDbEntity
  8
02___PRT_ALL_AXES
100
AcDbCircle
 62
7
  6
CONTINUOUS
 10
277.2603545604
 20
407.4184452676
 40
9.0
100
AcDbArc
 50
276.3723797868
 51
128.6276202132
  0
ARC
  5
566
100
AcDbEntity
  8
02___PRT_ALL_AXES
100
AcDbCircle
 62
7
  6
CONTINUOUS
 10
277.2603545604
 20
334.3259096858
 40
9.0
100
AcDbArc
 50
231.3723797868
 51
83.6276202132
  0
ARC
  5
567
100
AcDbEntity
  8
0
100
AcDbCircle
 62
7
  6
CONTINUOUS
 10
407.0298592056
 20
553.8721774767
 40
3.0
100
AcDbArc
 50
270.0
 51
360.0
  0
ARC
  5
568
100
AcDbEntity
  8
0
100
AcDbCircle
 62
7
  6
CONTINUOUS
 10
373.0298592056
 20
477.8721774767
 40
3.0
100
AcDbArc
 50
0.0
 51
90.0
  0
ARC
  5
569
100
AcDbEntity
  8
0
100
AcDbCircle
 62
7
  6
CONTINUOUS
 10
236.0298592056
 20
548.8721774767
 40
2.0
100
AcDbArc
 50
0.0
 51
90.0
  0
ARC
  5
56A
100
AcDbEntity
  8
0
100
AcDbCircle
 62
7
  6
CONTINUOUS
 10
356.0298592056
 20
548.8721774767
 40
2.0
100
AcDbArc
 50
90.0
 51
180.0
  0
ARC
  5
56B
100
AcDbEntity
  8
0
100
AcDbCircle
 62
7
  6
CONTINUOUS
 10
236.0298592056
 20
482.8721774767
 40
2.0
100
AcDbArc
 50
270.0
 51
360.0
  0
ARC
  5
56C
100
AcDbEntity
  8
0
100
AcDbCircle
 62
7
  6
CONTINUOUS
 10
356.0298592056
 20
482.8721774767
 40
2.0
100
AcDbArc
 50
180.0
 51
270.0
  0
ARC
  5
56D
100
AcDbEntity
  8
0
100
AcDbCircle
 62
9
  6
CONTINUOUS
 10
-3334.4590791632
 20
-2891.795338495
 40
4157.7054452513
100
AcDbArc
 50
49.0564551198
 51
49.6275761992
  0
ARC
  5
56E
100
AcDbEntity
  8
0
100
AcDbCircle
 62
9
  6
CONTINUOUS
 10
-3334.4590844794
 20
3303.5396996385
 40
4157.7054534107
100
AcDbArc
 50
310.3724238013
 51
310.9435448796
  0
ARC
  5
56F
100
AcDbEntity
  8
0
100
AcDbCircle
 62
9
  6
CONTINUOUS
 10
-661.1600051445
 20
-7712.1325348291
 40
7925.7788118549
100
AcDbArc
 50
89.6269023894
 51
89.8563707121
  0
ARC
  5
570
100
AcDbEntity
  8
0
100
AcDbCircle
 62
7
  6
CONTINUOUS
 10
-878.6493512429
 20
68.8721774767
 40
30.0
100
AcDbArc
 50
232.5520189232
 51
270.0
  0
ARC
  5
571
100
AcDbEntity
  8
0
100
AcDbCircle
 62
7
  6
CONTINUOUS
 10
-912.6493512429
 20
109.872185804
 40
4.0000009396
100
AcDbArc
 50
270.0000000001
 51
0.0000000852
  0
ARC
  5
572
100
AcDbEntity
  8
0
100
AcDbCircle
 62
7
  6
CONTINUOUS
 10
-775.6493512429
 20
40.8721774767
 40
3.0
100
AcDbArc
 50
90.0
 51
180.0
  0
ARC
  5
573
100
AcDbEntity
  8
0
100
AcDbCircle
 62
7
  6
CONTINUOUS
 10
-912.6493512429
 20
141.8721774767
 40
4.0
100
AcDbArc
 50
0.0
 51
90.0
  0
ARC
  5
574
100
AcDbEntity
  8
0
100
AcDbCircle
 62
7
  6
CONTINUOUS
 10
-688.6493512429
 20
68.8721774767
 40
30.0
100
AcDbArc
 50
270.0
 51
0.0000007152
  0
ARC
  5
575
100
AcDbEntity
  8
0
100
AcDbCircle
 62
7
  6
CONTINUOUS
 10
-643.1493512429
 20
116.9991941305
 40
4.0
100
AcDbArc
 50
128.6821874282
 51
180.0
  0
ARC
  5
576
100
AcDbEntity
  8
0
100
AcDbCircle
 62
7
  6
CONTINUOUS
 10
-643.1493512429
 20
101.8721774767
 40
4.0
100
AcDbArc
 50
90.0
 51
180.0
  0
ARC
  5
577
100
AcDbEntity
  8
0
100
AcDbCircle
 62
7
  6
CONTINUOUS
 10
-641.1493547403
 20
118.8721768783
 40
2.9999965026
100
AcDbArc
 50
179.9999885715
 51
269.9999993565
  0
ARC
  5
578
100
AcDbEntity
  8
0
100
AcDbCircle
 62
7
  6
CONTINUOUS
 10
-649.1493512429
 20
72.8721774767
 40
2.0
100
AcDbArc
 50
270.0
 51
360.0
  0
ARC
  5
579
100
AcDbEntity
  8
0
100
AcDbCircle
 62
9
  6
CONTINUOUS
 10
-614.9065673428
 20
168.6939953789
 40
10.5501700187
100
AcDbArc
 50
311.3330523951
 51
312.7636975953
  0
ARC
  5
57A
100
AcDbEntity
  8
0
100
AcDbCircle
 62
9
  6
CONTINUOUS
 10
-649.9814677863
 20
129.388555649
 40
8.8321165486
100
AcDbArc
 50
359.9980237126
 51
1.8534798041
  0
ARC
  5
57B
100
AcDbEntity
  8
0
100
AcDbCircle
 62
9
  6
CONTINUOUS
 10
-636.0885697125
 20
129.8406044118
 40
8.0607815306
100
AcDbArc
 50
176.2516062747
 51
179.9995749031
  0
ARC
  5
57C
100
AcDbEntity
  8
0
100
AcDbCircle
 62
9
  6
CONTINUOUS
 10
-636.091171198
 20
129.8407103876
 40
8.0581786824
100
AcDbArc
 50
175.4184332808
 51
176.2511489182
  0
ARC
  5
57D
100
AcDbEntity
  8
0
100
AcDbCircle
 62
9
  6
CONTINUOUS
 10
-634.1745648086
 20
127.6304757666
 40
8.0075211913
100
AcDbArc
 50
130.4516660215
 51
132.3856108057
  0
ARC
  5
57E
100
AcDbEntity
  8
0
100
AcDbCircle
 62
9
  6
CONTINUOUS
 10
-636.1646170805
 20
129.9025826494
 40
7.9597193698
100
AcDbArc
 50
130.099921965
 51
132.0447594367
  0
ARC
  5
57F
100
AcDbEntity
  8
0
100
AcDbCircle
 62
7
  6
CONTINUOUS
 10
-648.1493003408
 20
123.2441676762
 40
3.9999490979
100
AcDbArc
 50
308.6820123237
 51
360.0
  0
ARC
  5
580
100
AcDbEntity
  8
0
100
AcDbCircle
 62
7
  6
CONTINUOUS
 10
-641.1493512429
 20
197.8721774767
 40
3.0
100
AcDbArc
 50
90.0
 51
180.0
  0
ARC
  5
581
100
AcDbEntity
  8
0
100
AcDbCircle
 62
7
  6
CONTINUOUS
 10
-644.1493512429
 20
197.8721774767
 40
3.0
100
AcDbArc
 50
90.0
 51
180.0
  0
ARC
  5
582
100
AcDbEntity
  8
0
100
AcDbCircle
 62
9
  6
CONTINUOUS
 10
-643.7581346241
 20
199.6147314095
 40
1.2591502119
100
AcDbArc
 50
105.7510699034
 51
106.9663224511
  0
ARC
  5
583
100
AcDbEntity
  8
0
100
AcDbCircle
 62
7
  6
CONTINUOUS
 10
-255.1493512429
 20
124.1564294372
 40
20.0
100
AcDbArc
 50
315.0000071387
 51
0.0000014284
  0
ARC
  5
584
100
AcDbEntity
  8
0
100
AcDbCircle
 62
7
  6
CONTINUOUS
 10
-263.4336015366
 20
115.8721774767
 40
20.0
100
AcDbArc
 50
270.0
 51
315.0000058595
  0
ARC
  5
585
100
AcDbEntity
  8
0
100
AcDbCircle
 62
9
  6
CONTINUOUS
 10
-579.1493512429
 20
197.8721774767
 40
5.0
100
AcDbArc
 50
0.0
 51
90.0
  0
ARC
  5
586
100
AcDbEntity
  8
0
100
AcDbCircle
 62
7
  6
CONTINUOUS
 10
-579.1500693476
 20
118.8722332479
 40
3.0007181052
100
AcDbArc
 50
350.9985765911
 51
359.9989351027
  0
ARC
  5
587
100
AcDbEntity
  8
0
100
AcDbCircle
 62
7
  6
CONTINUOUS
 10
-579.1493512429
 20
197.8721774767
 40
3.0
100
AcDbArc
 50
0.0
 51
90.0
  0
ARC
  5
588
100
AcDbEntity
  8
0
100
AcDbCircle
 62
7
  6
CONTINUOUS
 10
-562.1493512429
 20
108.8721774767
 40
3.0
100
AcDbArc
 50
270.0
 51
289.4712206345
  0
ARC
  5
589
100
AcDbEntity
  8
0
100
AcDbCircle
 62
7
  6
CONTINUOUS
 10
-579.1493511129
 20
118.8721773467
 40
2.99999987
100
AcDbArc
 50
269.9999975178
 51
0.0000024822
  0
ARC
  5
58A
100
AcDbEntity
  8
0
100
AcDbCircle
 62
7
  6
CONTINUOUS
 10
-579.1492123575
 20
118.8708460055
 40
2.9986621882
100
AcDbArc
 50
273.9123904454
 51
279.5825752564
  0
ARC
  5
58B
100
AcDbEntity
  8
0
100
AcDbCircle
 62
7
  6
CONTINUOUS
 10
-574.1493512429
 20
107.8721774767
 40
2.0
100
AcDbArc
 50
180.0
 51
270.0
  0
ARC
  5
58C
100
AcDbEntity
  8
0
100
AcDbCircle
 62
7
  6
CONTINUOUS
 10
-912.6493512429
 20
269.8721774767
 40
4.0
100
AcDbArc
 50
270.0
 51
360.0
  0
ARC
  5
58D
100
AcDbEntity
  8
0
100
AcDbCircle
 62
7
  6
CONTINUOUS
 10
-930.6493512429
 20
293.8721774767
 40
3.0
100
AcDbArc
 50
180.0
 51
270.0
  0
ARC
  5
58E
100
AcDbEntity
  8
0
100
AcDbCircle
 62
7
  6
CONTINUOUS
 10
-1006.6493512429
 20
259.8721774767
 40
3.0
100
AcDbArc
 50
270.0
 51
360.0
  0
ARC
  5
58F
100
AcDbEntity
  8
0
100
AcDbCircle
 62
7
  6
CONTINUOUS
 10
-935.6493512429
 20
310.8721774767
 40
2.0
100
AcDbArc
 50
0.000006527
 51
90.0
  0
ARC
  5
590
100
AcDbEntity
  8
0
100
AcDbCircle
 62
7
  6
CONTINUOUS
 10
-1001.6493512429
 20
310.8721774767
 40
2.0
100
AcDbArc
 50
90.0
 51
179.9999941235
  0
ARC
  5
591
100
AcDbEntity
  8
0
100
AcDbCircle
 62
7
  6
CONTINUOUS
 10
-930.6493512429
 20
447.8721774767
 40
3.0
100
AcDbArc
 50
90.0
 51
180.0
  0
ARC
  5
592
100
AcDbEntity
  8
0
100
AcDbCircle
 62
7
  6
CONTINUOUS
 10
-1006.6493512429
 20
481.8721774767
 40
3.0
100
AcDbArc
 50
0.0
 51
90.0
  0
ARC
  5
593
100
AcDbEntity
  8
0
100
AcDbCircle
 62
7
  6
CONTINUOUS
 10
-839.6493512429
 20
553.8721774767
 40
3.0
100
AcDbArc
 50
180.0
 51
270.0
  0
ARC
  5
594
100
AcDbEntity
  8
0
100
AcDbCircle
 62
7
  6
CONTINUOUS
 10
-935.6493512429
 20
430.8721774767
 40
2.0
100
AcDbArc
 50
270.0
 51
359.999993473
  0
ARC
  5
595
100
AcDbEntity
  8
0
100
AcDbCircle
 62
7
  6
CONTINUOUS
 10
-1001.6493512429
 20
430.8721774767
 40
2.0
100
AcDbArc
 50
180.0000058765
 51
270.0
  0
ARC
  5
596
100
AcDbEntity
  8
0
100
AcDbCircle
 62
9
  6
CONTINUOUS
 10
-649.9958290888
 20
282.3560313661
 40
8.8464778462
100
AcDbArc
 50
358.1480263931
 51
0.0004700902
  0
ARC
  5
597
100
AcDbEntity
  8
0
100
AcDbCircle
 62
9
  6
CONTINUOUS
 10
-636.0884062634
 20
281.9037555264
 40
8.0609449798
100
AcDbArc
 50
180.0004605195
 51
183.7487991038
  0
ARC
  5
598
100
AcDbEntity
  8
0
100
AcDbCircle
 62
9
  6
CONTINUOUS
 10
-636.0911583864
 20
281.9036467479
 40
8.0581916336
100
AcDbArc
 50
183.7493067344
 51
184.5876603112
  0
ARC
  5
599
100
AcDbEntity
  8
0
100
AcDbCircle
 62
9
  6
CONTINUOUS
 10
-634.1745721717
 20
284.1138708361
 40
8.0075100597
100
AcDbArc
 50
227.614387829
 51
229.5483350595
  0
ARC
  5
59A
100
AcDbEntity
  8
0
100
AcDbCircle
 62
9
  6
CONTINUOUS
 10
-636.164611478
 20
281.8417787325
 40
7.9597278958
100
AcDbArc
 50
227.9552416054
 51
229.9000769937
  0
ARC
  5
59B
100
AcDbEntity
  8
0
100
AcDbCircle
 62
7
  6
CONTINUOUS
 10
-643.1493512429
 20
294.7451608229
 40
4.0
100
AcDbArc
 50
180.0
 51
231.3179876942
  0
ARC
  5
59C
100
AcDbEntity
  8
0
100
AcDbCircle
 62
7
  6
CONTINUOUS
 10
-643.1493512429
 20
309.8721774767
 40
4.0
100
AcDbArc
 50
180.0
 51
270.0
  0
ARC
  5
59D
100
AcDbEntity
  8
0
100
AcDbCircle
 62
7
  6
CONTINUOUS
 10
-648.1493003356
 20
288.5001872796
 40
3.9999490926
100
AcDbArc
 50
0.0
 51
51.3179876942
  0
ARC
  5
59E
100
AcDbEntity
  8
0
100
AcDbCircle
 62
7
  6
CONTINUOUS
 10
-641.1493511877
 20
292.8721774249
 40
3.0000000693
100
AcDbArc
 50
90.0000004485
 51
179.9999919412
  0
ARC
  5
59F
100
AcDbEntity
  8
0
100
AcDbCircle
 62
7
  6
CONTINUOUS
 10
-644.1493512429
 20
213.8721774767
 40
3.0
100
AcDbArc
 50
180.0
 51
270.0
  0
ARC
  5
5A0
100
AcDbEntity
  8
0
100
AcDbCircle
 62
7
  6
CONTINUOUS
 10
-641.1493512429
 20
213.8721774767
 40
3.0
100
AcDbArc
 50
180.0
 51
270.0
  0
ARC
  5
5A1
100
AcDbEntity
  8
0
100
AcDbCircle
 62
7
  6
CONTINUOUS
 10
-649.1493512429
 20
338.8721774767
 40
2.0
100
AcDbArc
 50
0.0
 51
90.0
  0
ARC
  5
5A2
100
AcDbEntity
  8
0
100
AcDbCircle
 62
9
  6
CONTINUOUS
 10
-643.7581346246
 20
212.1296235423
 40
1.2591502103
100
AcDbArc
 50
253.0336775369
 51
254.2489304768
  0
ARC
  5
5A3
100
AcDbEntity
  8
0
100
AcDbCircle
 62
7
  6
CONTINUOUS
 10
-688.6493512429
 20
420.8721774767
 40
30.0
100
AcDbArc
 50
0.0
 51
68.9605166274
  0
ARC
  5
5A4
100
AcDbEntity
  8
0
100
AcDbCircle
 62
7
  6
CONTINUOUS
 10
-805.6493512429
 20
477.8721774767
 40
3.0
100
AcDbArc
 50
90.0
 51
180.0
  0
ARC
  5
5A5
100
AcDbEntity
  8
0
100
AcDbCircle
 62
7
  6
CONTINUOUS
 10
-651.6493512429
 20
477.8721774767
 40
3.0
100
AcDbArc
 50
0.0
 51
90.0
  0
ARC
  5
5A6
100
AcDbEntity
  8
0
100
AcDbCircle
 62
7
  6
CONTINUOUS
 10
-788.6493512429
 20
482.8721774767
 40
2.0
100
AcDbArc
 50
270.000006527
 51
360.0
  0
ARC
  5
5A7
100
AcDbEntity
  8
0
100
AcDbCircle
 62
7
  6
CONTINUOUS
 10
-668.6493512429
 20
482.8721774767
 40
2.0
100
AcDbArc
 50
180.0
 51
269.999993473
  0
ARC
  5
5A8
100
AcDbEntity
  8
0
100
AcDbCircle
 62
7
  6
CONTINUOUS
 10
-788.6493512429
 20
548.8721774767
 40
2.0
100
AcDbArc
 50
0.0
 51
89.9999941235
  0
ARC
  5
5A9
100
AcDbEntity
  8
0
100
AcDbCircle
 62
7
  6
CONTINUOUS
 10
-668.6493512429
 20
548.8721774767
 40
2.0
100
AcDbArc
 50
90.0000058765
 51
180.0
  0
ARC
  5
5AA
100
AcDbEntity
  8
0
100
AcDbCircle
 62
9
  6
CONTINUOUS
 10
-661.1600051514
 20
8123.8768913074
 40
7925.7788133798
100
AcDbArc
 50
270.1436292879
 51
270.3730976105
  0
ARC
  5
5AB
100
AcDbEntity
  8
0
100
AcDbCircle
 62
7
  6
CONTINUOUS
 10
-255.1493512429
 20
287.5879255162
 40
20.0
100
AcDbArc
 50
359.9999985716
 51
44.9999928613
  0
ARC
  5
5AC
100
AcDbEntity
  8
0
100
AcDbCircle
 62
7
  6
CONTINUOUS
 10
-263.4336015366
 20
295.8721774767
 40
20.0
100
AcDbArc
 50
44.9999941405
 51
90.0
  0
ARC
  5
5AD
100
AcDbEntity
  8
0
100
AcDbCircle
 62
9
  6
CONTINUOUS
 10
-614.911910122
 20
243.0444171853
 40
10.5581606178
100
AcDbArc
 50
47.2368911689
 51
48.6664741699
  0
ARC
  5
5AE
100
AcDbEntity
  8
0
100
AcDbCircle
 62
9
  6
CONTINUOUS
 10
-579.1493512429
 20
213.8721774767
 40
5.0
100
AcDbArc
 50
270.0
 51
360.0
  0
ARC
  5
5AF
100
AcDbEntity
  8
0
100
AcDbCircle
 62
7
  6
CONTINUOUS
 10
-579.157826756
 20
292.8710137839
 40
3.0085530858
100
AcDbArc
 50
8.9991394982
 51
9.5433290828
  0
ARC
  5
5B0
100
AcDbEntity
  8
0
100
AcDbCircle
 62
7
  6
CONTINUOUS
 10
-579.1500737436
 20
292.8721198395
 40
3.0007225012
100
AcDbArc
 50
0.0011005245
 51
9.0014361727
  0
ARC
  5
5B1
100
AcDbEntity
  8
0
100
AcDbCircle
 62
7
  6
CONTINUOUS
 10
-579.1494266416
 20
292.8716800711
 40
3.0005013524
100
AcDbArc
 50
80.4122201983
 51
86.0859102689
  0
ARC
  5
5B2
100
AcDbEntity
  8
0
100
AcDbCircle
 62
7
  6
CONTINUOUS
 10
-579.1493512429
 20
213.8721774767
 40
3.0
100
AcDbArc
 50
270.0
 51
360.0
  0
ARC
  5
5B3
100
AcDbEntity
  8
0
100
AcDbCircle
 62
7
  6
CONTINUOUS
 10
-562.1493512429
 20
302.8721774767
 40
3.0
100
AcDbArc
 50
70.5287793655
 51
90.0
  0
ARC
  5
5B4
100
AcDbEntity
  8
0
100
AcDbCircle
 62
7
  6
CONTINUOUS
 10
-617.6493512429
 20
553.8721774767
 40
3.0
100
AcDbArc
 50
270.0
 51
360.0
  0
ARC
  5
5B5
100
AcDbEntity
  8
0
100
AcDbCircle
 62
7
  6
CONTINUOUS
 10
-579.1493506513
 20
292.8721780683
 40
2.9999994084
100
AcDbArc
 50
359.9999887013
 51
90.0000112987
  0
ARC
  5
5B6
100
AcDbEntity
  8
0
100
AcDbCircle
 62
7
  6
CONTINUOUS
 10
-574.1493512429
 20
303.8721774767
 40
2.0
100
AcDbArc
 50
90.0
 51
180.0
  0
ARC
  5
5B7
100
AcDbEntity
  8
0
100
AcDbCircle
 62
7
  6
CONTINUOUS
 10
1901.9718113249
 20
265.8721774767
 40
40.0
100
AcDbArc
 50
90.0
 51
180.0
  0
ARC
  5
5B8
100
AcDbEntity
  8
0
100
AcDbCircle
 62
7
  6
CONTINUOUS
 10
1901.9718113249
 20
145.8721774767
 40
40.0
100
AcDbArc
 50
180.0
 51
270.0
  0
ARC
  5
5B9
100
AcDbEntity
  8
0
100
AcDbCircle
 62
7
  6
CONTINUOUS
 10
1901.9718113249
 20
265.8721774767
 40
39.8284271247
100
AcDbArc
 50
90.0
 51
180.0
  0
ARC
  5
5BA
100
AcDbEntity
  8
0
100
AcDbCircle
 62
7
  6
CONTINUOUS
 10
1901.9718113249
 20
145.8721774767
 40
39.8284271247
100
AcDbArc
 50
180.0
 51
270.0
  0
ARC
  5
5BB
100
AcDbEntity
  8
3_ALL_AXES
100
AcDbCircle
 62
7
  6
CONTINUOUS
 10
1885.9578323474
 20
281.8861564542
 40
7.0
100
AcDbArc
 50
63.523214949
 51
206.4767850793
  0
ARC
  5
5BC
100
AcDbEntity
  8
3_ALL_AXES
100
AcDbCircle
 62
7
  6
CONTINUOUS
 10
1885.9578323474
 20
129.8581984991
 40
7.0
100
AcDbArc
 50
153.5232149207
 51
296.476785051
  0
ARC
  5
5BD
100
AcDbEntity
  8
0
100
AcDbCircle
 62
7
  6
CONTINUOUS
 10
1843.9718113249
 20
31.8721774767
 40
6.0
100
AcDbArc
 50
270.0
 51
360.0
  0
ARC
  5
5BE
100
AcDbEntity
  8
0
100
AcDbCircle
 62
3
  6
CONTINUOUS
 10
1852.9718113249
 20
87.8721774767
 40
6.0
100
AcDbArc
 50
90.0
 51
180.0
  0
CIRCLE
  5
5BF
100
AcDbEntity
  8
3_ALL_AXES
100
AcDbCircle
 62
7
  6
CONTINUOUS
 10
1846.486869761
 20
158.0367484311
 40
5.5
  0
CIRCLE
  5
5C0
100
AcDbEntity
  8
3_ALL_AXES
100
AcDbCircle
 62
7
  6
CONTINUOUS
 10
1846.486869761
 20
253.7076065223
 40
5.5
  0
ARC
  5
5C1
100
AcDbEntity
  8
0
100
AcDbCircle
 62
7
  6
CONTINUOUS
 10
1852.9718113249
 20
87.8721774767
 40
3.0
100
AcDbArc
 50
90.0
 51
180.0
  0
ARC
  5
5C2
100
AcDbEntity
  8
0
100
AcDbCircle
 62
3
  6
CONTINUOUS
 10
1843.9718113249
 20
31.8721774767
 40
3.0
100
AcDbArc
 50
270.0
 51
360.0
  0
ARC
  5
5C3
100
AcDbEntity
  8
0
100
AcDbCircle
 62
7
  6
CONTINUOUS
 10
1885.1151727554
 20
430.2334057837
 40
18.9258713017
100
AcDbArc
 50
99.9925546454
 51
114.1130891598
  0
ARC
  5
5C4
100
AcDbEntity
  8
0
100
AcDbCircle
 62
7
  6
CONTINUOUS
 10
1726.9718113249
 20
553.8721774767
 40
3.0
100
AcDbArc
 50
180.0
 51
270.0
  0
ARC
  5
5C5
100
AcDbEntity
  8
0
100
AcDbCircle
 62
7
  6
CONTINUOUS
 10
1760.9718113249
 20
477.8721774767
 40
3.0
100
AcDbArc
 50
90.0
 51
180.0
  0
ARC
  5
5C6
100
AcDbEntity
  8
0
100
AcDbCircle
 62
7
  6
CONTINUOUS
 10
1777.9718113249
 20
548.8721774767
 40
2.0
100
AcDbArc
 50
0.0
 51
90.0
  0
ARC
  5
5C7
100
AcDbEntity
  8
0
100
AcDbCircle
 62
7
  6
CONTINUOUS
 10
1897.9718113249
 20
548.8721774767
 40
2.0
100
AcDbArc
 50
90.0
 51
180.0
  0
ARC
  5
5C8
100
AcDbEntity
  8
0
100
AcDbCircle
 62
7
  6
CONTINUOUS
 10
1777.9718113249
 20
482.8721774767
 40
2.0
100
AcDbArc
 50
270.0
 51
360.0
  0
ARC
  5
5C9
100
AcDbEntity
  8
0
100
AcDbCircle
 62
7
  6
CONTINUOUS
 10
1897.9718113249
 20
482.8721774767
 40
2.0
100
AcDbArc
 50
180.0
 51
270.0
  0
ARC
  5
5CA
100
AcDbEntity
  8
3_ALL_AXES
100
AcDbCircle
 62
7
  6
CONTINUOUS
 10
1914.1363822793
 20
90.3872359128
 40
5.5
100
AcDbArc
 50
174.9288001459
 51
5.0660094032
  0
ARC
  5
5CB
100
AcDbEntity
  8
0
100
AcDbCircle
 62
7
  6
CONTINUOUS
 10
1944.9718113249
 20
205.8721774767
 40
167.0
100
AcDbArc
 50
235.16584815
 51
316.5010241878
  0
ARC
  5
5CC
100
AcDbEntity
  8
0
100
AcDbCircle
 62
7
  6
CONTINUOUS
 10
1944.9718113249
 20
205.8721774767
 40
167.0
100
AcDbArc
 50
319.5434687662
 51
360.0
  0
ARC
  5
5CD
100
AcDbEntity
  8
0
100
AcDbCircle
 62
7
  6
CONTINUOUS
 10
1944.9718113249
 20
205.8721774767
 40
167.0
100
AcDbArc
 50
180.0
 51
233.9643584744
  0
ARC
  5
5CE
100
AcDbEntity
  8
0
100
AcDbCircle
 62
9
  6
CONTINUOUS
 10
1944.9718113249
 20
205.8721774767
 40
136.9999995294
100
AcDbArc
 50
180.0
 51
227.1454408481
  0
ARC
  5
5CF
100
AcDbEntity
  8
0
100
AcDbCircle
 62
9
  6
CONTINUOUS
 10
1944.9718113249
 20
205.8721774767
 40
136.9999995294
100
AcDbArc
 50
237.1067797761
 51
279.805768578
  0
ARC
  5
5D0
100
AcDbEntity
  8
0
100
AcDbCircle
 62
9
  6
CONTINUOUS
 10
1944.9718113249
 20
205.8721774767
 40
136.9999995294
100
AcDbArc
 50
297.9332631753
 51
300.7312046616
  0
ARC
  5
5D1
100
AcDbEntity
  8
0
100
AcDbCircle
 62
9
  6
CONTINUOUS
 10
1944.9718113249
 20
205.8721774767
 40
136.9999995294
100
AcDbArc
 50
338.5786498914
 51
341.7346950868
  0
ARC
  5
5D2
100
AcDbEntity
  8
3_ALL_AXES
100
AcDbCircle
 62
7
  6
CONTINUOUS
 10
1961.9718113249
 20
205.8721774767
 40
135.0
100
AcDbArc
 50
266.0641196109
 51
270.0
  0
ARC
  5
5D3
100
AcDbEntity
  8
3_ALL_AXES
100
AcDbCircle
 62
7
  6
CONTINUOUS
 10
1961.9718113249
 20
205.8721774767
 40
135.0
100
AcDbArc
 50
312.2018570706
 51
63.610594133
  0
ARC
  5
5D4
100
AcDbEntity
  8
0
100
AcDbCircle
 62
7
  6
CONTINUOUS
 10
1961.9718113249
 20
205.8721774767
 40
135.0
100
AcDbArc
 50
116.4042623498
 51
227.8328747746
  0
ARC
  5
5D5
100
AcDbEntity
  8
0
100
AcDbCircle
 62
7
  6
CONTINUOUS
 10
1961.9718113249
 20
205.8721774767
 40
135.0
100
AcDbArc
 50
238.4359668253
 51
301.5640331747
  0
ARC
  5
5D6
100
AcDbEntity
  8
0
100
AcDbCircle
 62
7
  6
CONTINUOUS
 10
1961.9718113249
 20
205.8721774767
 40
135.0
100
AcDbArc
 50
312.1671252254
 51
63.5957376502
  0
ARC
  5
5D7
100
AcDbEntity
  8
0
100
AcDbCircle
 62
9
  6
CONTINUOUS
 10
1961.9718113249
 20
205.8721774767
 40
133.0
100
AcDbArc
 50
116.8306578277
 51
228.7871708827
  0
ARC
  5
5D8
100
AcDbEntity
  8
0
100
AcDbCircle
 62
9
  6
CONTINUOUS
 10
1961.9718113249
 20
205.8721774767
 40
133.0
100
AcDbArc
 50
311.2128291038
 51
63.1693421659
  0
ARC
  5
5D9
100
AcDbEntity
  8
0
100
AcDbCircle
 62
9
  6
CONTINUOUS
 10
1961.9718113249
 20
205.8721774767
 40
133.0
100
AcDbArc
 50
239.90411907
 51
300.0958809334
  0
CIRCLE
  5
5DA
100
AcDbEntity
  8
0
100
AcDbCircle
 62
7
  6
CONTINUOUS
 10
1961.9718113249
 20
205.8721774767
 40
110.0
  0
CIRCLE
  5
5DB
100
AcDbEntity
  8
0
100
AcDbCircle
 62
9
  6
CONTINUOUS
 10
1961.9718113249
 20
205.8721774767
 40
104.1421341824
  0
CIRCLE
  5
5DC
100
AcDbEntity
  8
0
100
AcDbCircle
 62
9
  6
CONTINUOUS
 10
1961.9718113249
 20
205.8721774767
 40
95.8578819024
  0
CIRCLE
  5
5DD
100
AcDbEntity
  8
0
100
AcDbCircle
 62
9
  6
CONTINUOUS
 10
1961.9718113249
 20
205.8721774767
 40
81.7157475513
  0
ARC
  5
5DE
100
AcDbEntity
  8
0
100
AcDbCircle
 62
7
  6
CONTINUOUS
 10
2021.9718113249
 20
145.8721774767
 40
40.0
100
AcDbArc
 50
270.0
 51
360.0
  0
ARC
  5
5DF
100
AcDbEntity
  8
0
100
AcDbCircle
 62
7
  6
CONTINUOUS
 10
2021.9718113249
 20
145.8721774767
 40
39.8284271247
100
AcDbArc
 50
270.0
 51
360.0
  0
ARC
  5
5E0
100
AcDbEntity
  8
3_ALL_AXES
100
AcDbCircle
 62
7
  6
CONTINUOUS
 10
2037.9857903025
 20
129.8581984991
 40
7.0
100
AcDbArc
 50
243.523214949
 51
26.4767850793
  0
ARC
  5
5E1
100
AcDbEntity
  8
0
100
AcDbCircle
 62
7
  6
CONTINUOUS
 10
2079.9718113249
 20
31.8721774767
 40
6.0
100
AcDbArc
 50
180.0
 51
270.0
  0
ARC
  5
5E2
100
AcDbEntity
  8
0
100
AcDbCircle
 62
3
  6
CONTINUOUS
 10
2070.9718113249
 20
87.8721774767
 40
6.0
100
AcDbArc
 50
0.0
 51
90.0
  0
ARC
  5
5E3
100
AcDbEntity
  8
3_ALL_AXES
100
AcDbCircle
 62
7
  6
CONTINUOUS
 10
2009.8072403706
 20
90.3872359128
 40
5.5
100
AcDbArc
 50
174.9184146751
 51
5.0815853249
  0
ARC
  5
5E4
100
AcDbEntity
  8
0
100
AcDbCircle
 62
7
  6
CONTINUOUS
 10
2070.9718113249
 20
87.8721774767
 40
3.0
100
AcDbArc
 50
0.0
 51
90.0
  0
ARC
  5
5E5
100
AcDbEntity
  8
0
100
AcDbCircle
 62
3
  6
CONTINUOUS
 10
2079.9718113249
 20
31.8721774767
 40
3.0
100
AcDbArc
 50
180.0
 51
270.0
  0
ARC
  5
5E6
100
AcDbEntity
  8
0
100
AcDbCircle
 62
7
  6
CONTINUOUS
 10
2021.9718113249
 20
265.8721774767
 40
40.0
100
AcDbArc
 50
0.0
 51
90.0
  0
ARC
  5
5E7
100
AcDbEntity
  8
0
100
AcDbCircle
 62
7
  6
CONTINUOUS
 10
2021.9718113249
 20
265.8721774767
 40
39.8284271247
100
AcDbArc
 50
0.0
 51
90.0
  0
ARC
  5
5E8
100
AcDbEntity
  8
3_ALL_AXES
100
AcDbCircle
 62
7
  6
CONTINUOUS
 10
2037.9857903025
 20
281.8861564542
 40
7.0
100
AcDbArc
 50
333.5232149207
 51
116.476785051
  0
CIRCLE
  5
5E9
100
AcDbEntity
  8
3_ALL_AXES
100
AcDbCircle
 62
7
  6
CONTINUOUS
 10
2077.4567528888
 20
158.0367484311
 40
5.5
  0
CIRCLE
  5
5EA
100
AcDbEntity
  8
3_ALL_AXES
100
AcDbCircle
 62
7
  6
CONTINUOUS
 10
2077.4567528888
 20
253.7076065223
 40
5.5
  0
ARC
  5
5EB
100
AcDbEntity
  8
0
100
AcDbCircle
 62
7
  6
CONTINUOUS
 10
1944.9718113249
 20
296.6745619986
 40
167.0
100
AcDbArc
 50
0.0
 51
65.9105069335
  0
ARC
  5
5EC
100
AcDbEntity
  8
0
100
AcDbCircle
 62
7
  6
CONTINUOUS
 10
1944.9718113249
 20
296.6745619986
 40
167.0
100
AcDbArc
 50
157.5292684807
 51
180.0
  0
ARC
  5
5ED
100
AcDbEntity
  8
0
100
AcDbCircle
 62
7
  6
CONTINUOUS
 10
1944.9718113249
 20
296.6745619986
 40
165.2842712475
100
AcDbArc
 50
114.1372180175
 51
145.9833459452
  0
ARC
  5
5EE
100
AcDbEntity
  8
0
100
AcDbCircle
 62
9
  6
CONTINUOUS
 10
1944.9718113249
 20
296.6745619986
 40
137.0
100
AcDbArc
 50
114.9668814511
 51
180.0
  0
ARC
  5
5EF
100
AcDbEntity
  8
0
100
AcDbCircle
 62
9
  6
CONTINUOUS
 10
1944.9718113249
 20
296.6745619986
 40
137.0
100
AcDbArc
 50
0.0
 51
65.0331172528
  0
ARC
  5
5F0
100
AcDbEntity
  8
0
100
AcDbCircle
 62
7
  6
CONTINUOUS
 10
1944.9718113249
 20
370.8721774767
 40
114.0
100
AcDbArc
 50
33.4963176203
 51
33.8474175378
  0
ARC
  5
5F1
100
AcDbEntity
  8
0
100
AcDbCircle
 62
7
  6
CONTINUOUS
 10
1944.9718113249
 20
370.8721774767
 40
114.0
100
AcDbArc
 50
56.5884482892
 51
105.2547519087
  0
ARC
  5
5F2
100
AcDbEntity
  8
0
100
AcDbCircle
 62
9
  6
CONTINUOUS
 10
1944.9718113249
 20
370.8721774767
 40
111.0
100
AcDbArc
 50
37.6917727831
 51
37.7970953363
  0
ARC
  5
5F3
100
AcDbEntity
  8
0
100
AcDbCircle
 62
9
  6
CONTINUOUS
 10
1944.9718113249
 20
370.8721774767
 40
111.0
100
AcDbArc
 50
59.0745826191
 51
104.1422755927
  0
ARC
  5
5F4
100
AcDbEntity
  8
02___PRT_ALL_AXES
100
AcDbCircle
 62
7
  6
CONTINUOUS
 10
1910.3389606959
 20
454.483275169
 40
9.0
100
AcDbArc
 50
336.1574045281
 51
31.2349356865
  0
ARC
  5
5F5
100
AcDbEntity
  8
02___PRT_ALL_AXES
100
AcDbCircle
 62
7
  6
CONTINUOUS
 10
1981.5180791158
 20
459.1026728315
 40
9.0
100
AcDbArc
 50
49.099100065
 51
131.2185352906
  0
ARC
  5
5F6
100
AcDbEntity
  8
0
100
AcDbCircle
 62
7
  6
CONTINUOUS
 10
1935.9720026203
 20
454.8721774767
 40
3.999922558
100
AcDbArc
 50
269.9972598955
 51
360.0
  0
ARC
  5
5F7
100
AcDbEntity
  8
0
100
AcDbCircle
 62
7
  6
CONTINUOUS
 10
1948.9718113249
 20
553.8721774767
 40
3.0
100
AcDbArc
 50
270.0
 51
360.0
  0
ARC
  5
5F8
100
AcDbEntity
  8
0
100
AcDbCircle
 62
7
  6
CONTINUOUS
 10
1914.9718113249
 20
477.8721774767
 40
3.0
100
AcDbArc
 50
0.0
 51
90.0
  0
ARC
  5
5F9
100
AcDbEntity
  8
0
100
AcDbCircle
 62
7
  6
CONTINUOUS
 10
2073.9716267335
 20
408.9245112064
 40
3.9999416017
100
AcDbArc
 50
180.0032603462
 51
221.032449347
  0
ARC
  5
5FA
100
AcDbEntity
  8
0
100
AcDbCircle
 62
9
  6
CONTINUOUS
 10
2004.9646572499
 20
432.1002613405
 40
22.7719172599
100
AcDbArc
 50
65.2594352692
 51
89.9819998331
  0
ARC
  5
5FB
100
AcDbEntity
  8
0
100
AcDbCircle
 62
7
  6
CONTINUOUS
 10
2004.9718113249
 20
430.8721774767
 40
20.0
100
AcDbArc
 50
65.910602816
 51
90.0000091482
  0
ARC
  5
5FC
100
AcDbEntity
  8
0
100
AcDbCircle
 62
7
  6
CONTINUOUS
 10
702.6178893686
 20
-480.0364522889
 40
20.0
100
AcDbArc
 50
224.9999942359
 51
270.0
  0
ARC
  5
5FD
100
AcDbEntity
  8
0
100
AcDbCircle
 62
7
  6
CONTINUOUS
 10
694.3336390749
 20
-471.7522003284
 40
20.0
100
AcDbArc
 50
180.0
 51
224.9999942359
  0
ARC
  5
5FE
100
AcDbEntity
  8
0
100
AcDbCircle
 62
3
  6
CONTINUOUS
 10
782.8336390749
 20
-520.0364522889
 40
15.0
100
AcDbArc
 50
180.0
 51
270.0
  0
ARC
  5
5FF
100
AcDbEntity
  8
02___PRT_ALL_AXES
100
AcDbCircle
 62
3
  6
CONTINUOUS
 10
790.3336390749
 20
-522.0364522889
 40
6.0
100
AcDbArc
 50
180.0
 51
360.0
  0
ARC
  5
600
100
AcDbEntity
  8
02___PRT_ALL_AXES
100
AcDbCircle
 62
3
  6
CONTINUOUS
 10
790.3336390749
 20
-518.0364522889
 40
6.0
100
AcDbArc
 50
0.0
 51
180.0
  0
ARC
  5
601
100
AcDbEntity
  8
0
100
AcDbCircle
 62
3
  6
CONTINUOUS
 10
937.8336390749
 20
-520.0364522889
 40
15.0
100
AcDbArc
 50
270.0
 51
360.0
  0
ARC
  5
602
100
AcDbEntity
  8
02___PRT_ALL_AXES
100
AcDbCircle
 62
3
  6
CONTINUOUS
 10
930.3336390749
 20
-522.0364522889
 40
6.0
100
AcDbArc
 50
180.0
 51
360.0
  0
ARC
  5
603
100
AcDbEntity
  8
02___PRT_ALL_AXES
100
AcDbCircle
 62
3
  6
CONTINUOUS
 10
930.3336390749
 20
-518.0364522889
 40
6.0
100
AcDbArc
 50
0.0
 51
180.0
  0
ARC
  5
604
100
AcDbEntity
  8
0
100
AcDbCircle
 62
7
  6
CONTINUOUS
 10
1001.3336390749
 20
-487.0364522889
 40
3.0
100
AcDbArc
 50
250.5287793655
 51
270.0
  0
ARC
  5
605
100
AcDbEntity
  8
0
100
AcDbCircle
 62
7
  6
CONTINUOUS
 10
1013.3336390749
 20
-488.0364522889
 40
2.0
100
AcDbArc
 50
270.0
 51
360.0
  0
ARC
  5
606
100
AcDbEntity
  8
0
100
AcDbCircle
 62
9
  6
CONTINUOUS
 10
1043.5901080043
 20
-439.8602419442
 40
7.9859094114
100
AcDbArc
 50
49.9031399537
 51
89.9906217986
  0
ARC
  5
607
100
AcDbEntity
  8
0
100
AcDbCircle
 62
2
  6
CONTINUOUS
 10
1023.8336390749
 20
-390.0364522889
 40
6.6
100
AcDbArc
 50
255.0
 51
195.0
  0
CIRCLE
  5
608
100
AcDbEntity
  8
3_ALL_AXES
100
AcDbCircle
 62
7
  6
CONTINUOUS
 10
1023.8336390749
 20
-390.0364522889
 40
5.875
  0
ARC
  5
609
100
AcDbEntity
  8
0
100
AcDbCircle
 62
9
  6
CONTINUOUS
 10
1018.3336390749
 20
-433.0364522889
 40
5.0
100
AcDbArc
 50
90.0
 51
180.0
  0
CIRCLE
  5
60A
100
AcDbEntity
  8
3_ALL_AXES
100
AcDbCircle
 62
7
  6
CONTINUOUS
 10
1023.8336390749
 20
-390.0364522889
 40
3.0
  0
ARC
  5
60B
100
AcDbEntity
  8
0
100
AcDbCircle
 62
7
  6
CONTINUOUS
 10
1018.3336390749
 20
-433.0364522889
 40
3.0
100
AcDbArc
 50
90.0
 51
180.0
  0
ARC
  5
60C
100
AcDbEntity
  8
0
100
AcDbCircle
 62
7
  6
CONTINUOUS
 10
702.6178893686
 20
-300.0364522889
 40
20.0
100
AcDbArc
 50
90.0
 51
135.0000057641
  0
ARC
  5
60D
100
AcDbEntity
  8
0
100
AcDbCircle
 62
7
  6
CONTINUOUS
 10
694.3336390749
 20
-308.3207042494
 40
20.0
100
AcDbArc
 50
135.0000057641
 51
180.0
  0
ARC
  5
60E
100
AcDbEntity
  8
0
100
AcDbCircle
 62
3
  6
CONTINUOUS
 10
937.8336390749
 20
-260.0364522889
 40
15.0
100
AcDbArc
 50
0.0
 51
90.0
  0
ARC
  5
60F
100
AcDbEntity
  8
0
100
AcDbCircle
 62
3
  6
CONTINUOUS
 10
782.8336390749
 20
-260.0364522889
 40
15.0
100
AcDbArc
 50
90.0
 51
180.0
  0
ARC
  5
610
100
AcDbEntity
  8
0
100
AcDbCircle
 62
9
  6
CONTINUOUS
 10
1043.5901080341
 20
-340.2126627147
 40
7.9859094111
100
AcDbArc
 50
270.0093779881
 51
310.096860258
  0
ARC
  5
611
100
AcDbEntity
  8
02___PRT_ALL_AXES
100
AcDbCircle
 62
3
  6
CONTINUOUS
 10
790.3336390749
 20
-258.0364522889
 40
6.0
100
AcDbArc
 50
0.0
 51
180.0
  0
ARC
  5
612
100
AcDbEntity
  8
02___PRT_ALL_AXES
100
AcDbCircle
 62
3
  6
CONTINUOUS
 10
790.3336390749
 20
-262.0364522889
 40
6.0
100
AcDbArc
 50
180.0
 51
360.0
  0
ARC
  5
613
100
AcDbEntity
  8
02___PRT_ALL_AXES
100
AcDbCircle
 62
3
  6
CONTINUOUS
 10
930.3336390749
 20
-258.0364522889
 40
6.0
100
AcDbArc
 50
0.0
 51
180.0
  0
ARC
  5
614
100
AcDbEntity
  8
02___PRT_ALL_AXES
100
AcDbCircle
 62
3
  6
CONTINUOUS
 10
930.3336390749
 20
-262.0364522889
 40
6.0
100
AcDbArc
 50
180.0
 51
360.0
  0
ARC
  5
615
100
AcDbEntity
  8
0
100
AcDbCircle
 62
9
  6
CONTINUOUS
 10
1018.3336390749
 20
-347.0364522889
 40
5.0
100
AcDbArc
 50
180.0
 51
270.0
  0
ARC
  5
616
100
AcDbEntity
  8
0
100
AcDbCircle
 62
7
  6
CONTINUOUS
 10
1018.3336390749
 20
-347.0364522889
 40
3.0
100
AcDbArc
 50
180.0
 51
270.0
  0
ARC
  5
617
100
AcDbEntity
  8
0
100
AcDbCircle
 62
7
  6
CONTINUOUS
 10
1001.3336390749
 20
-293.0364522889
 40
3.0
100
AcDbArc
 50
90.0
 51
109.4712206345
  0
ARC
  5
618
100
AcDbEntity
  8
0
100
AcDbCircle
 62
7
  6
CONTINUOUS
 10
1013.3336390749
 20
-292.0364522889
 40
2.0
100
AcDbArc
 50
0.0
 51
90.0
  0
ARC
  5
619
100
AcDbEntity
  8
0
100
AcDbCircle
 62
7
  6
CONTINUOUS
 10
1127.8336390749
 20
-510.0364522889
 40
30.0
100
AcDbArc
 50
180.0
 51
270.0
  0
ARC
  5
61A
100
AcDbEntity
  8
0
100
AcDbCircle
 62
9
  6
CONTINUOUS
 10
1075.3001021362
 20
-466.7562398528
 40
8.0335369867
100
AcDbArc
 50
0.0062655027
 51
8.5826575895
  0
ARC
  5
61B
100
AcDbEntity
  8
0
100
AcDbCircle
 62
9
  6
CONTINUOUS
 10
1075.3204345509
 20
-466.7529433492
 40
8.0129054238
100
AcDbArc
 50
8.5810468988
 51
49.9539524809
  0
ARC
  5
61C
100
AcDbEntity
  8
0
100
AcDbCircle
 62
9
  6
CONTINUOUS
 10
1087.3336390749
 20
-472.6644376367
 40
7.0
100
AcDbArc
 50
180.0
 51
231.3178125465
  0
ARC
  5
61D
100
AcDbEntity
  8
0
100
AcDbCircle
 62
7
  6
CONTINUOUS
 10
1082.3336390749
 20
-478.9094356351
 40
4.0
100
AcDbArc
 50
0.0
 51
51.3178125719
  0
ARC
  5
61E
100
AcDbEntity
  8
0
100
AcDbCircle
 62
7
  6
CONTINUOUS
 10
1087.3336390749
 20
-472.6644376272
 40
4.0
100
AcDbArc
 50
180.0000000571
 51
231.3178126055
  0
ARC
  5
61F
100
AcDbEntity
  8
0
100
AcDbCircle
 62
7
  6
CONTINUOUS
 10
1083.3336390749
 20
-493.0364522889
 40
3.0
100
AcDbArc
 50
0.0
 51
90.0
  0
ARC
  5
620
100
AcDbEntity
  8
0
100
AcDbCircle
 62
7
  6
CONTINUOUS
 10
1088.3336390749
 20
-523.0364522889
 40
2.0
100
AcDbArc
 50
180.0
 51
270.0
  0
ARC
  5
621
100
AcDbEntity
  8
0
100
AcDbCircle
 62
9
  6
CONTINUOUS
 10
1082.3336390749
 20
-478.9094356351
 40
1.0
100
AcDbArc
 50
0.0
 51
51.3178125465
  0
ARC
  5
622
100
AcDbEntity
  8
0
100
AcDbCircle
 62
9
  6
CONTINUOUS
 10
1234.1786324661
 20
-433.0311190022
 40
100.344993533
100
AcDbArc
 50
180.0030452423
 51
184.6693379925
  0
ARC
  5
623
100
AcDbEntity
  8
0
100
AcDbCircle
 62
9
  6
CONTINUOUS
 10
1102.004404988
 20
-433.0521603556
 40
99.8292353227
100
AcDbArc
 50
355.3186013107
 51
0.0090154545
  0
ARC
  5
624
100
AcDbEntity
  8
02___PRT_ALL_AXES
100
AcDbCircle
 62
7
  6
CONTINUOUS
 10
1204.3799068658
 20
-354.2669476437
 40
9.0
100
AcDbArc
 50
186.3723797868
 51
38.6276202132
  0
ARC
  5
625
100
AcDbEntity
  8
02___PRT_ALL_AXES
100
AcDbCircle
 62
7
  6
CONTINUOUS
 10
1131.287371284
 20
-354.2669476437
 40
9.0
100
AcDbArc
 50
141.3723797868
 51
353.6276202132
  0
ARC
  5
626
100
AcDbEntity
  8
0
100
AcDbCircle
 62
7
  6
CONTINUOUS
 10
1082.3336390749
 20
-434.0364522889
 40
4.0
100
AcDbArc
 50
0.0
 51
90.0
  0
ARC
  5
627
100
AcDbEntity
  8
0
100
AcDbCircle
 62
9
  6
CONTINUOUS
 10
1085.9888316251
 20
-428.6444020382
 40
2.6692627896
100
AcDbArc
 50
229.5005707199
 51
238.4838985372
  0
ARC
  5
628
100
AcDbEntity
  8
0
100
AcDbCircle
 62
9
  6
CONTINUOUS
 10
1085.9819606289
 20
-351.4223863608
 40
2.660458396
100
AcDbArc
 50
121.4588113029
 51
130.4699096226
  0
ARC
  5
629
100
AcDbEntity
  8
0
100
AcDbCircle
 62
9
  6
CONTINUOUS
 10
1085.9704919406
 20
-428.6669254637
 40
2.6402252514
100
AcDbArc
 50
228.7788664413
 51
229.4857727435
  0
ARC
  5
62A
100
AcDbEntity
  8
0
100
AcDbCircle
 62
9
  6
CONTINUOUS
 10
1085.9677429639
 20
-428.6701530906
 40
2.6359860371
100
AcDbArc
 50
221.4000896358
 51
228.777579749
  0
ARC
  5
62B
100
AcDbEntity
  8
0
100
AcDbCircle
 62
9
  6
CONTINUOUS
 10
1085.9642975931
 20
-351.4006642881
 40
2.6324693101
100
AcDbArc
 50
130.48430895
 51
131.188322915
  0
ARC
  5
62C
100
AcDbEntity
  8
0
100
AcDbCircle
 62
9
  6
CONTINUOUS
 10
1085.9622424167
 20
-351.398193286
 40
2.6292563529
100
AcDbArc
 50
131.1900798186
 51
138.6155755876
  0
ARC
  5
62D
100
AcDbEntity
  8
0
100
AcDbCircle
 62
9
  6
CONTINUOUS
 10
1085.9595303423
 20
-428.6777894515
 40
2.6247756589
100
AcDbArc
 50
220.835664332
 51
221.3936065349
  0
ARC
  5
62E
100
AcDbEntity
  8
0
100
AcDbCircle
 62
9
  6
CONTINUOUS
 10
1085.9547245575
 20
-351.3911936793
 40
2.6189882919
100
AcDbArc
 50
138.6217367017
 51
139.1821758004
  0
ARC
  5
62F
100
AcDbEntity
  8
0
100
AcDbCircle
 62
9
  6
CONTINUOUS
 10
1084.0643456861
 20
-431.0733400073
 40
0.5674494639
100
AcDbArc
 50
47.7642369313
 51
51.2454361051
  0
ARC
  5
630
100
AcDbEntity
  8
0
100
AcDbCircle
 62
7
  6
CONTINUOUS
 10
1317.8336390749
 20
-510.0364522889
 40
30.0
100
AcDbArc
 50
270.0
 51
360.0
  0
ARC
  5
631
100
AcDbEntity
  8
0
100
AcDbCircle
 62
7
  6
CONTINUOUS
 10
1351.8336390749
 20
-467.0364522889
 40
4.0
100
AcDbArc
 50
90.0
 51
180.0
  0
ARC
  5
632
100
AcDbEntity
  8
0
100
AcDbCircle
 62
7
  6
CONTINUOUS
 10
1445.8336390749
 20
-484.0364522889
 40
3.0
100
AcDbArc
 50
180.0
 51
270.0
  0
ARC
  5
633
100
AcDbEntity
  8
0
100
AcDbCircle
 62
7
  6
CONTINUOUS
 10
1369.8336390749
 20
-450.0364522889
 40
3.0
100
AcDbArc
 50
270.0
 51
360.0
  0
ARC
  5
634
100
AcDbEntity
  8
0
100
AcDbCircle
 62
7
  6
CONTINUOUS
 10
1440.8336390749
 20
-433.0364522889
 40
2.0
100
AcDbArc
 50
0.0
 51
90.0
  0
ARC
  5
635
100
AcDbEntity
  8
0
100
AcDbCircle
 62
7
  6
CONTINUOUS
 10
1374.8336390749
 20
-433.0364522889
 40
2.0
100
AcDbArc
 50
90.0
 51
180.0
  0
CIRCLE
  5
636
100
AcDbEntity
  8
02___PRT_ALL_AXES
100
AcDbCircle
 62
7
  6
CONTINUOUS
 10
1167.8336390749
 20
-266.0364522889
 40
114.0
  0
CIRCLE
  5
637
100
AcDbEntity
  8
0
100
AcDbCircle
 62
7
  6
CONTINUOUS
 10
1167.8336390749
 20
-266.0364522889
 40
50.0
  0
ARC
  5
638
100
AcDbEntity
  8
02___PRT_ALL_AXES
100
AcDbCircle
 62
7
  6
CONTINUOUS
 10
1251.4447367672
 20
-300.6693029179
 40
9.0
100
AcDbArc
 50
51.3723797868
 51
263.6276202132
  0
ARC
  5
639
100
AcDbEntity
  8
02___PRT_ALL_AXES
100
AcDbCircle
 62
7
  6
CONTINUOUS
 10
1202.4664897039
 20
-349.6475499812
 40
9.0
100
AcDbArc
 50
6.3723797868
 51
218.6276202132
  0
ARC
  5
63A
100
AcDbEntity
  8
02___PRT_ALL_AXES
100
AcDbCircle
 62
7
  6
CONTINUOUS
 10
1133.2007884459
 20
-349.6475499812
 40
9.0
100
AcDbArc
 50
321.3723797868
 51
173.6276202132
  0
ARC
  5
63B
100
AcDbEntity
  8
02___PRT_ALL_AXES
100
AcDbCircle
 62
7
  6
CONTINUOUS
 10
1084.2225413826
 20
-300.6693029179
 40
9.0
100
AcDbArc
 50
276.3723797868
 51
128.6276202132
  0
ARC
  5
63C
100
AcDbEntity
  8
02___PRT_ALL_AXES
100
AcDbCircle
 62
7
  6
CONTINUOUS
 10
1256.0641344297
 20
-302.5827200797
 40
9.0
100
AcDbArc
 50
231.3723797868
 51
83.6276202132
  0
ARC
  5
63D
100
AcDbEntity
  8
02___PRT_ALL_AXES
100
AcDbCircle
 62
7
  6
CONTINUOUS
 10
1079.6031437201
 20
-302.5827200797
 40
9.0
100
AcDbArc
 50
96.3723797868
 51
308.6276202132
  0
ARC
  5
63E
100
AcDbEntity
  8
0
100
AcDbCircle
 62
9
  6
CONTINUOUS
 10
1087.3336390749
 20
-307.4084669411
 40
7.0
100
AcDbArc
 50
128.6821874535
 51
180.0
  0
ARC
  5
63F
100
AcDbEntity
  8
0
100
AcDbCircle
 62
7
  6
CONTINUOUS
 10
1082.3336390749
 20
-301.1634689427
 40
4.0
100
AcDbArc
 50
308.6821874281
 51
360.0
  0
ARC
  5
640
100
AcDbEntity
  8
0
100
AcDbCircle
 62
7
  6
CONTINUOUS
 10
1082.3336390749
 20
-346.0364522889
 40
4.0
100
AcDbArc
 50
270.0
 51
360.0
  0
ARC
  5
641
100
AcDbEntity
  8
0
100
AcDbCircle
 62
7
  6
CONTINUOUS
 10
1087.3336390749
 20
-307.4084669411
 40
4.0
100
AcDbArc
 50
128.6821874788
 51
180.0000000771
  0
ARC
  5
642
100
AcDbEntity
  8
0
100
AcDbCircle
 62
9
  6
CONTINUOUS
 10
1082.3336390749
 20
-301.1634689427
 40
1.0
100
AcDbArc
 50
308.6821874535
 51
360.0
  0
ARC
  5
643
100
AcDbEntity
  8
0
100
AcDbCircle
 62
9
  6
CONTINUOUS
 10
1084.0689049779
 20
-349.004545026
 40
0.5607645243
100
AcDbArc
 50
309.0171425934
 51
312.2939938131
  0
ARC
  5
644
100
AcDbEntity
  8
02___PRT_ALL_AXES
100
AcDbCircle
 62
7
  6
CONTINUOUS
 10
1251.4447367672
 20
-231.4036016598
 40
9.0
100
AcDbArc
 50
96.3723797868
 51
308.6276202132
  0
ARC
  5
645
100
AcDbEntity
  8
02___PRT_ALL_AXES
100
AcDbCircle
 62
7
  6
CONTINUOUS
 10
1084.2225413826
 20
-231.4036016598
 40
9.0
100
AcDbArc
 50
231.3723797868
 51
83.6276202132
  0
ARC
  5
646
100
AcDbEntity
  8
02___PRT_ALL_AXES
100
AcDbCircle
 62
7
  6
CONTINUOUS
 10
1133.2007884459
 20
-182.4253545966
 40
9.0
100
AcDbArc
 50
186.3723797868
 51
38.6276202132
  0
ARC
  5
647
100
AcDbEntity
  8
02___PRT_ALL_AXES
100
AcDbCircle
 62
7
  6
CONTINUOUS
 10
1202.4664897039
 20
-182.4253545966
 40
9.0
100
AcDbArc
 50
141.3723797868
 51
353.6276202132
  0
ARC
  5
648
100
AcDbEntity
  8
02___PRT_ALL_AXES
100
AcDbCircle
 62
7
  6
CONTINUOUS
 10
1256.0641344297
 20
-229.490184498
 40
9.0
100
AcDbArc
 50
276.3723797868
 51
128.6276202132
  0
ARC
  5
649
100
AcDbEntity
  8
02___PRT_ALL_AXES
100
AcDbCircle
 62
7
  6
CONTINUOUS
 10
1079.6031437201
 20
-229.490184498
 40
9.0
100
AcDbArc
 50
51.3723797868
 51
263.6276202132
  0
ARC
  5
64A
100
AcDbEntity
  8
02___PRT_ALL_AXES
100
AcDbCircle
 62
7
  6
CONTINUOUS
 10
1131.287371284
 20
-177.8059569341
 40
9.0
100
AcDbArc
 50
6.3723797868
 51
218.6276202132
  0
ARC
  5
64B
100
AcDbEntity
  8
02___PRT_ALL_AXES
100
AcDbCircle
 62
7
  6
CONTINUOUS
 10
1204.3799068658
 20
-177.8059569341
 40
9.0
100
AcDbArc
 50
321.3723797868
 51
173.6276202132
  0
ARC
  5
64C
100
AcDbEntity
  8
0
100
AcDbCircle
 62
7
  6
CONTINUOUS
 10
1351.8336390749
 20
-279.0364522889
 40
4.0
100
AcDbArc
 50
180.0
 51
270.0
  0
ARC
  5
64D
100
AcDbEntity
  8
0
100
AcDbCircle
 62
7
  6
CONTINUOUS
 10
1369.8336390749
 20
-296.0364522889
 40
3.0
100
AcDbArc
 50
0.0
 51
90.0
  0
ARC
  5
64E
100
AcDbEntity
  8
0
100
AcDbCircle
 62
7
  6
CONTINUOUS
 10
1440.8336390749
 20
-313.0364522889
 40
2.0
100
AcDbArc
 50
270.0
 51
360.0
  0
ARC
  5
64F
100
AcDbEntity
  8
0
100
AcDbCircle
 62
7
  6
CONTINUOUS
 10
1374.8336390749
 20
-313.0364522889
 40
2.0
100
AcDbArc
 50
180.0
 51
270.0
  0
ARC
  5
650
100
AcDbEntity
  8
0
100
AcDbCircle
 62
7
  6
CONTINUOUS
 10
1317.8336390749
 20
-236.0364522889
 40
30.0
100
AcDbArc
 50
0.0
 51
90.0
  0
ARC
  5
651
100
AcDbEntity
  8
0
100
AcDbCircle
 62
7
  6
CONTINUOUS
 10
1445.8336390749
 20
-262.0364522889
 40
3.0
100
AcDbArc
 50
90.0
 51
180.0
  0
ARC
  5
652
100
AcDbEntity
  8
0
100
AcDbCircle
 62
9
  6
CONTINUOUS
 10
7051.7189226403
 20
-7408.5188958523
 40
9268.7896954469
100
AcDbArc
 50
130.1804620719
 51
130.3650899129
  0
ARC
  5
653
100
AcDbEntity
  8
0
100
AcDbCircle
 62
9
  6
CONTINUOUS
 10
6517.4768749139
 20
-6772.2354177413
 40
8440.9548520702
100
AcDbArc
 50
130.1923917534
 51
130.3992931611
  0
ARC
  5
654
100
AcDbEntity
  8
0
100
AcDbCircle
 62
9
  6
CONTINUOUS
 10
8345.2012846399
 20
8154.3593190453
 40
11269.165165531
100
AcDbArc
 50
229.6487373727
 51
229.8601753787
  0
ARC
  5
655
100
AcDbEntity
  8
0
100
AcDbCircle
 62
9
  6
CONTINUOUS
 10
7497.1492279367
 20
7146.7094346508
 40
9955.1319813939
100
AcDbArc
 50
229.6134155189
 51
229.8528378996
  0
SPLINE
  5
656
100
AcDbEntity
  8
0
100
AcDbSpline
 62
9
  6
CONTINUOUS
 70
0
 71
3
 72
13
 73
9
 74
0
 42
0.0000001
 43
0.0000001
 44
0.0000000001
 40
0.0
 40
0.0
 40
0.0
 40
0.0
 40
0.2962096918
 40
0.564508425
 40
0.685058441
 40
0.7963874635
 40
0.9002904343
 40
1.0
 40
1.0
 40
1.0
 40
1.0
 10
1048.7337139822
 20
213.4782384407
 30
0.0
 10
1048.7039385617
 20
213.1315585334
 30
0.0
 10
1048.5724727726
 20
212.4746213245
 30
0.0
 10
1048.2117335504
 20
211.7403048534
 30
0.0
 10
1047.8224502708
 20
211.2958694027
 30
0.0
 10
1047.5054899594
 20
211.0556809742
 30
0.0
 10
1047.1628641201
 20
210.9063212053
 30
0.0
 10
1046.9224815731
 20
210.8721776243
 30
0.0
 10
1046.8053531843
 20
210.8721774767
 30
0.0
  0
SPLINE
  5
657
100
AcDbEntity
  8
0
100
AcDbSpline
 62
9
  6
CONTINUOUS
 70
0
 71
3
 72
11
 73
7
 74
0
 42
0.0000001
 43
0.0000001
 44
0.0000000001
 40
0.0
 40
0.0
 40
0.0
 40
0.0
 40
0.2499922568
 40
0.4999916916
 40
0.7499953028
 40
1.0
 40
1.0
 40
1.0
 40
1.0
 10
1078.756858095
 20
278.1993265627
 30
0.0
 10
1079.0165918436
 20
278.4461261201
 30
0.0
 10
1079.484549371
 20
278.9972409221
 30
0.0
 10
1079.996060491
 20
279.9513723967
 30
0.0
 10
1080.2974835804
 20
280.9911039992
 30
0.0
 10
1080.3498615708
 20
281.7120162811
 30
0.0
 10
1080.3382599782
 20
282.0701361234
 30
0.0
  0
SPLINE
  5
658
100
AcDbEntity
  8
0
100
AcDbSpline
 62
9
  6
CONTINUOUS
 70
0
 71
3
 72
10
 73
6
 74
0
 42
0.0000001
 43
0.0000001
 44
0.0000000001
 40
0.0
 40
0.0
 40
0.0
 40
0.0
 40
0.2499999497
 40
0.5000000093
 40
1.0
 40
1.0
 40
1.0
 40
1.0
 10
1047.1231542482
 20
250.9723057509
 30
0.0
 10
1049.7259922529
 20
253.245283686
 30
0.0
 10
1054.9444946515
 20
257.7765598724
 30
0.0
 10
1065.4154974417
 20
266.7997372061
 30
0.0
 10
1073.2950488168
 20
273.5365224941
 30
0.0
 10
1078.5541832267
 20
278.0205274219
 30
0.0
  0
SPLINE
  5
659
100
AcDbEntity
  8
0
100
AcDbSpline
 62
9
  6
CONTINUOUS
 70
0
 71
3
 72
11
 73
7
 74
0
 42
0.0000001
 43
0.0000001
 44
0.0000000001
 40
0.0
 40
0.0
 40
0.0
 40
0.0
 40
0.249986353
 40
0.4999790986
 40
0.7499828792
 40
1.0
 40
1.0
 40
1.0
 40
1.0
 10
1043.5914151358
 20
249.4755030379
 30
0.0
 10
1043.8970208227
 20
249.4755029281
 30
0.0
 10
1044.5098155665
 20
249.5340189582
 30
0.0
 10
1045.3946759701
 20
249.793457645
 30
0.0
 10
1046.2157249975
 20
250.212926181
 30
0.0
 10
1046.7031534727
 20
250.5883450397
 30
0.0
 10
1046.92753999
 20
250.7958745986
 30
0.0
  0
SPLINE
  5
65A
100
AcDbEntity
  8
0
100
AcDbSpline
 62
9
  6
CONTINUOUS
 70
0
 71
3
 72
15
 73
11
 74
0
 42
0.0000001
 43
0.0000001
 44
0.0000000001
 40
0.0
 40
0.0
 40
0.0
 40
0.0
 40
0.125006382
 40
0.2500346131
 40
0.3750465783
 40
0.5000554918
 40
0.6250754523
 40
0.7500595886
 40
0.875032936
 40
1.0
 40
1.0
 40
1.0
 40
1.0
 10
1018.2847784424
 20
251.0572428487
 30
0.0
 10
1018.2516066492
 20
250.9708572753
 30
0.0
 10
1018.2053998789
 20
250.7895099372
 30
0.0
 10
1018.2026979821
 20
250.5093140867
 30
0.0
 10
1018.2659119852
 20
250.2364349331
 30
0.0
 10
1018.3889408136
 20
249.9847223445
 30
0.0
 10
1018.5690104718
 20
249.76985519
 30
0.0
 10
1018.7951563641
 20
249.6041168154
 30
0.0
 10
1019.0552635072
 20
249.4994321466
 30
0.0
 10
1019.2411325913
 20
249.4755034657
 30
0.0
 10
1019.3336390749
 20
249.4755030379
 30
0.0
  0
SPLINE
  5
65B
100
AcDbEntity
  8
0
100
AcDbSpline
 62
9
  6
CONTINUOUS
 70
0
 71
3
 72
9
 73
5
 74
0
 42
0.0000001
 43
0.0000001
 44
0.0000000001
 40
0.0
 40
0.0
 40
0.0
 40
0.0
 40
0.4996362299
 40
1.0
 40
1.0
 40
1.0
 40
1.0
 10
1018.3336390749
 20
251.2841802953
 30
0.0
 10
1018.3336395882
 20
251.245348153
 30
0.0
 10
1018.3236024548
 20
251.1674328488
 30
0.0
 10
1018.2987037111
 20
251.0935528597
 30
0.0
 10
1018.2847784424
 20
251.0572428487
 30
0.0
  0
LINE
  5
65C
100
AcDbEntity
  8
0
100
AcDbLine
 62
9
  6
CONTINUOUS
 10
1048.7337160133
 20
248.4878785731
 11
1049.0363139487
 21
248.7509477363
  0
SPLINE
  5
65D
100
AcDbEntity
  8
0
100
AcDbSpline
 62
9
  6
CONTINUOUS
 70
0
 71
3
 72
11
 73
7
 74
0
 42
0.0000001
 43
0.0000001
 44
0.0000000001
 40
0.0
 40
0.0
 40
0.0
 40
0.0
 40
0.2518297471
 40
0.5014044018
 40
0.7501893398
 40
1.0
 40
1.0
 40
1.0
 40
1.0
 10
1082.3336390749
 20
114.1785602366
 30
0.0
 10
1082.5997538597
 20
114.3130691423
 30
0.0
 10
1083.0880468174
 20
114.6684273651
 30
0.0
 10
1083.6525889938
 20
115.3631460181
 30
0.0
 10
1084.0659996627
 20
116.1518306864
 30
0.0
 10
1084.2550247407
 20
116.7134541471
 30
0.0
 10
1084.3314603647
 20
116.9991941305
 30
0.0
  0
SPLINE
  5
65E
100
AcDbEntity
  8
0
100
AcDbSpline
 62
9
  6
CONTINUOUS
 70
0
 71
3
 72
11
 73
7
 74
0
 42
0.0000001
 43
0.0000001
 44
0.0000000001
 40
0.0
 40
0.0
 40
0.0
 40
0.0
 40
0.2498447431
 40
0.4986303534
 40
0.7481823148
 40
1.0
 40
1.0
 40
1.0
 40
1.0
 10
1084.3314605117
 20
294.7451608229
 30
0.0
 10
1084.2556202473
 20
295.0312135665
 30
0.0
 10
1084.0675882752
 20
295.5934674908
 30
0.0
 10
1083.6547727423
 20
296.3829182072
 30
0.0
 10
1083.0895839624
 20
297.0776445113
 30
0.0
 10
1082.6002131434
 20
297.431986163
 30
0.0
 10
1082.3336390749
 20
297.5657949564
 30
0.0
  0
SPLINE
  5
65F
100
AcDbEntity
  8
0
100
AcDbSpline
 62
9
  6
CONTINUOUS
 70
0
 71
3
 72
26
 73
22
 74
0
 42
0.0000001
 43
0.0000001
 44
0.0000000001
 40
0.0
 40
0.0
 40
0.0
 40
0.0
 40
0.000262404
 40
0.0010504725
 40
0.0023654235
 40
0.0042082119
 40
0.0094803035
 40
0.0168706783
 40
0.0263800533
 40
0.0380059255
 40
0.0517425554
 40
0.0675809665
 40
0.1055109984
 40
0.1516598511
 40
0.20584038
 40
0.2678153495
 40
0.3372984684
 40
0.4139554088
 40
0.5872180932
 40
0.7840043199
 40
1.0
 40
1.0
 40
1.0
 40
1.0
 10
1084.8336295307
 20
291.6226541822
 30
0.0
 10
1084.8334536189
 20
291.6226893721
 30
0.0
 10
1084.8336525799
 20
291.6237358615
 30
0.0
 10
1084.8330058164
 20
291.6249905627
 30
0.0
 10
1084.8326708279
 20
291.6278249371
 30
0.0
 10
1084.8314556206
 20
291.633367512
 30
0.0
 10
1084.8296852498
 20
291.6431945018
 30
0.0
 10
1084.8268771051
 20
291.658056799
 30
0.0
 10
1084.823419941
 20
291.6772632138
 30
0.0
 10
1084.8192708425
 20
291.7007354275
 30
0.0
 10
1084.814494925
 20
291.7284970293
 30
0.0
 10
1084.806852696
 20
291.7740102873
 30
0.0
 10
1084.7959660539
 20
291.8414485768
 30
0.0
 10
1084.781597456
 20
291.9348741435
 30
0.0
 10
1084.7655200076
 20
292.0446663823
 30
0.0
 10
1084.7480102965
 20
292.1703687233
 30
0.0
 10
1084.7293527515
 20
292.3114227046
 30
0.0
 10
1084.7022111388
 20
292.5280959599
 30
0.0
 10
1084.667528289
 20
292.8315298228
 30
0.0
 10
1084.6278452594
 20
293.2302333443
 30
0.0
 10
1084.6044407798
 20
293.5114837462
 30
0.0
 10
1084.5935061165
 20
293.6587474725
 30
0.0
  0
SPLINE
  5
660
100
AcDbEntity
  8
0
100
AcDbSpline
 62
9
  6
CONTINUOUS
 70
0
 71
3
 72
9
 73
5
 74
0
 42
0.0000001
 43
0.0000001
 44
0.0000000001
 40
0.0
 40
0.0
 40
0.0
 40
0.0
 40
0.2457070417
 40
1.0
 40
1.0
 40
1.0
 40
1.0
 10
1084.5935061165
 20
293.6587474725
 30
0.0
 10
1084.586711215
 20
293.7502607934
 30
0.0
 10
1084.5455019618
 20
294.1214199398
 30
0.0
 10
1084.4448359046
 20
294.4872733735
 30
0.0
 10
1084.3314605024
 20
294.7451608452
 30
0.0
  0
SPLINE
  5
661
100
AcDbEntity
  8
0
100
AcDbSpline
 62
9
  6
CONTINUOUS
 70
0
 71
3
 72
26
 73
22
 74
0
 42
0.0000001
 43
0.0000001
 44
0.0000000001
 40
0.0
 40
0.0
 40
0.0
 40
0.0
 40
0.2158186368
 40
0.4124940168
 40
0.5857231352
 40
0.6623897961
 40
0.7318971924
 40
0.7939078478
 40
0.8481319189
 40
0.8943283627
 40
0.9323060897
 40
0.9481671377
 40
0.9619249371
 40
0.9735700186
 40
0.9830961566
 40
0.9905003691
 40
0.9957829041
 40
0.9976294971
 40
0.998947234
 40
0.9997370134
 40
1.0
 40
1.0
 40
1.0
 40
1.0
 10
1084.5935060081
 20
118.0856075486
 30
0.0
 10
1084.6048910153
 20
118.2327082421
 30
0.0
 10
1084.6289624909
 20
118.513687886
 30
0.0
 10
1084.6690964936
 20
118.9121029021
 30
0.0
 10
1084.7037994481
 20
119.2154245984
 30
0.0
 10
1084.73079897
 20
119.4321045586
 30
0.0
 10
1084.7493048378
 20
119.5732191409
 30
0.0
 10
1084.7666275951
 20
119.6990121936
 30
0.0
 10
1084.782498245
 20
119.8089163178
 30
0.0
 10
1084.7966547622
 20
119.9024653131
 30
0.0
 10
1084.8073621319
 20
119.9700103218
 30
0.0
 10
1084.8148693955
 20
120.0156070699
 30
0.0
 10
1084.8195578419
 20
120.0434257646
 30
0.0
 10
1084.8236283185
 20
120.0669502803
 30
0.0
 10
1084.8270173152
 20
120.0862020578
 30
0.0
 10
1084.829769546
 20
120.1011034345
 30
0.0
 10
1084.8315010931
 20
120.1109545373
 30
0.0
 10
1084.832693068
 20
120.116516106
 30
0.0
 10
1084.8330163932
 20
120.1193535439
 30
0.0
 10
1084.8336569746
 20
120.1206214622
 30
0.0
 10
1084.833454092
 20
120.1216614698
 30
0.0
 10
1084.8336295297
 20
120.1217007719
 30
0.0
  0
SPLINE
  5
662
100
AcDbEntity
  8
0
100
AcDbSpline
 62
9
  6
CONTINUOUS
 70
0
 71
3
 72
9
 73
5
 74
0
 42
0.0000001
 43
0.0000001
 44
0.0000000001
 40
0.0
 40
0.0
 40
0.0
 40
0.0
 40
0.2545525327
 40
1.0
 40
1.0
 40
1.0
 40
1.0
 10
1084.3314603581
 20
116.9991941148
 30
0.0
 10
1084.370023856
 20
117.0861270563
 30
0.0
 10
1084.5037769004
 20
117.4354953091
 30
0.0
 10
1084.5720157174
 20
117.8079339318
 30
0.0
 10
1084.5935060081
 20
118.0856075486
 30
0.0
  0
LINE
  5
663
100
AcDbEntity
  8
0
100
AcDbLine
 62
9
  6
CONTINUOUS
 10
1049.0363139487
 20
162.9934072171
 11
1048.7337160133
 21
163.2564763921
  0
SPLINE
  5
664
100
AcDbEntity
  8
0
100
AcDbSpline
 62
9
  6
CONTINUOUS
 70
0
 71
3
 72
13
 73
9
 74
0
 42
0.0000001
 43
0.0000001
 44
0.0000000001
 40
0.0
 40
0.0
 40
0.0
 40
0.0
 40
0.1325627091
 40
0.2266627795
 40
0.3419355428
 40
0.4782948565
 40
0.634644537
 40
1.0
 40
1.0
 40
1.0
 40
1.0
 10
1083.3336390749
 20
118.8721774767
 30
0.0
 10
1083.3336390749
 20
118.8043502084
 30
0.0
 10
1083.4011613943
 20
118.6945576821
 30
0.0
 10
1083.5295670529
 20
118.5790843195
 30
0.0
 10
1083.6761921746
 20
118.4779401005
 30
0.0
 10
1083.858785441
 20
118.3768718659
 30
0.0
 10
1084.1643672654
 20
118.2347508525
 30
0.0
 10
1084.4157219102
 20
118.1433897801
 30
0.0
 10
1084.5935060081
 20
118.0856075486
 30
0.0
  0
SPLINE
  5
665
100
AcDbEntity
  8
0
100
AcDbSpline
 62
9
  6
CONTINUOUS
 70
0
 71
3
 72
9
 73
5
 74
0
 42
0.0000001
 43
0.0000001
 44
0.0000000001
 40
0.0
 40
0.0
 40
0.0
 40
0.0
 40
0.5003743843
 40
1.0
 40
1.0
 40
1.0
 40
1.0
 10
1018.2847784424
 20
160.6871121046
 30
0.0
 10
1018.2987129799
 20
160.6508046259
 30
0.0
 10
1018.3236065885
 20
160.5769213128
 30
0.0
 10
1018.33363906
 20
160.4990061062
 30
0.0
 10
1018.3336390749
 20
160.4601746581
 30
0.0
  0
SPLINE
  5
666
100
AcDbEntity
  8
0
100
AcDbSpline
 62
9
  6
CONTINUOUS
 70
0
 71
3
 72
15
 73
11
 74
0
 42
0.0000001
 43
0.0000001
 44
0.0000000001
 40
0.0
 40
0.0
 40
0.0
 40
0.0
 40
0.1249672695
 40
0.2499407784
 40
0.374924957
 40
0.4999450458
 40
0.6249539309
 40
0.749965811
 40
0.874993857
 40
1.0
 40
1.0
 40
1.0
 40
1.0
 10
1019.3336390749
 20
162.2688519154
 30
0.0
 10
1019.2411324252
 20
162.2688515209
 30
0.0
 10
1019.0552630601
 20
162.2449226667
 30
0.0
 10
1018.7951555535
 20
162.1402378674
 30
0.0
 10
1018.5690097698
 20
161.9744989871
 30
0.0
 10
1018.388939012
 20
161.7596326164
 30
0.0
 10
1018.2659124459
 20
161.5079178737
 30
0.0
 10
1018.2026993311
 20
161.235042005
 30
0.0
 10
1018.2053853929
 20
160.9548384948
 30
0.0
 10
1018.2516412072
 20
160.7735107658
 30
0.0
 10
1018.2847784424
 20
160.6871121046
 30
0.0
  0
SPLINE
  5
667
100
AcDbEntity
  8
0
100
AcDbSpline
 62
9
  6
CONTINUOUS
 70
0
 71
3
 72
11
 73
7
 74
0
 42
0.0000001
 43
0.0000001
 44
0.0000000001
 40
0.0
 40
0.0
 40
0.0
 40
0.0
 40
0.2500171156
 40
0.5000209093
 40
0.7500136561
 40
1.0
 40
1.0
 40
1.0
 40
1.0
 10
1046.9275369946
 20
160.9484826995
 30
0.0
 10
1046.7031524903
 20
161.1560139658
 30
0.0
 10
1046.2157227148
 20
161.5314309021
 30
0.0
 10
1045.3946739531
 20
161.9508970966
 30
0.0
 10
1044.5098146578
 20
162.210336251
 30
0.0
 10
1043.8970204996
 20
162.2688520211
 30
0.0
 10
1043.5914151358
 20
162.2688519154
 30
0.0
  0
SPLINE
  5
668
100
AcDbEntity
  8
0
100
AcDbSpline
 62
9
  6
CONTINUOUS
 70
0
 71
3
 72
10
 73
6
 74
0
 42
0.0000001
 43
0.0000001
 44
0.0000000001
 40
0.0
 40
0.0
 40
0.0
 40
0.0
 40
0.4999999908
 40
0.7500000501
 40
1.0
 40
1.0
 40
1.0
 40
1.0
 10
1078.5541832526
 20
133.7238275095
 30
0.0
 10
1073.2950490519
 20
138.2078326938
 30
0.0
 10
1065.4154974131
 20
144.9446176821
 30
0.0
 10
1054.9444946644
 20
153.9677950818
 30
0.0
 10
1049.7259922425
 20
158.4990712478
 30
0.0
 10
1047.1231542482
 20
160.7720492025
 30
0.0
  0
SPLINE
  5
669
100
AcDbEntity
  8
0
100
AcDbSpline
 62
9
  6
CONTINUOUS
 70
0
 71
3
 72
13
 73
9
 74
0
 42
0.0000001
 43
0.0000001
 44
0.0000000001
 40
0.0
 40
0.0
 40
0.0
 40
0.0
 40
0.2962097236
 40
0.5645084469
 40
0.6850584478
 40
0.7963874562
 40
0.9002904222
 40
1.0
 40
1.0
 40
1.0
 40
1.0
 10
1048.7337160082
 20
198.2661169266
 30
0.0
 10
1048.7039405444
 20
198.6127970168
 30
0.0
 10
1048.5724745785
 20
199.269734522
 30
0.0
 10
1048.2117348699
 20
200.0040511839
 30
0.0
 10
1047.8224511322
 20
200.4484865167
 30
0.0
 10
1047.5054904917
 20
200.6886747358
 30
0.0
 10
1047.1628643407
 20
200.838034183
 30
0.0
 10
1046.9224816374
 20
200.8721774773
 30
0.0
 10
1046.8053531843
 20
200.8721774778
 30
0.0
  0
SPLINE
  5
66A
100
AcDbEntity
  8
0
100
AcDbSpline
 62
9
  6
CONTINUOUS
 70
0
 71
3
 72
13
 73
9
 74
0
 42
0.0000001
 43
0.0000001
 44
0.0000000001
 40
0.0
 40
0.0
 40
0.0
 40
0.0
 40
0.2966487467
 40
0.5661206587
 40
0.6869145348
 40
0.7980339789
 40
0.901263824
 40
1.0
 40
1.0
 40
1.0
 40
1.0
 10
1080.4759377968
 20
198.1229806935
 30
0.0
 10
1080.4563818007
 20
198.4843527989
 30
0.0
 10
1080.339191353
 20
199.1724101985
 30
0.0
 10
1079.9842875695
 20
199.9471715057
 30
0.0
 10
1079.5905268965
 20
200.4197813128
 30
0.0
 10
1079.2672822611
 20
200.6758210086
 30
0.0
 10
1078.9157412712
 20
200.8355539004
 30
0.0
 10
1078.6680317278
 20
200.8721773131
 30
0.0
 10
1078.5475771233
 20
200.8721774767
 30
0.0
  0
SPLINE
  5
66B
100
AcDbEntity
  8
0
100
AcDbSpline
 62
9
  6
CONTINUOUS
 70
0
 71
3
 72
13
 73
9
 74
0
 42
0.0000001
 43
0.0000001
 44
0.0000000001
 40
0.0
 40
0.0
 40
0.0
 40
0.0
 40
0.2907347026
 40
0.5612889991
 40
0.6844884193
 40
0.7982183271
 40
0.9028324914
 40
1.0
 40
1.0
 40
1.0
 40
1.0
 10
1084.8336390746
 20
197.8721774767
 30
0.0
 10
1084.8336390746
 20
198.2129421662
 30
0.0
 10
1084.7644431106
 20
198.8727704151
 30
0.0
 10
1084.5019931762
 20
199.640833571
 30
0.0
 10
1084.1922523967
 20
200.1511848022
 30
0.0
 10
1083.9295039362
 20
200.45613638
 30
0.0
 10
1083.6362586289
 20
200.685702253
 30
0.0
 10
1083.4187866049
 20
200.7858475305
 30
0.0
 10
1083.3098545176
 20
200.8190789243
 30
0.0
  0
SPLINE
  5
66C
100
AcDbEntity
  8
0
100
AcDbSpline
 62
9
  6
CONTINUOUS
 70
0
 71
3
 72
9
 73
5
 74
0
 42
0.0000001
 43
0.0000001
 44
0.0000000001
 40
0.0
 40
0.0
 40
0.0
 40
0.0
 40
0.2529322865
 40
1.0
 40
1.0
 40
1.0
 40
1.0
 10
1083.2842293778
 20
200.8266007442
 30
0.0
 10
1083.2575044139
 20
200.8341378824
 30
0.0
 10
1083.1508909312
 20
200.8604307852
 30
0.0
 10
1083.0406538202
 20
200.8721774767
 30
0.0
 10
1082.9586390749
 20
200.8721774767
 30
0.0
  0
SPLINE
  5
66D
100
AcDbEntity
  8
0
100
AcDbSpline
 62
9
  6
CONTINUOUS
 70
0
 71
3
 72
11
 73
7
 74
0
 42
0.0000001
 43
0.0000001
 44
0.0000000001
 40
0.0
 40
0.0
 40
0.0
 40
0.0
 40
0.2500047086
 40
0.5000083309
 40
0.7500077669
 40
1.0
 40
1.0
 40
1.0
 40
1.0
 10
1080.3382599782
 20
129.67421883
 30
0.0
 10
1080.3498602466
 20
130.0323387565
 30
0.0
 10
1080.2974854344
 20
130.7532511086
 30
0.0
 10
1079.9960612817
 20
131.7929830051
 30
0.0
 10
1079.4845488444
 20
132.7471136128
 30
0.0
 10
1079.0165918126
 20
133.2982288136
 30
0.0
 10
1078.756858095
 20
133.5450283907
 30
0.0
  0
SPLINE
  5
66E
100
AcDbEntity
  8
0
100
AcDbSpline
 62
9
  6
CONTINUOUS
 70
0
 71
3
 72
13
 73
9
 74
0
 42
0.0000001
 43
0.0000001
 44
0.0000000001
 40
0.0
 40
0.0
 40
0.0
 40
0.0
 40
0.2907347026
 40
0.5612889992
 40
0.6844884193
 40
0.7982183271
 40
0.9028324914
 40
1.0
 40
1.0
 40
1.0
 40
1.0
 10
1084.8336390751
 20
213.8721774767
 30
0.0
 10
1084.8336390751
 20
213.5314127871
 30
0.0
 10
1084.7644431104
 20
212.8715845382
 30
0.0
 10
1084.5019931761
 20
212.1035213821
 30
0.0
 10
1084.1922523965
 20
211.593170151
 30
0.0
 10
1083.9295039361
 20
211.2882185732
 30
0.0
 10
1083.6362586287
 20
211.0586527003
 30
0.0
 10
1083.4187866047
 20
210.9585074228
 30
0.0
 10
1083.3098545173
 20
210.925276029
 30
0.0
  0
SPLINE
  5
66F
100
AcDbEntity
  8
0
100
AcDbSpline
 62
9
  6
CONTINUOUS
 70
0
 71
3
 72
9
 73
5
 74
0
 42
0.0000001
 43
0.0000001
 44
0.0000000001
 40
0.0
 40
0.0
 40
0.0
 40
0.0
 40
0.2529322867
 40
1.0
 40
1.0
 40
1.0
 40
1.0
 10
1083.2842293858
 20
210.9177542114
 30
0.0
 10
1083.2575044213
 20
210.9102170729
 30
0.0
 10
1083.1508909361
 20
210.8839241688
 30
0.0
 10
1083.0406538224
 20
210.8721774767
 30
0.0
 10
1082.9586390751
 20
210.8721774767
 30
0.0
  0
SPLINE
  5
670
100
AcDbEntity
  8
0
100
AcDbSpline
 62
9
  6
CONTINUOUS
 70
0
 71
3
 72
13
 73
9
 74
0
 42
0.0000001
 43
0.0000001
 44
0.0000000001
 40
0.0
 40
0.0
 40
0.0
 40
0.0
 40
0.2966487855
 40
0.5661206922
 40
0.6869145523
 40
0.7980339794
 40
0.9012638156
 40
1.0
 40
1.0
 40
1.0
 40
1.0
 10
1080.4759399513
 20
213.6213739797
 30
0.0
 10
1080.45638392
 20
213.2600016578
 30
0.0
 10
1080.3391932968
 20
212.5719438988
 30
0.0
 10
1079.9842890008
 20
211.7971823272
 30
0.0
 10
1079.5905278296
 20
211.3245726083
 30
0.0
 10
1079.2672828365
 20
211.0685331221
 30
0.0
 10
1078.9157415068
 20
210.9088005727
 30
0.0
 10
1078.6680317948
 20
210.8721774766
 30
0.0
 10
1078.5475771233
 20
210.8721774765
 30
0.0
  0
SPLINE
  5
671
100
AcDbEntity
  8
0
100
AcDbSpline
 62
9
  6
CONTINUOUS
 70
0
 71
3
 72
17
 73
13
 74
0
 42
0.0000001
 43
0.0000001
 44
0.0000000001
 40
0.0
 40
0.0
 40
0.0
 40
0.0
 40
0.069366526
 40
0.1375361153
 40
0.2040343917
 40
0.2689775419
 40
0.3951913977
 40
0.5184692822
 40
0.6400027041
 40
0.7604906685
 40
0.88038269
 40
1.0
 40
1.0
 40
1.0
 40
1.0
 10
1018.3336390749
 20
297.8721774767
 30
0.0
 10
1018.1862324645
 20
297.872185007
 30
0.0
 10
1017.8927828664
 20
297.8355268178
 30
0.0
 10
1017.4835585697
 20
297.682917404
 30
0.0
 10
1017.1206111798
 20
297.4590423108
 30
0.0
 10
1016.7046991877
 20
297.1002975564
 30
0.0
 10
1016.2868407863
 20
296.5714340735
 30
0.0
 10
1015.9145625209
 20
295.8732985839
 30
0.0
 10
1015.6455691156
 20
295.1429539823
 30
0.0
 10
1015.4629976161
 20
294.39439643
 30
0.0
 10
1015.356868451
 20
293.635648263
 30
0.0
 10
1015.333651009
 20
293.1263689897
 30
0.0
 10
1015.3336390749
 20
292.8721774767
 30
0.0
  0
SPLINE
  5
672
100
AcDbEntity
  8
0
100
AcDbSpline
 62
9
  6
CONTINUOUS
 70
0
 71
3
 72
15
 73
11
 74
0
 42
0.0000001
 43
0.0000001
 44
0.0000000001
 40
0.0
 40
0.0
 40
0.0
 40
0.0
 40
0.0314452609
 40
0.0566793922
 40
0.0891336618
 40
0.1761052156
 40
0.2919615575
 40
0.43499023
 40
0.6027193643
 40
1.0
 40
1.0
 40
1.0
 40
1.0
 10
1083.1629902462
 20
117.8747949275
 30
0.0
 10
1083.1578378092
 20
117.8601786163
 30
0.0
 10
1083.170019837
 20
117.8301345534
 30
0.0
 10
1083.1946582507
 20
117.7952873292
 30
0.0
 10
1083.2423720864
 20
117.7413697869
 30
0.0
 10
1083.3286634332
 20
117.6641271873
 30
0.0
 10
1083.4630523669
 20
117.5589374617
 30
0.0
 10
1083.6344515498
 20
117.4371446412
 30
0.0
 10
1083.9251871158
 20
117.2440532992
 30
0.0
 10
1084.1628995411
 20
117.0988193631
 30
0.0
 10
1084.3314603647
 20
116.9991941305
 30
0.0
  0
SPLINE
  5
673
100
AcDbEntity
  8
0
100
AcDbSpline
 62
9
  6
CONTINUOUS
 70
0
 71
3
 72
15
 73
11
 74
0
 42
0.0000001
 43
0.0000001
 44
0.0000000001
 40
0.0
 40
0.0
 40
0.0
 40
0.0
 40
0.1264284906
 40
0.2526386529
 40
0.3784454449
 40
0.503725861
 40
0.6284362689
 40
0.7526238941
 40
0.876414318
 40
1.0
 40
1.0
 40
1.0
 40
1.0
 10
1019.3336390749
 20
165.1437964579
 30
0.0
 10
1019.0719941705
 20
165.1437965803
 30
0.0
 10
1018.5477588853
 20
165.0932638852
 30
0.0
 10
1017.7925800707
 20
164.8687369746
 30
0.0
 10
1017.0964523192
 20
164.504209447
 30
0.0
 10
1016.4865046677
 20
164.0137540372
 30
0.0
 10
1015.986001304
 20
163.4163145243
 30
0.0
 10
1015.6141593922
 20
162.7347216654
 30
0.0
 10
1015.3851868527
 20
161.9955301893
 30
0.0
 10
1015.3336400037
 20
161.4821106904
 30
0.0
 10
1015.3336390749
 20
161.2263490041
 30
0.0
  0
SPLINE
  5
674
100
AcDbEntity
  8
0
100
AcDbSpline
 62
9
  6
CONTINUOUS
 70
0
 71
3
 72
17
 73
13
 74
0
 42
0.0000001
 43
0.0000001
 44
0.0000000001
 40
0.0
 40
0.0
 40
0.0
 40
0.0
 40
0.0310016494
 40
0.0572432913
 40
0.0916106178
 40
0.1341244559
 40
0.184564568
 40
0.2425531017
 40
0.3076036255
 40
0.4565145226
 40
0.6258725101
 40
1.0
 40
1.0
 40
1.0
 40
1.0
 10
1015.3336390749
 20
197.8721774767
 30
0.0
 10
1015.3336483417
 20
197.9144898836
 30
0.0
 10
1015.4057582621
 20
197.9769018572
 30
0.0
 10
1015.5139235435
 20
198.0285643856
 30
0.0
 10
1015.6483303926
 20
198.0768117557
 30
0.0
 10
1015.8155609207
 20
198.1219445985
 30
0.0
 10
1016.0171630883
 20
198.1657398607
 30
0.0
 10
1016.2503151686
 20
198.2068320399
 30
0.0
 10
1016.6177077632
 20
198.2601514248
 30
0.0
 10
1017.1381240664
 20
198.3154201349
 30
0.0
 10
1018.0809461164
 20
198.3814281015
 30
0.0
 10
1018.8230135028
 20
198.3996552297
 30
0.0
 10
1019.3336390749
 20
198.3996500042
 30
0.0
  0
SPLINE
  5
675
100
AcDbEntity
  8
0
100
AcDbSpline
 62
9
  6
CONTINUOUS
 70
0
 71
3
 72
15
 73
11
 74
0
 42
0.0000001
 43
0.0000001
 44
0.0000000001
 40
0.0
 40
0.0
 40
0.0
 40
0.0
 40
0.1235858319
 40
0.2473764065
 40
0.3715641129
 40
0.4962744733
 40
0.62155484
 40
0.7473615942
 40
0.8735716456
 40
1.0
 40
1.0
 40
1.0
 40
1.0
 10
1015.3336390749
 20
250.5180059492
 30
0.0
 10
1015.3336381727
 20
250.2622439542
 30
0.0
 10
1015.3851877819
 20
249.7488238199
 30
0.0
 10
1015.6141598432
 20
249.0096316961
 30
0.0
 10
1015.9860024869
 20
248.3280386306
 30
0.0
 10
1016.4865062456
 20
247.7305995622
 30
0.0
 10
1017.0964538704
 20
247.2401445753
 30
0.0
 10
1017.7925813946
 20
246.8756175154
 30
0.0
 10
1018.547759687
 20
246.6510909741
 30
0.0
 10
1019.0719944537
 20
246.6005583785
 30
0.0
 10
1019.3336390749
 20
246.6005584954
 30
0.0
  0
SPLINE
  5
676
100
AcDbEntity
  8
0
100
AcDbSpline
 62
9
  6
CONTINUOUS
 70
0
 71
3
 72
9
 73
5
 74
0
 42
0.0000001
 43
0.0000001
 44
0.0000000001
 40
0.0
 40
0.0
 40
0.0
 40
0.0
 40
0.4999371973
 40
1.0
 40
1.0
 40
1.0
 40
1.0
 10
1082.3336390749
 20
297.5657949564
 30
0.0
 10
1082.0123346852
 20
297.6715146655
 30
0.0
 10
1081.349637687
 20
297.8255832182
 30
0.0
 10
1080.6719742132
 20
297.8722018469
 30
0.0
 10
1080.3336390749
 20
297.872201977
 30
0.0
  0
LINE
  5
677
100
AcDbEntity
  8
0
100
AcDbLine
 62
9
  6
CONTINUOUS
 10
1080.3336390749
 20
297.872201977
 11
1018.3336390749
 21
297.8721774767
  0
SPLINE
  5
678
100
AcDbEntity
  8
0
100
AcDbSpline
 62
9
  6
CONTINUOUS
 70
0
 71
3
 72
17
 73
13
 74
0
 42
0.0000001
 43
0.0000001
 44
0.0000000001
 40
0.0
 40
0.0
 40
0.0
 40
0.0
 40
0.3741274899
 40
0.5434854774
 40
0.6923963745
 40
0.7574468983
 40
0.815435432
 40
0.8658755442
 40
0.9083893822
 40
0.9427567087
 40
0.9689983507
 40
1.0
 40
1.0
 40
1.0
 40
1.0
 10
1019.3336390749
 20
213.3447049492
 30
0.0
 10
1018.8230135028
 20
213.3446997236
 30
0.0
 10
1018.0809461164
 20
213.3629268519
 30
0.0
 10
1017.1381240663
 20
213.4289348185
 30
0.0
 10
1016.6177077632
 20
213.4842035287
 30
0.0
 10
1016.2503151686
 20
213.5375229134
 30
0.0
 10
1016.0171630883
 20
213.5786150926
 30
0.0
 10
1015.8155609208
 20
213.6224103553
 30
0.0
 10
1015.6483303926
 20
213.6675431975
 30
0.0
 10
1015.5139235432
 20
213.7157905671
 30
0.0
 10
1015.4057582625
 20
213.7674530971
 30
0.0
 10
1015.3336483421
 20
213.8298650699
 30
0.0
 10
1015.3336390749
 20
213.8721774767
 30
0.0
  0
SPLINE
  5
679
100
AcDbEntity
  8
0
100
AcDbSpline
 62
9
  6
CONTINUOUS
 70
0
 71
3
 72
19
 73
15
 74
0
 42
0.0000001
 43
0.0000001
 44
0.0000000001
 40
0.0
 40
0.0
 40
0.0
 40
0.0
 40
0.0090305996
 40
0.0159561434
 40
0.0249171024
 40
0.0493289352
 40
0.0825321479
 40
0.1243939994
 40
0.1745789897
 40
0.2980882706
 40
0.4485028555
 40
0.6201073757
 40
0.8063261773
 40
1.0
 40
1.0
 40
1.0
 40
1.0
 10
1081.5096566423
 20
116.1122893121
 30
0.0
 10
1081.5155254971
 20
116.1147900933
 30
0.0
 10
1081.5282070305
 20
116.1107824462
 30
0.0
 10
1081.541585691
 20
116.0999403034
 30
0.0
 10
1081.5615769578
 20
116.0793266714
 30
0.0
 10
1081.5889029863
 20
116.0409903501
 30
0.0
 10
1081.6252830337
 20
115.9808044224
 30
0.0
 10
1081.6669352609
 20
115.9027140679
 30
0.0
 10
1081.7339619376
 20
115.765961586
 30
0.0
 10
1081.8265157695
 20
115.5564622023
 30
0.0
 10
1081.9450249322
 20
115.2648682113
 30
0.0
 10
1082.0725632203
 20
114.9292212431
 30
0.0
 10
1082.2041686555
 20
114.5625123744
 30
0.0
 10
1082.290610306
 20
114.3084339954
 30
0.0
 10
1082.3336390749
 20
114.1785602366
 30
0.0
  0
SPLINE
  5
67A
100
AcDbEntity
  8
0
100
AcDbSpline
 62
9
  6
CONTINUOUS
 70
0
 71
3
 72
19
 73
15
 74
0
 42
0.0000001
 43
0.0000001
 44
0.0000000001
 40
0.0
 40
0.0
 40
0.0
 40
0.0
 40
0.0091889145
 40
0.0161570263
 40
0.0251457512
 40
0.0495863898
 40
0.0827986511
 40
0.1246579078
 40
0.1748326683
 40
0.2983065553
 40
0.4486739301
 40
0.6202244766
 40
0.8063855634
 40
1.0
 40
1.0
 40
1.0
 40
1.0
 10
1081.5096565915
 20
295.6320656629
 30
0.0
 10
1081.5156304396
 20
295.6295201432
 30
0.0
 10
1081.5284868365
 20
295.6333489259
 30
0.0
 10
1081.5421360405
 20
295.6441657905
 30
0.0
 10
1081.5623439845
 20
295.6646657705
 30
0.0
 10
1081.5899233938
 20
295.702917896
 30
0.0
 10
1081.626530749
 20
295.763019923
 30
0.0
 10
1081.6683673734
 20
295.8410479363
 30
0.0
 10
1081.735580655
 20
295.9777307438
 30
0.0
 10
1081.8282115806
 20
296.1872173585
 30
0.0
 10
1081.9466050181
 20
296.4788750431
 30
0.0
 10
1082.0738189376
 20
296.8146620697
 30
0.0
 10
1082.2049008467
 20
297.1815768745
 30
0.0
 10
1082.2908750812
 20
297.4358271437
 30
0.0
 10
1082.3336390749
 20
297.5657949564
 30
0.0
  0
LINE
  5
67B
100
AcDbEntity
  8
0
100
AcDbLine
 62
9
  6
CONTINUOUS
 10
1018.3336390749
 20
113.8721774767
 11
1080.3336390749
 21
113.8721529804
  0
SPLINE
  5
67C
100
AcDbEntity
  8
0
100
AcDbSpline
 62
9
  6
CONTINUOUS
 70
0
 71
3
 72
9
 73
5
 74
0
 42
0.0000001
 43
0.0000001
 44
0.0000000001
 40
0.0
 40
0.0
 40
0.0
 40
0.0
 40
0.500072959
 40
1.0
 40
1.0
 40
1.0
 40
1.0
 10
1080.3336390749
 20
113.8721529804
 30
0.0
 10
1080.6719951365
 20
113.8721531069
 30
0.0
 10
1081.3496954979
 20
113.9180603394
 30
0.0
 10
1082.012545553
 20
114.0721789765
 30
0.0
 10
1082.3336390749
 20
114.1785602366
 30
0.0
  0
SPLINE
  5
67D
100
AcDbEntity
  8
0
100
AcDbSpline
 62
9
  6
CONTINUOUS
 70
0
 71
3
 72
11
 73
7
 74
0
 42
0.0000001
 43
0.0000001
 44
0.0000000001
 40
0.0
 40
0.0
 40
0.0
 40
0.0
 40
0.2497151642
 40
0.4996562495
 40
0.7497779283
 40
1.0
 40
1.0
 40
1.0
 40
1.0
 10
1048.7337160133
 20
163.2564763921
 30
0.0
 10
1048.3788518463
 20
163.5567693155
 30
0.0
 10
1047.6147161338
 20
164.0968619974
 30
0.0
 10
1046.3456318106
 20
164.694397592
 30
0.0
 10
1044.9907368209
 20
165.0613506795
 30
0.0
 10
1044.0572291185
 20
165.1437962287
 30
0.0
 10
1043.5914151358
 20
165.1437964579
 30
0.0
  0
SPLINE
  5
67E
100
AcDbEntity
  8
0
100
AcDbSpline
 62
9
  6
CONTINUOUS
 70
0
 71
3
 72
15
 73
11
 74
0
 42
0.0000001
 43
0.0000001
 44
0.0000000001
 40
0.0
 40
0.0
 40
0.0
 40
0.0
 40
0.0320784689
 40
0.0574739942
 40
0.0900243171
 40
0.1770538395
 40
0.2928471668
 40
0.4357274718
 40
0.6032469669
 40
1.0
 40
1.0
 40
1.0
 40
1.0
 10
1083.1629902733
 20
293.8695599489
 30
0.0
 10
1083.1577301463
 20
293.8844817538
 30
0.0
 10
1083.1694275069
 20
293.9150607968
 30
0.0
 10
1083.1940790631
 20
293.9505736683
 30
0.0
 10
1083.2415418809
 20
294.0049448933
 30
0.0
 10
1083.327730627
 20
294.0825696572
 30
0.0
 10
1083.462073492
 20
294.1878836222
 30
0.0
 10
1083.6335478614
 20
294.309501387
 30
0.0
 10
1083.9245281261
 20
294.5019055158
 30
0.0
 10
1084.1626077223
 20
294.6462557743
 30
0.0
 10
1084.3314605117
 20
294.7451608229
 30
0.0
  0
SPLINE
  5
67F
100
AcDbEntity
  8
0
100
AcDbSpline
 62
9
  6
CONTINUOUS
 70
0
 71
3
 72
9
 73
5
 74
0
 42
0.0000001
 43
0.0000001
 44
0.0000000001
 40
0.0
 40
0.0
 40
0.0
 40
0.0
 40
0.5321958061
 40
1.0
 40
1.0
 40
1.0
 40
1.0
 10
1043.5914151358
 20
198.3996500042
 30
0.0
 10
1044.5040492214
 20
198.3996529076
 30
0.0
 10
1046.2189412405
 20
198.378494111
 30
0.0
 10
1047.9328669746
 20
198.3128661008
 30
0.0
 10
1048.7337160133
 20
198.2661169276
 30
0.0
  0
SPLINE
  5
680
100
AcDbEntity
  8
0
100
AcDbSpline
 62
9
  6
CONTINUOUS
 70
0
 71
3
 72
11
 73
7
 74
0
 42
0.0000001
 43
0.0000001
 44
0.0000000001
 40
0.0
 40
0.0
 40
0.0
 40
0.0
 40
0.2502221255
 40
0.5003438214
 40
0.7502849025
 40
1.0
 40
1.0
 40
1.0
 40
1.0
 10
1043.5914151358
 20
246.6005584954
 30
0.0
 10
1044.0572292161
 20
246.6005586821
 30
0.0
 10
1044.9907369274
 20
246.6830046145
 30
0.0
 10
1046.3456325046
 20
247.0499569762
 30
0.0
 10
1047.614715097
 20
247.6474946714
 30
0.0
 10
1048.3788543321
 20
248.1875829087
 30
0.0
 10
1048.7337160133
 20
248.4878785731
 30
0.0
  0
SPLINE
  5
681
100
AcDbEntity
  8
0
100
AcDbSpline
 62
9
  6
CONTINUOUS
 70
0
 71
3
 72
9
 73
5
 74
0
 42
0.0000001
 43
0.0000001
 44
0.0000000001
 40
0.0
 40
0.0
 40
0.0
 40
0.0
 40
0.4678041939
 40
1.0
 40
1.0
 40
1.0
 40
1.0
 10
1048.7337160133
 20
213.4782380258
 30
0.0
 10
1047.9328669742
 20
213.4314888607
 30
0.0
 10
1046.2189412408
 20
213.3658608375
 30
0.0
 10
1044.5040492214
 20
213.3447020459
 30
0.0
 10
1043.5914151358
 20
213.3447049492
 30
0.0
  0
SPLINE
  5
682
100
AcDbEntity
  8
0
100
AcDbSpline
 62
9
  6
CONTINUOUS
 70
0
 71
3
 72
13
 73
9
 74
0
 42
0.0000001
 43
0.0000001
 44
0.0000000001
 40
0.0
 40
0.0
 40
0.0
 40
0.0
 40
0.1335070145
 40
0.2277281045
 40
0.3429602201
 40
0.4791619811
 40
0.6352712054
 40
1.0
 40
1.0
 40
1.0
 40
1.0
 10
1083.3336390749
 20
292.8721774767
 30
0.0
 10
1083.3336390749
 20
292.940538163
 30
0.0
 10
1083.400730429
 20
293.0512460568
 30
0.0
 10
1083.5294573127
 20
293.1674857071
 30
0.0
 10
1083.6760724932
 20
293.2687704689
 30
0.0
 10
1083.8586907342
 20
293.3696828119
 30
0.0
 10
1084.1642706588
 20
293.5111519188
 30
0.0
 10
1084.4156894572
 20
293.6016625476
 30
0.0
 10
1084.5935061165
 20
293.6587474725
 30
0.0
  0
SPLINE
  5
683
100
AcDbEntity
  8
0
100
AcDbSpline
 62
9
  6
CONTINUOUS
 70
0
 71
3
 72
17
 73
13
 74
0
 42
0.0000001
 43
0.0000001
 44
0.0000000001
 40
0.0
 40
0.0
 40
0.0
 40
0.0
 40
0.1196168409
 40
0.2395081303
 40
0.3599957248
 40
0.4815289086
 40
0.6048071179
 40
0.7310216175
 40
0.795965457
 40
0.8624655729
 40
0.9306353425
 40
1.0
 40
1.0
 40
1.0
 40
1.0
 10
1015.3336390749
 20
118.8721774767
 30
0.0
 10
1015.3336503722
 20
118.6179869495
 30
0.0
 10
1015.3568682061
 20
118.1087101645
 30
0.0
 10
1015.4629969365
 20
117.3499653998
 30
0.0
 10
1015.6455651126
 20
116.6014099095
 30
0.0
 10
1015.9145582565
 20
115.8710657962
 30
0.0
 10
1016.286835636
 20
115.1729280713
 30
0.0
 10
1016.7046953956
 20
114.644061118
 30
0.0
 10
1017.1206117727
 20
114.2853109814
 30
0.0
 10
1017.4835650123
 20
114.0614340084
 30
0.0
 10
1017.8927904723
 20
113.9088266706
 30
0.0
 10
1018.186236429
 20
113.8721699471
 30
0.0
 10
1018.3336390749
 20
113.8721774767
 30
0.0
  0
SPLINE
  5
684
100
AcDbEntity
  8
0
100
AcDbSpline
 62
9
  6
CONTINUOUS
 70
0
 71
3
 72
18
 73
14
 74
0
 42
0.0000001
 43
0.0000001
 44
0.0000000001
 40
0.0
 40
0.0
 40
0.0
 40
0.0
 40
0.0072017908
 40
0.0131442752
 40
0.0209370462
 40
0.042336297
 40
0.0716396177
 40
0.1539371094
 40
0.267217597
 40
0.4102684702
 40
0.5814528646
 40
0.7788108047
 40
1.0
 40
1.0
 40
1.0
 40
1.0
 10
1083.3336390749
 20
213.8721774767
 30
0.0
 10
1083.333636246
 20
213.8652585771
 30
0.0
 10
1083.3227573842
 20
213.8547244985
 30
0.0
 10
1083.305590995
 20
213.8456432025
 30
0.0
 10
1083.2739140529
 20
213.8329030734
 30
0.0
 10
1083.2196926096
 20
213.8185089243
 30
0.0
 10
1083.0942504547
 20
213.7934259143
 30
0.0
 10
1082.879985461
 20
213.7650673164
 30
0.0
 10
1082.5562054519
 20
213.7331011515
 30
0.0
 10
1082.1466167427
 20
213.7022184789
 30
0.0
 10
1081.655999839
 20
213.6726278198
 30
0.0
 10
1081.0900963259
 20
213.645014085
 30
0.0
 10
1080.6883020623
 20
213.6290488496
 30
0.0
 10
1080.4759399524
 20
213.6213739796
 30
0.0
  0
SPLINE
  5
685
100
AcDbEntity
  8
0
100
AcDbSpline
 62
9
  6
CONTINUOUS
 70
0
 71
3
 72
11
 73
7
 74
0
 42
0.0000001
 43
0.0000001
 44
0.0000000001
 40
0.0
 40
0.0
 40
0.0
 40
0.0
 40
0.2501037163
 40
0.5001191153
 40
0.7500729848
 40
1.0
 40
1.0
 40
1.0
 40
1.0
 10
1080.6796161056
 20
275.9307105871
 30
0.0
 10
1081.055948412
 20
276.2699412931
 30
0.0
 10
1081.7456654128
 20
277.0218511682
 30
0.0
 10
1082.5475947981
 20
278.3228400366
 30
0.0
 10
1083.0906750015
 20
279.750963671
 30
0.0
 10
1083.2674462391
 20
280.7552881355
 30
0.0
 10
1083.3078888386
 20
281.2599714749
 30
0.0
  0
SPLINE
  5
686
100
AcDbEntity
  8
0
100
AcDbSpline
 62
9
  6
CONTINUOUS
 70
0
 71
3
 72
18
 73
14
 74
0
 42
0.0000001
 43
0.0000001
 44
0.0000000001
 40
0.0
 40
0.0
 40
0.0
 40
0.0
 40
0.2211891953
 40
0.4185471354
 40
0.5897315298
 40
0.732782403
 40
0.8460628906
 40
0.9283603823
 40
0.957663703
 40
0.9790629538
 40
0.9868557248
 40
0.9927982091
 40
1.0
 40
1.0
 40
1.0
 40
1.0
 10
1080.4759399524
 20
198.1229809738
 30
0.0
 10
1080.6883020622
 20
198.1153061032
 30
0.0
 10
1081.090096326
 20
198.0993408689
 30
0.0
 10
1081.6559998389
 20
198.0717271334
 30
0.0
 10
1082.1466167427
 20
198.0421364744
 30
0.0
 10
1082.5562054519
 20
198.0112538021
 30
0.0
 10
1082.879985461
 20
197.9792876369
 30
0.0
 10
1083.0942504547
 20
197.9509290392
 30
0.0
 10
1083.2196926096
 20
197.925846029
 30
0.0
 10
1083.2739140529
 20
197.9114518799
 30
0.0
 10
1083.305590995
 20
197.8987117509
 30
0.0
 10
1083.3227573842
 20
197.8896304549
 30
0.0
 10
1083.333636246
 20
197.8790963763
 30
0.0
 10
1083.3336390749
 20
197.8721774767
 30
0.0
  0
SPLINE
  5
687
100
AcDbEntity
  8
0
100
AcDbSpline
 62
9
  6
CONTINUOUS
 70
0
 71
3
 72
11
 73
7
 74
0
 42
0.0000001
 43
0.0000001
 44
0.0000000001
 40
0.0
 40
0.0
 40
0.0
 40
0.0
 40
0.2499269923
 40
0.4998808695
 40
0.7498962811
 40
1.0
 40
1.0
 40
1.0
 40
1.0
 10
1083.3078200774
 20
130.4852410549
 30
0.0
 10
1083.2673292444
 20
130.9898488977
 30
0.0
 10
1083.090489483
 20
131.9940132943
 30
0.0
 10
1082.5473912666
 20
133.4218970623
 30
0.0
 10
1081.745523879
 20
134.7226682507
 30
0.0
 10
1081.0558954074
 20
135.4744614961
 30
0.0
 10
1080.6796161057
 20
135.8136443663
 30
0.0
  0
LINE
  5
688
100
AcDbEntity
  8
0
100
AcDbLine
 62
9
  6
CONTINUOUS
 10
1084.8336390783
 20
275.8721774775
 11
1084.8336390782
 21
291.6226618157
  0
LINE
  5
689
100
AcDbEntity
  8
0
100
AcDbLine
 62
9
  6
CONTINUOUS
 10
1084.8336390783
 20
120.121693138
 11
1084.8336390782
 21
135.8721774767
  0
SPLINE
  5
68A
100
AcDbEntity
  8
0
100
AcDbSpline
 62
9
  6
CONTINUOUS
 70
0
 71
3
 72
20
 73
16
 74
0
 42
0.0000001
 43
0.0000001
 44
0.0000000001
 40
0.0
 40
0.0
 40
0.0
 40
0.0
 40
0.0828140299
 40
0.1773256082
 40
0.2834390954
 40
0.4010019921
 40
0.5300256126
 40
0.5989791903
 40
0.6710694276
 40
0.7465727618
 40
0.8259750655
 40
0.8674300195
 40
0.9102501551
 40
0.954550693
 40
1.0
 40
1.0
 40
1.0
 40
1.0
 10
1138.1573617025
 20
452.7819922486
 30
0.0
 10
1138.382750826
 20
451.2647914658
 30
0.0
 10
1139.0687822229
 20
448.0458073415
 30
0.0
 10
1140.603587716
 20
443.0208512837
 30
0.0
 10
1142.7231429558
 20
437.5167708267
 30
0.0
 10
1145.4679439154
 20
431.5840137281
 30
0.0
 10
1148.2874717142
 20
426.4573312461
 30
0.0
 10
1150.9755023156
 20
422.2369392611
 30
0.0
 10
1153.3097662493
 20
418.9721018189
 30
0.0
 10
1155.9891748729
 20
415.7275461682
 30
0.0
 10
1158.5786788184
 20
413.1572070532
 30
0.0
 10
1160.9786795623
 20
411.2976746164
 30
0.0
 10
1163.0244743856
 20
410.0640186717
 30
0.0
 10
1165.322627927
 20
409.1562405231
 30
0.0
 10
1166.9918441373
 20
408.9250343753
 30
0.0
 10
1167.8336390749
 20
408.9242836018
 30
0.0
  0
SPLINE
  5
68B
100
AcDbEntity
  8
0
100
AcDbSpline
 62
9
  6
CONTINUOUS
 70
0
 71
3
 72
14
 73
10
 74
0
 42
0.0000001
 43
0.0000001
 44
0.0000000001
 40
0.0
 40
0.0
 40
0.0
 40
0.0
 40
0.0160396166
 40
0.0637787211
 40
0.1430621021
 40
0.2537346868
 40
0.3955204255
 40
0.5677032919
 40
1.0
 40
1.0
 40
1.0
 40
1.0
 10
1137.8336390749
 20
454.8721774767
 30
0.0
 10
1137.8336403535
 20
454.8608689176
 30
0.0
 10
1137.8451462465
 20
454.8168233861
 30
0.0
 10
1137.8569988835
 20
454.7169070168
 30
0.0
 10
1137.8857995508
 20
454.551609326
 30
0.0
 10
1137.9213896931
 20
454.3205217308
 30
0.0
 10
1137.9683024848
 20
454.0247997844
 30
0.0
 10
1138.0487913255
 20
453.5048606401
 30
0.0
 10
1138.1125833158
 20
453.0834710871
 30
0.0
 10
1138.1573617025
 20
452.7819922486
 30
0.0
  0
SPLINE
  5
68C
100
AcDbEntity
  8
0
100
AcDbSpline
 62
9
  6
CONTINUOUS
 70
0
 71
3
 72
9
 73
5
 74
0
 42
0.0000001
 43
0.0000001
 44
0.0000000001
 40
0.0
 40
0.0
 40
0.0
 40
0.0
 40
0.4804808582
 40
1.0
 40
1.0
 40
1.0
 40
1.0
 10
1347.8336390749
 20
85.8773559672
 30
0.0
 10
1347.8336404402
 20
84.4244112797
 30
0.0
 10
1347.5386877025
 20
81.3996860859
 30
0.0
 10
1346.8673779868
 20
78.4464990542
 30
0.0
 10
1346.4582546103
 20
76.92971284
 30
0.0
  0
SPLINE
  5
68D
100
AcDbEntity
  8
0
100
AcDbSpline
 62
9
  6
CONTINUOUS
 70
0
 71
3
 72
19
 73
15
 74
0
 42
0.0000001
 43
0.0000001
 44
0.0000000001
 40
0.0
 40
0.0
 40
0.0
 40
0.0
 40
0.0815653363
 40
0.1752458015
 40
0.2808553099
 40
0.3981174954
 40
0.5269422861
 40
0.5958551152
 40
0.6680030459
 40
0.7437965973
 40
0.8239501077
 40
0.9094037283
 40
0.9542779817
 40
1.0
 40
1.0
 40
1.0
 40
1.0
 10
1134.1666745603
 20
449.1303564533
 30
0.0
 10
1134.4098116214
 20
447.5771753512
 30
0.0
 10
1135.1622911367
 20
444.2756317975
 30
0.0
 10
1136.8575063527
 20
439.1290817159
 30
0.0
 10
1139.2158478879
 20
433.4954365868
 30
0.0
 10
1142.2948965363
 20
427.4497376756
 30
0.0
 10
1145.4952849081
 20
422.2781208688
 30
0.0
 10
1148.5882174381
 20
418.0919023291
 30
0.0
 10
1151.3056026907
 20
414.9103987557
 30
0.0
 10
1154.4652332386
 20
411.8408954789
 30
0.0
 10
1158.2061395982
 20
409.0468512031
 30
0.0
 10
1161.8980610122
 20
407.265008101
 30
0.0
 10
1165.2028716394
 20
406.4455001285
 30
0.0
 10
1166.9523901398
 20
406.2996565814
 30
0.0
 10
1167.8336390749
 20
406.2985591199
 30
0.0
  0
SPLINE
  5
68E
100
AcDbEntity
  8
0
100
AcDbSpline
 62
9
  6
CONTINUOUS
 70
0
 71
3
 72
19
 73
15
 74
0
 42
0.0000001
 43
0.0000001
 44
0.0000000001
 40
0.0
 40
0.0
 40
0.0
 40
0.0
 40
0.0457103568
 40
0.090586081
 40
0.1760816463
 40
0.2562582939
 40
0.3320582164
 40
0.4042051297
 40
0.4731123094
 40
0.6019218491
 40
0.7191690322
 40
0.8247668631
 40
0.9184393376
 40
1.0
 40
1.0
 40
1.0
 40
1.0
 10
1167.8336390749
 20
406.2985591199
 30
0.0
 10
1168.7146645791
 20
406.2995697154
 30
0.0
 10
1170.4639939698
 20
406.4454153542
 30
0.0
 10
1173.7694218249
 20
407.26496851
 30
0.0
 10
1177.4625234817
 20
409.0474468353
 30
0.0
 10
1181.2043547122
 20
411.8425804172
 30
0.0
 10
1184.364110689
 20
414.9127552078
 30
0.0
 10
1187.0812335529
 20
418.0944786
 30
0.0
 10
1190.1737003538
 20
422.2805245385
 30
0.0
 10
1193.3734274075
 20
427.4517373071
 30
0.0
 10
1196.4521096218
 20
433.4967220101
 30
0.0
 10
1198.8100398879
 20
439.1298274378
 30
0.0
 10
1200.5050416726
 20
444.2759549073
 30
0.0
 10
1201.2575002713
 20
447.5772590287
 30
0.0
 10
1201.5006035895
 20
449.1303564533
 30
0.0
  0
SPLINE
  5
68F
100
AcDbEntity
  8
0
100
AcDbSpline
 62
9
  6
CONTINUOUS
 70
0
 71
3
 72
13
 73
9
 74
0
 42
0.0000001
 43
0.0000001
 44
0.0000000001
 40
0.0
 40
0.0
 40
0.0
 40
0.0
 40
0.0835314113
 40
0.1755066794
 40
0.2808605627
 40
0.4013911264
 40
0.683507464
 40
1.0
 40
1.0
 40
1.0
 40
1.0
 10
1347.8336295347
 20
85.8773559672
 30
0.0
 10
1347.8336286434
 20
85.7419907271
 30
0.0
 10
1347.8925438013
 20
85.4556625193
 30
0.0
 10
1348.1352327833
 20
85.062490689
 30
0.0
 10
1348.5169271202
 20
84.7095717755
 30
0.0
 10
1349.2238127693
 20
84.27997549
 30
0.0
 10
1350.3487750164
 20
83.9230173788
 30
0.0
 10
1351.3207531139
 20
83.8293878584
 30
0.0
 10
1351.8336390749
 20
83.8293878618
 30
0.0
  0
SPLINE
  5
690
100
AcDbEntity
  8
0
100
AcDbSpline
 62
9
  6
CONTINUOUS
 70
0
 71
3
 72
29
 73
25
 74
0
 42
0.0000001
 43
0.0000001
 44
0.0000000001
 40
0.0
 40
0.0
 40
0.0
 40
0.0
 40
0.1501476089
 40
0.28947204
 40
0.5199104885
 40
0.6114964416
 40
0.6895431311
 40
0.7558337429
 40
0.8119190012
 40
0.8590731598
 40
0.8983067925
 40
0.9304056438
 40
0.9559739235
 40
0.9664491087
 40
0.9754497323
 40
0.9830092682
 40
0.9891538025
 40
0.9939090698
 40
0.9957731812
 40
0.9972968273
 40
0.9984806707
 40
0.9993253732
 40
0.9998315957
 40
1.0
 40
1.0
 40
1.0
 40
1.0
 10
1350.2748700151
 20
75.8721774767
 30
0.0
 10
1349.7306351093
 20
74.3484085281
 30
0.0
 10
1348.5011511626
 20
71.4763059296
 30
0.0
 10
1346.0707394581
 20
66.4294031312
 30
0.0
 10
1343.8990582119
 20
61.9556283018
 30
0.0
 10
1342.1740678182
 20
58.0038103322
 30
0.0
 10
1341.2256931928
 20
55.6444928398
 30
0.0
 10
1340.4849152005
 20
53.6152643275
 30
0.0
 10
1339.9151339403
 20
51.8791311818
 30
0.0
 10
1339.4833651328
 20
50.4054945149
 30
0.0
 10
1339.1611853604
 20
49.169773579
 30
0.0
 10
1338.9252306153
 20
48.1524339295
 30
0.0
 10
1338.7756804232
 20
47.4334402367
 30
0.0
 10
1338.6842777978
 20
46.9567030483
 30
0.0
 10
1338.6316886646
 20
46.6701529764
 30
0.0
 10
1338.5891876169
 20
46.4291700042
 30
0.0
 10
1338.5559913935
 20
46.2331073292
 30
0.0
 10
1338.533561671
 20
46.0972333181
 30
0.0
 10
1338.5197414351
 20
46.0108285562
 30
0.0
 10
1338.5114284175
 20
45.9617397788
 30
0.0
 10
1338.5066163413
 20
45.9251017666
 30
0.0
 10
1338.4995563595
 20
45.8954995473
 30
0.0
 10
1338.5018903769
 20
45.883919139
 30
0.0
 10
1338.4957463172
 20
45.871985392
 30
0.0
 10
1338.4975547911
 20
45.8721365948
 30
0.0
  0
SPLINE
  5
691
100
AcDbEntity
  8
0
100
AcDbSpline
 62
9
  6
CONTINUOUS
 70
0
 71
3
 72
9
 73
5
 74
0
 42
0.0000001
 43
0.0000001
 44
0.0000000001
 40
0.0
 40
0.0
 40
0.0
 40
0.0
 40
0.4802428506
 40
1.0
 40
1.0
 40
1.0
 40
1.0
 10
1351.8336390749
 20
83.8293949884
 30
0.0
 10
1351.8336486768
 20
82.5265396106
 30
0.0
 10
1351.5243664254
 20
79.8097701953
 30
0.0
 10
1350.7491304484
 20
77.2000816852
 30
0.0
 10
1350.2748700151
 20
75.8721774767
 30
0.0
  0
SPLINE
  5
692
100
AcDbEntity
  8
0
100
AcDbSpline
 62
9
  6
CONTINUOUS
 70
0
 71
3
 72
29
 73
25
 74
0
 42
0.0000001
 43
0.0000001
 44
0.0000000001
 40
0.0
 40
0.0
 40
0.0
 40
0.0
 40
0.1497886273
 40
0.2875531233
 40
0.5154249679
 40
0.6066477642
 40
0.6848173567
 40
0.7515469764
 40
0.8082475613
 40
0.8560904877
 40
0.8960159451
 40
0.9287624165
 40
0.9548962319
 40
0.9656166593
 40
0.9748326393
 40
0.9825780668
 40
0.9888770894
 40
0.9937532405
 40
0.9956647802
 40
0.9972273442
 40
0.9984415413
 40
0.9993079786
 40
0.9998272625
 40
1.0
 40
1.0
 40
1.0
 40
1.0
 10
1346.4582546103
 20
76.92971284
 30
0.0
 10
1346.0215045757
 20
75.3103083489
 30
0.0
 10
1345.0488968007
 20
72.2375993055
 30
0.0
 10
1343.0490226566
 20
66.8231654254
 30
0.0
 10
1341.1412441834
 20
62.0760423793
 30
0.0
 10
1339.5621823481
 20
57.9171596096
 30
0.0
 10
1338.6746876886
 20
55.4263077248
 30
0.0
 10
1337.9719748257
 20
53.2807467266
 30
0.0
 10
1337.4268456562
 20
51.441734246
 30
0.0
 10
1337.0118579085
 20
49.8779447812
 30
0.0
 10
1336.7017918085
 20
48.5644136036
 30
0.0
 10
1336.4748541376
 20
47.4814522801
 30
0.0
 10
1336.3315208271
 20
46.7153341977
 30
0.0
 10
1336.2441083052
 20
46.206910337
 30
0.0
 10
1336.1939585422
 20
45.9010330316
 30
0.0
 10
1336.153463552
 20
45.6437085577
 30
0.0
 10
1336.1218922182
 20
45.4342905576
 30
0.0
 10
1336.1005943193
 20
45.2891207616
 30
0.0
 10
1336.087527644
 20
45.1968182342
 30
0.0
 10
1336.0796095589
 20
45.1443279945
 30
0.0
 10
1336.0751682611
 20
45.105276679
 30
0.0
 10
1336.0682222833
 20
45.0734195473
 30
0.0
 10
1336.0708905057
 20
45.0614368975
 30
0.0
 10
1336.0645997961
 20
45.0482793468
 30
0.0
 10
1336.0665058955
 20
45.0486080726
 30
0.0
  0
SPLINE
  5
693
100
AcDbEntity
  8
0
100
AcDbSpline
 62
7
  6
CONTINUOUS
 70
0
 71
3
 72
11
 73
7
 74
0
 42
0.0000001
 43
0.0000001
 44
0.0000000001
 40
0.0
 40
0.0
 40
0.0
 40
0.0
 40
0.2266824605
 40
0.4698338521
 40
0.7290530727
 40
1.0
 40
1.0
 40
1.0
 40
1.0
 10
1317.8336390749
 20
449.1303564533
 30
0.0
 10
1319.9544034774
 20
448.3770350975
 30
0.0
 10
1324.2036801914
 20
446.3859472803
 30
0.0
 10
1330.2088437591
 20
442.3005606143
 30
0.0
 10
1335.9015203871
 20
437.1142574289
 30
0.0
 10
1339.2883592972
 20
433.0577551878
 30
0.0
 10
1340.8566920842
 20
430.8721774767
 30
0.0
  0
SPLINE
  5
694
100
AcDbEntity
  8
0
100
AcDbSpline
 62
7
  6
CONTINUOUS
 70
0
 71
3
 72
10
 73
6
 74
0
 42
0.0000001
 43
0.0000001
 44
0.0000000001
 40
0.0
 40
0.0
 40
0.0
 40
0.0
 40
0.2502500077
 40
0.5005386487
 40
1.0
 40
1.0
 40
1.0
 40
1.0
 10
1340.8566920842
 20
430.8721774767
 30
0.0
 10
1342.0409632969
 20
429.2218155204
 30
0.0
 10
1344.1118624538
 20
425.6960584012
 30
0.0
 10
1347.0094140915
 20
418.08694782
 30
0.0
 10
1347.8336390749
 20
411.9447436049
 30
0.0
 10
1347.8336390749
 20
407.8905680409
 30
0.0
  0
SPLINE
  5
695
100
AcDbEntity
  8
0
100
AcDbSpline
 62
9
  6
CONTINUOUS
 70
0
 71
3
 72
16
 73
12
 74
0
 42
0.0000001
 43
0.0000001
 44
0.0000000001
 40
0.0
 40
0.0
 40
0.0
 40
0.0
 40
0.0040172211
 40
0.0159758625
 40
0.0358567266
 40
0.0636405953
 40
0.1428404971
 40
0.2534219603
 40
0.3951229867
 40
0.5672849788
 40
1.0
 40
1.0
 40
1.0
 40
1.0
 10
1133.8336390749
 20
450.8721774767
 30
0.0
 10
1133.8352052419
 20
450.8703924521
 30
0.0
 10
1133.8344708722
 20
450.8598309995
 30
0.0
 10
1133.8411352448
 20
450.8403012653
 30
0.0
 10
1133.846601092
 20
450.8050262427
 30
0.0
 10
1133.8620314561
 20
450.7318916346
 30
0.0
 10
1133.8862317078
 20
450.6053847146
 30
0.0
 10
1133.924133261
 20
450.4132292266
 30
0.0
 10
1133.9718172789
 20
450.1668639992
 30
0.0
 10
1134.0549181438
 20
449.73345133
 30
0.0
 10
1134.120520907
 20
449.3819487775
 30
0.0
 10
1134.1666745603
 20
449.1303564533
 30
0.0
  0
SPLINE
  5
696
100
AcDbEntity
  8
0
100
AcDbSpline
 62
9
  6
CONTINUOUS
 70
0
 71
3
 72
11
 73
7
 74
0
 42
0.0000001
 43
0.0000001
 44
0.0000000001
 40
0.0
 40
0.0
 40
0.0
 40
0.0
 40
0.259016616
 40
0.5140724744
 40
0.7609772801
 40
1.0
 40
1.0
 40
1.0
 40
1.0
 10
1201.5006035895
 20
449.1303498131
 30
0.0
 10
1200.989761172
 20
449.1433614723
 30
0.0
 10
1199.9716487422
 20
449.3496107105
 30
0.0
 10
1198.6671305644
 20
450.1548066552
 30
0.0
 10
1197.7632371358
 20
451.3485900414
 30
0.0
 10
1197.524254871
 20
452.3106476688
 30
0.0
 10
1197.5099174175
 20
452.7819922486
 30
0.0
  0
SPLINE
  5
697
100
AcDbEntity
  8
0
100
AcDbSpline
 62
9
  6
CONTINUOUS
 70
0
 71
3
 72
16
 73
12
 74
0
 42
0.0000001
 43
0.0000001
 44
0.0000000001
 40
0.0
 40
0.0
 40
0.0
 40
0.0
 40
0.4327159135
 40
0.6048775171
 40
0.7465783975
 40
0.8571601147
 40
0.9363602145
 40
0.9641440803
 40
0.9840248304
 40
0.995983214
 40
1.0
 40
1.0
 40
1.0
 40
1.0
 10
1201.5006035895
 20
449.1303564533
 30
0.0
 10
1201.5467594661
 20
449.3819489045
 30
0.0
 10
1201.6123627736
 20
449.7334516532
 30
0.0
 10
1201.6954615696
 20
450.166864912
 30
0.0
 10
1201.7431441381
 20
450.4132302921
 30
0.0
 10
1201.7810459797
 20
450.6053858008
 30
0.0
 10
1201.805246348
 20
450.7318931893
 30
0.0
 10
1201.820677843
 20
450.8050273252
 30
0.0
 10
1201.8261427617
 20
450.8403027905
 30
0.0
 10
1201.8328089274
 20
450.8598308414
 30
0.0
 10
1201.832072546
 20
450.8703931119
 30
0.0
 10
1201.8336390749
 20
450.8721774767
 30
0.0
  0
SPLINE
  5
698
100
AcDbEntity
  8
0
100
AcDbSpline
 62
9
  6
CONTINUOUS
 70
0
 71
3
 72
15
 73
11
 74
0
 42
0.0000001
 43
0.0000001
 44
0.0000000001
 40
0.0
 40
0.0
 40
0.0
 40
0.0
 40
0.1288705029
 40
0.2571967392
 40
0.3845010672
 40
0.5104285095
 40
0.6348028297
 40
0.7576518349
 40
0.8792358758
 40
1.0
 40
1.0
 40
1.0
 40
1.0
 10
1127.83813512
 20
449.1303706639
 30
0.0
 10
1125.875770421
 20
449.130419282
 30
0.0
 10
1121.9494804384
 20
448.7660391565
 30
0.0
 10
1116.2897009399
 20
447.1436987904
 30
0.0
 10
1111.0710581029
 20
444.5101830781
 30
0.0
 10
1106.4959392185
 20
440.9684384153
 30
0.0
 10
1102.7391884512
 20
436.6562152682
 30
0.0
 10
1099.9452760624
 20
431.7399184031
 30
0.0
 10
1098.222552528
 20
426.4127738619
 30
0.0
 10
1097.8343267154
 20
422.7111028621
 30
0.0
 10
1097.8336390749
 20
420.8721774876
 30
0.0
  0
SPLINE
  5
699
100
AcDbEntity
  8
0
100
AcDbSpline
 62
9
  6
CONTINUOUS
 70
0
 71
3
 72
11
 73
7
 74
0
 42
0.0000001
 43
0.0000001
 44
0.0000000001
 40
0.0
 40
0.0
 40
0.0
 40
0.0
 40
0.2590166086
 40
0.5140724655
 40
0.7609772787
 40
1.0
 40
1.0
 40
1.0
 40
1.0
 10
1134.1666745603
 20
449.1303531404
 30
0.0
 10
1134.6775166119
 20
449.1433650204
 30
0.0
 10
1135.6956282276
 20
449.3496143645
 30
0.0
 10
1137.000145583
 20
450.154809508
 30
0.0
 10
1137.904039138
 20
451.3485914128
 30
0.0
 10
1138.1430224574
 20
452.3106480073
 30
0.0
 10
1138.1573606406
 20
452.7819922486
 30
0.0
  0
SPLINE
  5
69A
100
AcDbEntity
  8
0
100
AcDbSpline
 62
9
  6
CONTINUOUS
 70
0
 71
3
 72
14
 73
10
 74
0
 42
0.0000001
 43
0.0000001
 44
0.0000000001
 40
0.0
 40
0.0
 40
0.0
 40
0.0
 40
0.4322978578
 40
0.6044798622
 40
0.7462651812
 40
0.85693823
 40
0.9362222207
 40
0.9839614309
 40
1.0
 40
1.0
 40
1.0
 40
1.0
 10
1197.5099164473
 20
452.7819922486
 30
0.0
 10
1197.5546947849
 20
453.0834719139
 30
0.0
 10
1197.6184866628
 20
453.5048616686
 30
0.0
 10
1197.6989760116
 20
454.0248006885
 30
0.0
 10
1197.7458883349
 20
454.3205220227
 30
0.0
 10
1197.7814799416
 20
454.5516101189
 30
0.0
 10
1197.8102770796
 20
454.7169086072
 30
0.0
 10
1197.822135398
 20
454.8168249072
 30
0.0
 10
1197.8336348945
 20
454.8608696568
 30
0.0
 10
1197.8336390749
 20
454.8721774767
 30
0.0
  0
SPLINE
  5
69B
100
AcDbEntity
  8
0
100
AcDbSpline
 62
9
  6
CONTINUOUS
 70
0
 71
3
 72
20
 73
16
 74
0
 42
0.0000001
 43
0.0000001
 44
0.0000000001
 40
0.0
 40
0.0
 40
0.0
 40
0.0
 40
0.0454381076
 40
0.0897522953
 40
0.1325913556
 40
0.1740656704
 40
0.2534813166
 40
0.3289859599
 40
0.4010724018
 40
0.4700198396
 40
0.5990298338
 40
0.7165801597
 40
0.8226839845
 40
0.9171897675
 40
1.0
 40
1.0
 40
1.0
 40
1.0
 10
1167.8336390749
 20
408.9242836018
 30
0.0
 10
1168.6752281065
 20
408.9249879182
 30
0.0
 10
1170.344494532
 20
409.1561907221
 30
0.0
 10
1172.6430360423
 20
410.0640803332
 30
0.0
 10
1174.6897096979
 20
411.2981480588
 30
0.0
 10
1177.0905347393
 20
413.1582150297
 30
0.0
 10
1179.6799440543
 20
415.7295772013
 30
0.0
 10
1182.3593133608
 20
418.9744078585
 30
0.0
 10
1184.6933269016
 20
422.2392415977
 30
0.0
 10
1187.3810266667
 20
426.4593337781
 30
0.0
 10
1190.2001549829
 20
431.5855641127
 30
0.0
 10
1192.944585111
 20
437.5177718799
 30
0.0
 10
1195.0638763952
 20
443.0214089351
 30
0.0
 10
1196.598525958
 20
448.0460461224
 30
0.0
 10
1197.2845474564
 20
451.2648568432
 30
0.0
 10
1197.5099164473
 20
452.7819922486
 30
0.0
  0
SPLINE
  5
69C
100
AcDbEntity
  8
0
100
AcDbSpline
 62
9
  6
CONTINUOUS
 70
0
 71
3
 72
9
 73
5
 74
0
 42
0.0000001
 43
0.0000001
 44
0.0000000001
 40
0.0
 40
0.0
 40
0.0
 40
0.0
 40
0.5049628038
 40
1.0
 40
1.0
 40
1.0
 40
1.0
 10
122.9220471792
 20
85.8773559672
 30
0.0
 10
122.1100480102
 20
84.5289497073
 30
0.0
 10
120.840762676
 20
81.6287973435
 30
0.0
 10
120.5140733053
 20
78.4708676865
 30
0.0
 10
120.5911664368
 20
76.92971284
 30
0.0
  0
SPLINE
  5
69D
100
AcDbEntity
  8
0
100
AcDbSpline
 62
9
  6
CONTINUOUS
 70
0
 71
3
 72
29
 73
25
 74
0
 42
0.0000001
 43
0.0000001
 44
0.0000000001
 40
0.0
 40
0.0
 40
0.0
 40
0.0
 40
0.0302606889
 40
0.0603775432
 40
0.0907144844
 40
0.1213924777
 40
0.1523893248
 40
0.1836346662
 40
0.2465592739
 40
0.3098084904
 40
0.3731767992
 40
0.4365849342
 40
0.5000047387
 40
0.5634246111
 40
0.6268327557
 40
0.6902011945
 40
0.7534495319
 40
0.8163734968
 40
0.8476180818
 40
0.8786137754
 40
0.9092907768
 40
0.939626455
 40
0.9697415634
 40
1.0
 40
1.0
 40
1.0
 40
1.0
 10
120.5911664368
 20
76.92971284
 30
0.0
 10
120.673025864
 20
75.2957648396
 30
0.0
 10
121.3718589337
 20
72.0464373872
 30
0.0
 10
123.6765460787
 20
67.6689826165
 30
0.0
 10
126.8350200497
 20
63.8527524593
 30
0.0
 10
130.5772830003
 20
60.5526379802
 30
0.0
 10
134.7241413259
 20
57.7003117128
 30
0.0
 10
140.6462524543
 20
54.4102845009
 30
0.0
 10
148.5403796553
 20
51.1554421413
 30
0.0
 10
158.4065166153
 20
48.3311925601
 30
0.0
 10
168.5114503048
 20
46.4102242634
 30
0.0
 10
178.7429067412
 20
45.293094468
 30
0.0
 10
189.0306335745
 20
44.926324356
 30
0.0
 10
199.3183602724
 20
45.293211754
 30
0.0
 10
209.549801808
 20
46.4105371006
 30
0.0
 10
219.6547055466
 20
48.3314698849
 30
0.0
 10
229.5206889354
 20
51.1559816939
 30
0.0
 10
237.4146908308
 20
54.4107988128
 30
0.0
 10
243.3366062726
 20
57.7009030535
 30
0.0
 10
247.4832326129
 20
60.5532895046
 30
0.0
 10
251.2252732879
 20
63.8533689366
 30
0.0
 10
254.3835372033
 20
67.6695038147
 30
0.0
 10
256.6879045498
 20
72.0467812833
 30
0.0
 10
257.3867630895
 20
75.2958832257
 30
0.0
 10
257.4685519743
 20
76.92971284
 30
0.0
  0
SPLINE
  5
69E
100
AcDbEntity
  8
0
100
AcDbSpline
 62
9
  6
CONTINUOUS
 70
0
 71
3
 72
9
 73
5
 74
0
 42
0.0000001
 43
0.0000001
 44
0.0000000001
 40
0.0
 40
0.0
 40
0.0
 40
0.0
 40
0.4950298702
 40
1.0
 40
1.0
 40
1.0
 40
1.0
 10
257.4685519743
 20
76.92971284
 30
0.0
 10
257.5451235223
 20
78.4708659311
 30
0.0
 10
257.2192299836
 20
81.6288272999
 30
0.0
 10
255.9492854366
 20
84.5286971272
 30
0.0
 10
255.137671232
 20
85.8773559672
 30
0.0
  0
SPLINE
  5
69F
100
AcDbEntity
  8
0
100
AcDbSpline
 62
9
  6
CONTINUOUS
 70
0
 71
3
 72
23
 73
19
 74
0
 42
0.0000001
 43
0.0000001
 44
0.0000000001
 40
0.0
 40
0.0
 40
0.0
 40
0.0
 40
0.0623278469
 40
0.0935940316
 40
0.1248637246
 40
0.1873725935
 40
0.2499001976
 40
0.3124358975
 40
0.374976101
 40
0.4999989337
 40
0.6250224134
 40
0.687562861
 40
0.7500987088
 40
0.8126266608
 40
0.8751359174
 40
0.9064059415
 40
0.937672309
 40
1.0
 40
1.0
 40
1.0
 40
1.0
 10
255.1376678449
 20
85.8773609255
 30
0.0
 10
253.5882123183
 20
88.4772275137
 30
0.0
 10
250.5002224298
 20
91.9418182624
 30
0.0
 10
245.7147957138
 20
95.6652200522
 30
0.0
 10
240.5751385706
 20
98.9173486742
 30
0.0
 10
233.7016546483
 20
102.1952196636
 30
0.0
 10
225.07380098
 20
105.1574627217
 30
0.0
 10
216.2150778206
 20
107.3273129068
 30
0.0
 10
204.2237684016
 20
109.3072034825
 30
0.0
 10
189.0299803417
 20
110.2487743845
 30
0.0
 10
173.8361791541
 20
109.307226303
 30
0.0
 10
161.8448158934
 20
107.3273496609
 30
0.0
 10
152.9860568154
 20
105.1574968553
 30
0.0
 10
144.3581527696
 20
102.1952672109
 30
0.0
 10
137.4846223941
 20
98.9173719382
 30
0.0
 10
132.3449244998
 20
95.6652260966
 30
0.0
 10
127.5594855777
 20
91.9418097607
 30
0.0
 10
124.4715058997
 20
88.4772119053
 30
0.0
 10
122.9220472104
 20
85.877356013
 30
0.0
  0
SPLINE
  5
6A0
100
AcDbEntity
  8
0
100
AcDbSpline
 62
9
  6
CONTINUOUS
 70
0
 71
3
 72
29
 73
25
 74
0
 42
0.0000001
 43
0.0000001
 44
0.0000000001
 40
0.0
 40
0.0
 40
0.0
 40
0.0
 40
0.000289315
 40
0.0011287735
 40
0.0024983199
 40
0.0043778959
 40
0.0095853798
 40
0.0165424892
 40
0.0249863829
 40
0.0346537311
 40
0.0568853612
 40
0.0820053981
 40
0.1091759848
 40
0.1378747232
 40
0.1677353983
 40
0.2300513772
 40
0.2948718939
 40
0.3614882595
 40
0.4294637846
 40
0.4985144718
 40
0.5684364594
 40
0.7103356462
 40
0.8543626676
 40
1.0
 40
1.0
 40
1.0
 40
1.0
 10
64.0298592056
 20
408.9242836018
 30
0.0
 10
64.0310043965
 20
408.9289042333
 30
0.0
 10
64.0447924845
 20
408.9428389717
 30
0.0
 10
64.0645333599
 20
408.9783252372
 30
0.0
 10
64.1040729235
 20
409.0332346548
 30
0.0
 10
64.1813004396
 20
409.1487301667
 30
0.0
 10
64.3125334114
 20
409.3391268632
 30
0.0
 10
64.5047658105
 20
409.6183831018
 30
0.0
 10
64.7409981979
 20
409.9565500688
 30
0.0
 10
65.1246158242
 20
410.4982775612
 30
0.0
 10
65.6755168258
 20
411.2577587862
 30
0.0
 10
66.4108065635
 20
412.2391027625
 30
0.0
 10
67.2271760696
 20
413.2924547466
 30
0.0
 10
68.1090848426
 20
414.3934740158
 30
0.0
 10
69.3771495646
 20
415.9257996562
 30
0.0
 10
71.0705141617
 20
417.8771938777
 30
0.0
 10
73.2295371934
 20
420.22343419
 30
0.0
 10
75.51759465
 20
422.5757667177
 30
0.0
 10
77.9169914581
 20
424.9152139297
 30
0.0
 10
80.4153338843
 20
427.2295026547
 30
0.0
 10
83.8831394359
 20
430.285026619
 30
0.0
 10
88.4170865372
 20
433.9938749663
 30
0.0
 10
94.1211755434
 20
438.2272596402
 30
0.0
 10
98.0776617389
 20
440.8884356821
 30
0.0
 10
100.0960567677
 20
442.1801459858
 30
0.0
  0
SPLINE
  5
6A1
100
AcDbEntity
  8
0
100
AcDbSpline
 62
9
  6
CONTINUOUS
 70
0
 71
3
 72
11
 73
7
 74
0
 42
0.0000001
 43
0.0000001
 44
0.0000000001
 40
0.0
 40
0.0
 40
0.0
 40
0.0
 40
0.2500047083
 40
0.5000083304
 40
0.7500077661
 40
1.0
 40
1.0
 40
1.0
 40
1.0
 10
-641.1539721462
 20
282.0701361234
 30
0.0
 10
-641.1655724145
 20
281.7120161973
 30
0.0
 10
-641.113197603
 20
280.9911038457
 30
0.0
 10
-640.8117734498
 20
279.9513719507
 30
0.0
 10
-640.3002610146
 20
278.9972413414
 30
0.0
 10
-639.8323039815
 20
278.4461261406
 30
0.0
 10
-639.572570263
 20
278.1993265627
 30
0.0
  0
LINE
  5
6A2
100
AcDbEntity
  8
0
100
AcDbLine
 62
9
  6
CONTINUOUS
 10
-645.6493512463
 20
291.6226618154
 11
-645.6493512462
 21
275.8721774767
  0
LINE
  5
6A3
100
AcDbEntity
  8
0
100
AcDbLine
 62
9
  6
CONTINUOUS
 10
-645.6493512463
 20
135.8721774759
 11
-645.6493512462
 21
120.1216931377
  0
SPLINE
  5
6A4
100
AcDbEntity
  8
0
100
AcDbSpline
 62
9
  6
CONTINUOUS
 70
0
 71
3
 72
17
 73
13
 74
0
 42
0.0000001
 43
0.0000001
 44
0.0000000001
 40
0.0
 40
0.0
 40
0.0
 40
0.0
 40
0.0310016494
 40
0.0572432913
 40
0.0916106178
 40
0.1341244559
 40
0.184564568
 40
0.2425531017
 40
0.3076036255
 40
0.4565145226
 40
0.6258725101
 40
1.0
 40
1.0
 40
1.0
 40
1.0
 10
-576.1493512429
 20
213.8721774767
 30
0.0
 10
-576.1493605097
 20
213.8298650698
 30
0.0
 10
-576.2214704301
 20
213.7674530962
 30
0.0
 10
-576.3296357115
 20
213.7157905678
 30
0.0
 10
-576.4640425606
 20
213.6675431977
 30
0.0
 10
-576.6312730887
 20
213.6224103549
 30
0.0
 10
-576.8328752564
 20
213.5786150927
 30
0.0
 10
-577.0660273366
 20
213.5375229135
 30
0.0
 10
-577.4334199312
 20
213.4842035286
 30
0.0
 10
-577.9538362344
 20
213.4289348185
 30
0.0
 10
-578.8966582844
 20
213.3629268519
 30
0.0
 10
-579.6387256709
 20
213.3446997237
 30
0.0
 10
-580.1493512429
 20
213.3447049492
 30
0.0
  0
SPLINE
  5
6A5
100
AcDbEntity
  8
0
100
AcDbSpline
 62
9
  6
CONTINUOUS
 70
0
 71
3
 72
11
 73
7
 74
0
 42
0.0000001
 43
0.0000001
 44
0.0000000001
 40
0.0
 40
0.0
 40
0.0
 40
0.0
 40
0.2498447431
 40
0.4986303534
 40
0.7481823148
 40
1.0
 40
1.0
 40
1.0
 40
1.0
 10
-645.1471726798
 20
116.9991941305
 30
0.0
 10
-645.0713324153
 20
116.7131413869
 30
0.0
 10
-644.8833004432
 20
116.1508874626
 30
0.0
 10
-644.4704849103
 20
115.3614367461
 30
0.0
 10
-643.9052961304
 20
114.6667104421
 30
0.0
 10
-643.4159253115
 20
114.3123687904
 30
0.0
 10
-643.1493512429
 20
114.178559997
 30
0.0
  0
SPLINE
  5
6A6
100
AcDbEntity
  8
0
100
AcDbSpline
 62
9
  6
CONTINUOUS
 70
0
 71
3
 72
11
 73
7
 74
0
 42
0.0000001
 43
0.0000001
 44
0.0000000001
 40
0.0
 40
0.0
 40
0.0
 40
0.0
 40
0.2518297471
 40
0.5014044018
 40
0.7501893398
 40
1.0
 40
1.0
 40
1.0
 40
1.0
 10
-643.1493512429
 20
297.5657947167
 30
0.0
 10
-643.4154660277
 20
297.4312858111
 30
0.0
 10
-643.9037589854
 20
297.0759275883
 30
0.0
 10
-644.4683011618
 20
296.3812089353
 30
0.0
 10
-644.8817118307
 20
295.592524267
 30
0.0
 10
-645.0707369087
 20
295.0309008063
 30
0.0
 10
-645.1471725327
 20
294.7451608229
 30
0.0
  0
SPLINE
  5
6A7
100
AcDbEntity
  8
0
100
AcDbSpline
 62
9
  6
CONTINUOUS
 70
0
 71
3
 72
26
 73
22
 74
0
 42
0.0000001
 43
0.0000001
 44
0.0000000001
 40
0.0
 40
0.0
 40
0.0
 40
0.0
 40
0.2158186368
 40
0.4124940168
 40
0.5857231353
 40
0.6623897961
 40
0.7318971924
 40
0.7939078478
 40
0.8481319189
 40
0.8943283627
 40
0.9323060897
 40
0.9481671377
 40
0.9619249371
 40
0.9735700186
 40
0.9830961566
 40
0.9905003691
 40
0.9957829041
 40
0.9976294971
 40
0.998947234
 40
0.9997370134
 40
1.0
 40
1.0
 40
1.0
 40
1.0
 10
-645.4092181761
 20
293.6587474048
 30
0.0
 10
-645.4206031834
 20
293.5116467113
 30
0.0
 10
-645.4446746588
 20
293.2306670673
 30
0.0
 10
-645.4848086615
 20
292.8322520513
 30
0.0
 10
-645.5195116161
 20
292.5289303549
 30
0.0
 10
-645.546511138
 20
292.3122503948
 30
0.0
 10
-645.5650170058
 20
292.1711358125
 30
0.0
 10
-645.582339763
 20
292.0453427598
 30
0.0
 10
-645.5982104129
 20
291.9354386355
 30
0.0
 10
-645.6123669302
 20
291.8418896402
 30
0.0
 10
-645.6230742999
 20
291.7743446316
 30
0.0
 10
-645.6305815635
 20
291.7287478835
 30
0.0
 10
-645.6352700099
 20
291.7009291887
 30
0.0
 10
-645.6393404865
 20
291.677404673
 30
0.0
 10
-645.6427294832
 20
291.6581528955
 30
0.0
 10
-645.645481714
 20
291.6432515189
 30
0.0
 10
-645.6472132611
 20
291.6334004161
 30
0.0
 10
-645.648405236
 20
291.6278388474
 30
0.0
 10
-645.6487285612
 20
291.6250014094
 30
0.0
 10
-645.6493691426
 20
291.6237334912
 30
0.0
 10
-645.64916626
 20
291.6226934835
 30
0.0
 10
-645.6493416977
 20
291.6226541815
 30
0.0
  0
SPLINE
  5
6A8
100
AcDbEntity
  8
0
100
AcDbSpline
 62
9
  6
CONTINUOUS
 70
0
 71
3
 72
9
 73
5
 74
0
 42
0.0000001
 43
0.0000001
 44
0.0000000001
 40
0.0
 40
0.0
 40
0.0
 40
0.0
 40
0.2545525327
 40
1.0
 40
1.0
 40
1.0
 40
1.0
 10
-645.147172526
 20
294.7451608387
 30
0.0
 10
-645.1857360239
 20
294.6582278973
 30
0.0
 10
-645.3194890684
 20
294.3088596443
 30
0.0
 10
-645.3877278853
 20
293.9364210216
 30
0.0
 10
-645.4092181761
 20
293.6587474048
 30
0.0
  0
SPLINE
  5
6A9
100
AcDbEntity
  8
0
100
AcDbSpline
 62
9
  6
CONTINUOUS
 70
0
 71
3
 72
26
 73
22
 74
0
 42
0.0000001
 43
0.0000001
 44
0.0000000001
 40
0.0
 40
0.0
 40
0.0
 40
0.0
 40
0.000262404
 40
0.0010504725
 40
0.0023654235
 40
0.0042082119
 40
0.0094803035
 40
0.0168706783
 40
0.0263800533
 40
0.0380059254
 40
0.0517425554
 40
0.0675809664
 40
0.1055109983
 40
0.151659851
 40
0.20584038
 40
0.2678153494
 40
0.3372984683
 40
0.4139554087
 40
0.5872180932
 40
0.7840043199
 40
1.0
 40
1.0
 40
1.0
 40
1.0
 10
-645.6493416987
 20
120.1217007711
 30
0.0
 10
-645.6491657864
 20
120.1216655839
 30
0.0
 10
-645.6493647486
 20
120.1206190881
 30
0.0
 10
-645.6487179839
 20
120.1193643931
 30
0.0
 10
-645.6483829962
 20
120.1165300152
 30
0.0
 10
-645.6471677884
 20
120.1109874424
 30
0.0
 10
-645.6453974179
 20
120.1011604511
 30
0.0
 10
-645.642589273
 20
120.0862981547
 30
0.0
 10
-645.639132109
 20
120.0670917395
 30
0.0
 10
-645.6349830104
 20
120.0436195259
 30
0.0
 10
-645.6302070929
 20
120.0158579241
 30
0.0
 10
-645.6225648639
 20
119.9703446662
 30
0.0
 10
-645.6116782217
 20
119.9029063768
 30
0.0
 10
-645.5973096237
 20
119.8094808101
 30
0.0
 10
-645.5812321753
 20
119.6996885713
 30
0.0
 10
-645.5637224642
 20
119.5739862304
 30
0.0
 10
-645.5450649191
 20
119.432932249
 30
0.0
 10
-645.5179233063
 20
119.2162589937
 30
0.0
 10
-645.4832404565
 20
118.9128251308
 30
0.0
 10
-645.4435574274
 20
118.5141216091
 30
0.0
 10
-645.4201529477
 20
118.2328712072
 30
0.0
 10
-645.4092182845
 20
118.0856074809
 30
0.0
  0
SPLINE
  5
6AA
100
AcDbEntity
  8
0
100
AcDbSpline
 62
9
  6
CONTINUOUS
 70
0
 71
3
 72
9
 73
5
 74
0
 42
0.0000001
 43
0.0000001
 44
0.0000000001
 40
0.0
 40
0.0
 40
0.0
 40
0.0
 40
0.2457070416
 40
1.0
 40
1.0
 40
1.0
 40
1.0
 10
-645.4092182845
 20
118.0856074809
 30
0.0
 10
-645.4024233829
 20
117.99409416
 30
0.0
 10
-645.3612141296
 20
117.6229350136
 30
0.0
 10
-645.2605480725
 20
117.2570815798
 30
0.0
 10
-645.1471726704
 20
116.9991941081
 30
0.0
  0
SPLINE
  5
6AB
100
AcDbEntity
  8
0
100
AcDbSpline
 62
9
  6
CONTINUOUS
 70
0
 71
3
 72
17
 73
13
 74
0
 42
0.0000001
 43
0.0000001
 44
0.0000000001
 40
0.0
 40
0.0
 40
0.0
 40
0.0
 40
0.1196168409
 40
0.2395081303
 40
0.3599957248
 40
0.4815289086
 40
0.6048071179
 40
0.7310216175
 40
0.795965457
 40
0.8624655729
 40
0.9306353425
 40
1.0
 40
1.0
 40
1.0
 40
1.0
 10
-576.1493512429
 20
292.8721774767
 30
0.0
 10
-576.1493625402
 20
293.1263680039
 30
0.0
 10
-576.1725803741
 20
293.6356447889
 30
0.0
 10
-576.2787091045
 20
294.3943895536
 30
0.0
 10
-576.4612772806
 20
295.1429450438
 30
0.0
 10
-576.7302704245
 20
295.8732891572
 30
0.0
 10
-577.102547804
 20
296.5714268821
 30
0.0
 10
-577.5204075636
 20
297.1002938354
 30
0.0
 10
-577.9363239407
 20
297.459043972
 30
0.0
 10
-578.2992771803
 20
297.682920945
 30
0.0
 10
-578.7085026403
 20
297.8355282828
 30
0.0
 10
-579.001948597
 20
297.8721850063
 30
0.0
 10
-579.1493512429
 20
297.8721774767
 30
0.0
  0
SPLINE
  5
6AC
100
AcDbEntity
  8
0
100
AcDbSpline
 62
9
  6
CONTINUOUS
 70
0
 71
3
 72
13
 73
9
 74
0
 42
0.0000001
 43
0.0000001
 44
0.0000000001
 40
0.0
 40
0.0
 40
0.0
 40
0.0
 40
0.1325627091
 40
0.2266627794
 40
0.3419355428
 40
0.4782948564
 40
0.634644537
 40
1.0
 40
1.0
 40
1.0
 40
1.0
 10
-644.1493512429
 20
292.8721774767
 30
0.0
 10
-644.1493512429
 20
292.9400047449
 30
0.0
 10
-644.2168735623
 20
293.0497972712
 30
0.0
 10
-644.3452792209
 20
293.1652706338
 30
0.0
 10
-644.4919043426
 20
293.2664148528
 30
0.0
 10
-644.674497609
 20
293.3674830874
 30
0.0
 10
-644.9800794334
 20
293.5096041008
 30
0.0
 10
-645.2314340782
 20
293.6009651733
 30
0.0
 10
-645.4092181761
 20
293.6587474048
 30
0.0
  0
LINE
  5
6AD
100
AcDbEntity
  8
0
100
AcDbLine
 62
9
  6
CONTINUOUS
 10
-609.8520261167
 20
248.7509477363
 11
-609.5494281813
 21
248.4878785613
  0
LINE
  5
6AE
100
AcDbEntity
  8
0
100
AcDbLine
 62
9
  6
CONTINUOUS
 10
-609.5494281813
 20
163.2564763803
 11
-609.8520261167
 21
162.9934072171
  0
SPLINE
  5
6AF
100
AcDbEntity
  8
0
100
AcDbSpline
 62
9
  6
CONTINUOUS
 70
0
 71
3
 72
17
 73
13
 74
0
 42
0.0000001
 43
0.0000001
 44
0.0000000001
 40
0.0
 40
0.0
 40
0.0
 40
0.0
 40
0.069366526
 40
0.1375361153
 40
0.2040343917
 40
0.2689775419
 40
0.3951913977
 40
0.5184692822
 40
0.6400027041
 40
0.7604906685
 40
0.88038269
 40
1.0
 40
1.0
 40
1.0
 40
1.0
 10
-579.1493512429
 20
113.8721774767
 30
0.0
 10
-579.0019446326
 20
113.8721699464
 30
0.0
 10
-578.7084950344
 20
113.9088281355
 30
0.0
 10
-578.2992707377
 20
114.0614375494
 30
0.0
 10
-577.9363233478
 20
114.2853126426
 30
0.0
 10
-577.5204113557
 20
114.644057397
 30
0.0
 10
-577.1025529543
 20
115.1729208799
 30
0.0
 10
-576.7302746889
 20
115.8710563695
 30
0.0
 10
-576.4612812836
 20
116.6014009711
 30
0.0
 10
-576.2787097841
 20
117.3499585234
 30
0.0
 10
-576.172580619
 20
118.1087066904
 30
0.0
 10
-576.149363177
 20
118.6179859637
 30
0.0
 10
-576.1493512429
 20
118.8721774767
 30
0.0
  0
SPLINE
  5
6B0
100
AcDbEntity
  8
0
100
AcDbSpline
 62
9
  6
CONTINUOUS
 70
0
 71
3
 72
15
 73
11
 74
0
 42
0.0000001
 43
0.0000001
 44
0.0000000001
 40
0.0
 40
0.0
 40
0.0
 40
0.0
 40
0.1235858319
 40
0.2473764065
 40
0.3715641129
 40
0.4962744733
 40
0.62155484
 40
0.7473615942
 40
0.8735716456
 40
1.0
 40
1.0
 40
1.0
 40
1.0
 10
-576.1493512429
 20
161.2263490041
 30
0.0
 10
-576.1493503407
 20
161.4821109992
 30
0.0
 10
-576.2008999499
 20
161.9955311334
 30
0.0
 10
-576.4298720112
 20
162.7347232572
 30
0.0
 10
-576.8017146549
 20
163.4163163228
 30
0.0
 10
-577.3022184136
 20
164.0137553912
 30
0.0
 10
-577.9121660384
 20
164.5042103781
 30
0.0
 10
-578.6082935627
 20
164.868737438
 30
0.0
 10
-579.363471855
 20
165.0932639793
 30
0.0
 10
-579.8877066217
 20
165.1437965749
 30
0.0
 10
-580.1493512429
 20
165.1437964579
 30
0.0
  0
SPLINE
  5
6B1
100
AcDbEntity
  8
0
100
AcDbSpline
 62
9
  6
CONTINUOUS
 70
0
 71
3
 72
17
 73
13
 74
0
 42
0.0000001
 43
0.0000001
 44
0.0000000001
 40
0.0
 40
0.0
 40
0.0
 40
0.0
 40
0.3741274899
 40
0.5434854774
 40
0.6923963745
 40
0.7574468983
 40
0.815435432
 40
0.8658755442
 40
0.9083893822
 40
0.9427567087
 40
0.9689983507
 40
1.0
 40
1.0
 40
1.0
 40
1.0
 10
-580.1493512429
 20
198.3996500042
 30
0.0
 10
-579.6387256709
 20
198.3996552298
 30
0.0
 10
-578.8966582844
 20
198.3814281015
 30
0.0
 10
-577.9538362344
 20
198.3154201349
 30
0.0
 10
-577.4334199312
 20
198.2601514247
 30
0.0
 10
-577.0660273366
 20
198.20683204
 30
0.0
 10
-576.8328752563
 20
198.1657398607
 30
0.0
 10
-576.6312730888
 20
198.1219445981
 30
0.0
 10
-576.4640425606
 20
198.0768117559
 30
0.0
 10
-576.3296357112
 20
198.0285643862
 30
0.0
 10
-576.2214704305
 20
197.9769018563
 30
0.0
 10
-576.1493605101
 20
197.9144898834
 30
0.0
 10
-576.1493512429
 20
197.8721774767
 30
0.0
  0
SPLINE
  5
6B2
100
AcDbEntity
  8
0
100
AcDbSpline
 62
9
  6
CONTINUOUS
 70
0
 71
3
 72
15
 73
11
 74
0
 42
0.0000001
 43
0.0000001
 44
0.0000000001
 40
0.0
 40
0.0
 40
0.0
 40
0.0
 40
0.1264284987
 40
0.2526386568
 40
0.378445447
 40
0.5037258607
 40
0.6284362738
 40
0.7526238955
 40
0.8764143201
 40
1.0
 40
1.0
 40
1.0
 40
1.0
 10
-580.1493512429
 20
246.6005584954
 30
0.0
 10
-579.8877063219
 20
246.6005583729
 30
0.0
 10
-579.3634710281
 20
246.6510910708
 30
0.0
 10
-578.6082922122
 20
246.8756179912
 30
0.0
 10
-577.9121644776
 20
247.240145513
 30
0.0
 10
-577.3022168253
 20
247.730600925
 30
0.0
 10
-576.8017134655
 20
248.3280404398
 30
0.0
 10
-576.4298715533
 20
249.0096333038
 30
0.0
 10
-576.2008990201
 20
249.7488247715
 30
0.0
 10
-576.1493521723
 20
250.2622442673
 30
0.0
 10
-576.1493512429
 20
250.5180059492
 30
0.0
  0
SPLINE
  5
6B3
100
AcDbEntity
  8
0
100
AcDbSpline
 62
9
  6
CONTINUOUS
 70
0
 71
3
 72
19
 73
15
 74
0
 42
0.0000001
 43
0.0000001
 44
0.0000000001
 40
0.0
 40
0.0
 40
0.0
 40
0.0
 40
0.0091889145
 40
0.0161570263
 40
0.0251457512
 40
0.0495863899
 40
0.0827986511
 40
0.1246579078
 40
0.1748326683
 40
0.2983065553
 40
0.4486739301
 40
0.6202244766
 40
0.8063855634
 40
1.0
 40
1.0
 40
1.0
 40
1.0
 10
-642.3253687595
 20
116.1122892904
 30
0.0
 10
-642.3313426076
 20
116.1148348102
 30
0.0
 10
-642.3441990046
 20
116.1110060275
 30
0.0
 10
-642.3578482085
 20
116.1001891629
 30
0.0
 10
-642.3780561525
 20
116.0796891829
 30
0.0
 10
-642.4056355618
 20
116.0414370574
 30
0.0
 10
-642.442242917
 20
115.9813350304
 30
0.0
 10
-642.4840795414
 20
115.9033070171
 30
0.0
 10
-642.551292823
 20
115.7666242095
 30
0.0
 10
-642.6439237486
 20
115.5571375949
 30
0.0
 10
-642.7623171861
 20
115.2654799103
 30
0.0
 10
-642.8895311056
 20
114.9296928837
 30
0.0
 10
-643.0206130147
 20
114.5627780789
 30
0.0
 10
-643.1065872492
 20
114.3085278096
 30
0.0
 10
-643.1493512429
 20
114.178559997
 30
0.0
  0
SPLINE
  5
6B4
100
AcDbEntity
  8
0
100
AcDbSpline
 62
9
  6
CONTINUOUS
 70
0
 71
3
 72
15
 73
11
 74
0
 42
0.0000001
 43
0.0000001
 44
0.0000000001
 40
0.0
 40
0.0
 40
0.0
 40
0.0
 40
0.0320784689
 40
0.0574739942
 40
0.0900243171
 40
0.1770538395
 40
0.2928471668
 40
0.4357274718
 40
0.6032469669
 40
1.0
 40
1.0
 40
1.0
 40
1.0
 10
-643.9787024414
 20
117.8747950045
 30
0.0
 10
-643.9734423143
 20
117.8598731995
 30
0.0
 10
-643.9851396749
 20
117.8292941566
 30
0.0
 10
-644.0097912311
 20
117.7937812851
 30
0.0
 10
-644.057254049
 20
117.7394100601
 30
0.0
 10
-644.143442795
 20
117.6617852962
 30
0.0
 10
-644.27778566
 20
117.5564713312
 30
0.0
 10
-644.4492600294
 20
117.4348535664
 30
0.0
 10
-644.7402402942
 20
117.2424494376
 30
0.0
 10
-644.9783198903
 20
117.0980991791
 30
0.0
 10
-645.1471726798
 20
116.9991941305
 30
0.0
  0
SPLINE
  5
6B5
100
AcDbEntity
  8
0
100
AcDbSpline
 62
9
  6
CONTINUOUS
 70
0
 71
3
 72
13
 73
9
 74
0
 42
0.0000001
 43
0.0000001
 44
0.0000000001
 40
0.0
 40
0.0
 40
0.0
 40
0.0
 40
0.1335070143
 40
0.2277281042
 40
0.3429602198
 40
0.4791619809
 40
0.6352712052
 40
1.0
 40
1.0
 40
1.0
 40
1.0
 10
-644.1493512429
 20
118.8721774767
 30
0.0
 10
-644.1493512429
 20
118.8038167906
 30
0.0
 10
-644.2164425972
 20
118.693108897
 30
0.0
 10
-644.3451694807
 20
118.5768692469
 30
0.0
 10
-644.4917846613
 20
118.4755844852
 30
0.0
 10
-644.6744029022
 20
118.3746721422
 30
0.0
 10
-644.9799828269
 20
118.233203035
 30
0.0
 10
-645.2314016252
 20
118.142692406
 30
0.0
 10
-645.4092182845
 20
118.0856074809
 30
0.0
  0
LINE
  5
6B6
100
AcDbEntity
  8
0
100
AcDbLine
 62
9
  6
CONTINUOUS
 10
-579.1493512429
 20
297.8721774767
 11
-641.1493512429
 21
297.872201973
  0
SPLINE
  5
6B7
100
AcDbEntity
  8
0
100
AcDbSpline
 62
9
  6
CONTINUOUS
 70
0
 71
3
 72
13
 73
9
 74
0
 42
0.0000001
 43
0.0000001
 44
0.0000000001
 40
0.0
 40
0.0
 40
0.0
 40
0.0
 40
0.2966487855
 40
0.5661206922
 40
0.6869145523
 40
0.7980339794
 40
0.9012638156
 40
1.0
 40
1.0
 40
1.0
 40
1.0
 10
-641.2916521193
 20
198.1229809737
 30
0.0
 10
-641.272096088
 20
198.4843532956
 30
0.0
 10
-641.1549054648
 20
199.1724110546
 30
0.0
 10
-640.8000011688
 20
199.9471726262
 30
0.0
 10
-640.4062399976
 20
200.419782345
 30
0.0
 10
-640.0829950045
 20
200.6758218313
 30
0.0
 10
-639.7314536748
 20
200.8355543807
 30
0.0
 10
-639.4837439628
 20
200.8721774768
 30
0.0
 10
-639.3632892913
 20
200.8721774769
 30
0.0
  0
SPLINE
  5
6B8
100
AcDbEntity
  8
0
100
AcDbSpline
 62
9
  6
CONTINUOUS
 70
0
 71
3
 72
9
 73
5
 74
0
 42
0.0000001
 43
0.0000001
 44
0.0000000001
 40
0.0
 40
0.0
 40
0.0
 40
0.0
 40
0.500072959
 40
1.0
 40
1.0
 40
1.0
 40
1.0
 10
-641.1493512429
 20
297.872201973
 30
0.0
 10
-641.4877073045
 20
297.8722018465
 30
0.0
 10
-642.1654076659
 20
297.826294614
 30
0.0
 10
-642.828257721
 20
297.6721759769
 30
0.0
 10
-643.1493512429
 20
297.5657947167
 30
0.0
  0
SPLINE
  5
6B9
100
AcDbEntity
  8
0
100
AcDbSpline
 62
9
  6
CONTINUOUS
 70
0
 71
3
 72
15
 73
11
 74
0
 42
0.0000001
 43
0.0000001
 44
0.0000000001
 40
0.0
 40
0.0
 40
0.0
 40
0.0
 40
0.0314452609
 40
0.0566793922
 40
0.0891336618
 40
0.1761052156
 40
0.2919615575
 40
0.43499023
 40
0.6027193643
 40
1.0
 40
1.0
 40
1.0
 40
1.0
 10
-643.9787024142
 20
293.8695600259
 30
0.0
 10
-643.9735499772
 20
293.8841763371
 30
0.0
 10
-643.985732005
 20
293.9142204
 30
0.0
 10
-644.0103704187
 20
293.9490676241
 30
0.0
 10
-644.0580842544
 20
294.0029851664
 30
0.0
 10
-644.1443756012
 20
294.0802277661
 30
0.0
 10
-644.2787645349
 20
294.1854174916
 30
0.0
 10
-644.4501637178
 20
294.3072103122
 30
0.0
 10
-644.7408992838
 20
294.5003016541
 30
0.0
 10
-644.9786117091
 20
294.6455355903
 30
0.0
 10
-645.1471725327
 20
294.7451608229
 30
0.0
  0
SPLINE
  5
6BA
100
AcDbEntity
  8
0
100
AcDbSpline
 62
9
  6
CONTINUOUS
 70
0
 71
3
 72
13
 73
9
 74
0
 42
0.0000001
 43
0.0000001
 44
0.0000000001
 40
0.0
 40
0.0
 40
0.0
 40
0.0
 40
0.2907347026
 40
0.5612889992
 40
0.6844884193
 40
0.7982183271
 40
0.9028324914
 40
1.0
 40
1.0
 40
1.0
 40
1.0
 10
-645.6493512431
 20
197.8721774767
 30
0.0
 10
-645.6493512431
 20
198.2129421663
 30
0.0
 10
-645.5801552784
 20
198.8727704152
 30
0.0
 10
-645.3177053441
 20
199.6408335713
 30
0.0
 10
-645.0079645645
 20
200.1511848024
 30
0.0
 10
-644.7452161041
 20
200.4561363802
 30
0.0
 10
-644.4519707967
 20
200.6857022531
 30
0.0
 10
-644.2344987727
 20
200.7858475306
 30
0.0
 10
-644.1255666853
 20
200.8190789244
 30
0.0
  0
SPLINE
  5
6BB
100
AcDbEntity
  8
0
100
AcDbSpline
 62
9
  6
CONTINUOUS
 70
0
 71
3
 72
9
 73
5
 74
0
 42
0.0000001
 43
0.0000001
 44
0.0000000001
 40
0.0
 40
0.0
 40
0.0
 40
0.0
 40
0.2529322867
 40
1.0
 40
1.0
 40
1.0
 40
1.0
 10
-644.0999415538
 20
200.826600742
 30
0.0
 10
-644.0732165893
 20
200.8341378805
 30
0.0
 10
-643.9666031041
 20
200.8604307846
 30
0.0
 10
-643.8563659904
 20
200.8721774767
 30
0.0
 10
-643.7743512431
 20
200.8721774767
 30
0.0
  0
SPLINE
  5
6BC
100
AcDbEntity
  8
0
100
AcDbSpline
 62
9
  6
CONTINUOUS
 70
0
 71
3
 72
19
 73
15
 74
0
 42
0.0000001
 43
0.0000001
 44
0.0000000001
 40
0.0
 40
0.0
 40
0.0
 40
0.0
 40
0.0090305996
 40
0.0159561434
 40
0.0249171024
 40
0.0493289352
 40
0.0825321479
 40
0.1243939994
 40
0.1745789897
 40
0.2980882706
 40
0.4485028555
 40
0.6201073757
 40
0.8063261773
 40
1.0
 40
1.0
 40
1.0
 40
1.0
 10
-642.3253688104
 20
295.6320656413
 30
0.0
 10
-642.3312376651
 20
295.6295648601
 30
0.0
 10
-642.3439191986
 20
295.6335725072
 30
0.0
 10
-642.357297859
 20
295.64441465
 30
0.0
 10
-642.3772891258
 20
295.665028282
 30
0.0
 10
-642.4046151543
 20
295.7033646033
 30
0.0
 10
-642.4409952017
 20
295.7635505309
 30
0.0
 10
-642.4826474289
 20
295.8416408855
 30
0.0
 10
-642.5496741056
 20
295.9783933673
 30
0.0
 10
-642.6422279376
 20
296.1878927511
 30
0.0
 10
-642.7607371002
 20
296.4794867421
 30
0.0
 10
-642.8882753884
 20
296.8151337102
 30
0.0
 10
-643.0198808236
 20
297.181842579
 30
0.0
 10
-643.106322474
 20
297.435920958
 30
0.0
 10
-643.1493512429
 20
297.5657947167
 30
0.0
  0
SPLINE
  5
6BD
100
AcDbEntity
  8
0
100
AcDbSpline
 62
9
  6
CONTINUOUS
 70
0
 71
3
 72
13
 73
9
 74
0
 42
0.0000001
 43
0.0000001
 44
0.0000000001
 40
0.0
 40
0.0
 40
0.0
 40
0.0
 40
0.2907347026
 40
0.5612889991
 40
0.6844884193
 40
0.7982183271
 40
0.9028324914
 40
1.0
 40
1.0
 40
1.0
 40
1.0
 10
-645.6493512426
 20
213.8721774767
 30
0.0
 10
-645.6493512426
 20
213.5314127872
 30
0.0
 10
-645.5801552786
 20
212.8715845383
 30
0.0
 10
-645.3177053442
 20
212.1035213824
 30
0.0
 10
-645.0079645647
 20
211.5931701512
 30
0.0
 10
-644.7452161043
 20
211.2882185734
 30
0.0
 10
-644.4519707969
 20
211.0586527004
 30
0.0
 10
-644.2344987729
 20
210.9585074229
 30
0.0
 10
-644.1255666856
 20
210.9252760291
 30
0.0
  0
SPLINE
  5
6BE
100
AcDbEntity
  8
0
100
AcDbSpline
 62
9
  6
CONTINUOUS
 70
0
 71
3
 72
9
 73
5
 74
0
 42
0.0000001
 43
0.0000001
 44
0.0000000001
 40
0.0
 40
0.0
 40
0.0
 40
0.0
 40
0.2529322865
 40
1.0
 40
1.0
 40
1.0
 40
1.0
 10
-644.0999415458
 20
210.9177542091
 30
0.0
 10
-644.0732165819
 20
210.910217071
 30
0.0
 10
-643.9666030992
 20
210.8839241682
 30
0.0
 10
-643.8563659882
 20
210.8721774767
 30
0.0
 10
-643.7743512429
 20
210.8721774767
 30
0.0
  0
SPLINE
  5
6BF
100
AcDbEntity
  8
0
100
AcDbSpline
 62
9
  6
CONTINUOUS
 70
0
 71
3
 72
9
 73
5
 74
0
 42
0.0000001
 43
0.0000001
 44
0.0000000001
 40
0.0
 40
0.0
 40
0.0
 40
0.0
 40
0.5003743843
 40
1.0
 40
1.0
 40
1.0
 40
1.0
 10
-579.1004906104
 20
251.0572428487
 30
0.0
 10
-579.1144251479
 20
251.0935503275
 30
0.0
 10
-579.1393187565
 20
251.1674336406
 30
0.0
 10
-579.149351228
 20
251.2453488472
 30
0.0
 10
-579.1493512429
 20
251.2841802953
 30
0.0
  0
SPLINE
  5
6C0
100
AcDbEntity
  8
0
100
AcDbSpline
 62
9
  6
CONTINUOUS
 70
0
 71
3
 72
13
 73
9
 74
0
 42
0.0000001
 43
0.0000001
 44
0.0000000001
 40
0.0
 40
0.0
 40
0.0
 40
0.0
 40
0.2966487467
 40
0.5661206587
 40
0.6869145348
 40
0.7980339789
 40
0.901263824
 40
1.0
 40
1.0
 40
1.0
 40
1.0
 10
-641.2916499648
 20
213.6213742599
 30
0.0
 10
-641.2720939687
 20
213.2600021544
 30
0.0
 10
-641.154903521
 20
212.5719447549
 30
0.0
 10
-640.7999997375
 20
211.7971834477
 30
0.0
 10
-640.4062390645
 20
211.3245736406
 30
0.0
 10
-640.0829944291
 20
211.0685339448
 30
0.0
 10
-639.7314534392
 20
210.908801053
 30
0.0
 10
-639.4837438958
 20
210.8721776403
 30
0.0
 10
-639.3632892913
 20
210.8721774767
 30
0.0
  0
SPLINE
  5
6C1
100
AcDbEntity
  8
0
100
AcDbSpline
 62
9
  6
CONTINUOUS
 70
0
 71
3
 72
13
 73
9
 74
0
 42
0.0000001
 43
0.0000001
 44
0.0000000001
 40
0.0
 40
0.0
 40
0.0
 40
0.0
 40
0.2962097236
 40
0.5645084469
 40
0.6850584478
 40
0.7963874562
 40
0.9002904222
 40
1.0
 40
1.0
 40
1.0
 40
1.0
 10
-609.5494281762
 20
213.4782380268
 30
0.0
 10
-609.5196527124
 20
213.1315579365
 30
0.0
 10
-609.3881867465
 20
212.4746204314
 30
0.0
 10
-609.027447038
 20
211.7403037695
 30
0.0
 10
-608.6381633002
 20
211.2958684367
 30
0.0
 10
-608.3212026597
 20
211.0556802176
 30
0.0
 10
-607.9785765087
 20
210.9063207704
 30
0.0
 10
-607.7381938054
 20
210.8721774761
 30
0.0
 10
-607.6210653523
 20
210.8721774756
 30
0.0
  0
SPLINE
  5
6C2
100
AcDbEntity
  8
0
100
AcDbSpline
 62
9
  6
CONTINUOUS
 70
0
 71
3
 72
15
 73
11
 74
0
 42
0.0000001
 43
0.0000001
 44
0.0000000001
 40
0.0
 40
0.0
 40
0.0
 40
0.0
 40
0.1249672828
 40
0.2499407843
 40
0.37492496
 40
0.4999450453
 40
0.6249539373
 40
0.7499658132
 40
0.8749938596
 40
1.0
 40
1.0
 40
1.0
 40
1.0
 10
-580.1493512429
 20
249.4755030379
 30
0.0
 10
-580.0568445834
 20
249.4755034309
 30
0.0
 10
-579.870975214
 20
249.4994322919
 30
0.0
 10
-579.6108677069
 20
249.6041170937
 30
0.0
 10
-579.3847219327
 20
249.7698559696
 30
0.0
 10
-579.2046511758
 20
249.9847223424
 30
0.0
 10
-579.0816246205
 20
250.2364370881
 30
0.0
 10
-579.0184114849
 20
250.5093129552
 30
0.0
 10
-579.0210975702
 20
250.7895164614
 30
0.0
 10
-579.0673533765
 20
250.9708441891
 30
0.0
 10
-579.1004906104
 20
251.0572428487
 30
0.0
  0
SPLINE
  5
6C3
100
AcDbEntity
  8
0
100
AcDbSpline
 62
9
  6
CONTINUOUS
 70
0
 71
3
 72
11
 73
7
 74
0
 42
0.0000001
 43
0.0000001
 44
0.0000000001
 40
0.0
 40
0.0
 40
0.0
 40
0.0
 40
0.2502221255
 40
0.5003438214
 40
0.7502849025
 40
1.0
 40
1.0
 40
1.0
 40
1.0
 10
-604.4071273038
 20
165.1437964579
 30
0.0
 10
-604.8729413841
 20
165.1437962713
 30
0.0
 10
-605.8064490954
 20
165.0613503389
 30
0.0
 10
-607.1613446726
 20
164.6943979772
 30
0.0
 10
-608.430427265
 20
164.096860282
 30
0.0
 10
-609.1945665001
 20
163.5567720447
 30
0.0
 10
-609.5494281813
 20
163.2564763803
 30
0.0
  0
SPLINE
  5
6C4
100
AcDbEntity
  8
0
100
AcDbSpline
 62
9
  6
CONTINUOUS
 70
0
 71
3
 72
9
 73
5
 74
0
 42
0.0000001
 43
0.0000001
 44
0.0000000001
 40
0.0
 40
0.0
 40
0.0
 40
0.0
 40
0.4678041939
 40
1.0
 40
1.0
 40
1.0
 40
1.0
 10
-609.5494281813
 20
198.2661169276
 30
0.0
 10
-608.7485791422
 20
198.3128660926
 30
0.0
 10
-607.0346534088
 20
198.3784941159
 30
0.0
 10
-605.3197613895
 20
198.3996529074
 30
0.0
 10
-604.4071273038
 20
198.3996500042
 30
0.0
  0
SPLINE
  5
6C5
100
AcDbEntity
  8
0
100
AcDbSpline
 62
9
  6
CONTINUOUS
 70
0
 71
3
 72
11
 73
7
 74
0
 42
0.0000001
 43
0.0000001
 44
0.0000000001
 40
0.0
 40
0.0
 40
0.0
 40
0.0
 40
0.2497151649
 40
0.4996562505
 40
0.7497779282
 40
1.0
 40
1.0
 40
1.0
 40
1.0
 10
-609.5494281813
 20
248.4878785613
 30
0.0
 10
-609.1945640134
 20
248.1875856372
 30
0.0
 10
-608.4304282992
 20
247.6474929542
 30
0.0
 10
-607.1613439757
 20
247.0499573604
 30
0.0
 10
-605.8064489871
 20
246.6830042736
 30
0.0
 10
-604.8729412867
 20
246.6005587248
 30
0.0
 10
-604.4071273038
 20
246.6005584954
 30
0.0
  0
SPLINE
  5
6C6
100
AcDbEntity
  8
0
100
AcDbSpline
 62
9
  6
CONTINUOUS
 70
0
 71
3
 72
9
 73
5
 74
0
 42
0.0000001
 43
0.0000001
 44
0.0000000001
 40
0.0
 40
0.0
 40
0.0
 40
0.0
 40
0.5321958061
 40
1.0
 40
1.0
 40
1.0
 40
1.0
 10
-604.4071273038
 20
213.3447049492
 30
0.0
 10
-605.3197613895
 20
213.3447020457
 30
0.0
 10
-607.0346534085
 20
213.3658608424
 30
0.0
 10
-608.7485791427
 20
213.4314888526
 30
0.0
 10
-609.5494281813
 20
213.4782380258
 30
0.0
  0
SPLINE
  5
6C7
100
AcDbEntity
  8
0
100
AcDbSpline
 62
9
  6
CONTINUOUS
 70
0
 71
3
 72
11
 73
7
 74
0
 42
0.0000001
 43
0.0000001
 44
0.0000000001
 40
0.0
 40
0.0
 40
0.0
 40
0.0
 40
0.2499922568
 40
0.4999916916
 40
0.7499953028
 40
1.0
 40
1.0
 40
1.0
 40
1.0
 10
-639.572570263
 20
133.5450283907
 30
0.0
 10
-639.8323040116
 20
133.2982288332
 30
0.0
 10
-640.300261539
 20
132.7471140313
 30
0.0
 10
-640.811772659
 20
131.7929825567
 30
0.0
 10
-641.1131957485
 20
130.7532509542
 30
0.0
 10
-641.1655737388
 20
130.0323386723
 30
0.0
 10
-641.1539721462
 20
129.67421883
 30
0.0
  0
SPLINE
  5
6C8
100
AcDbEntity
  8
0
100
AcDbSpline
 62
9
  6
CONTINUOUS
 70
0
 71
3
 72
9
 73
5
 74
0
 42
0.0000001
 43
0.0000001
 44
0.0000000001
 40
0.0
 40
0.0
 40
0.0
 40
0.0
 40
0.4999371973
 40
1.0
 40
1.0
 40
1.0
 40
1.0
 10
-643.1493512429
 20
114.178559997
 30
0.0
 10
-642.8280468532
 20
114.0728402879
 30
0.0
 10
-642.165349855
 20
113.9187717352
 30
0.0
 10
-641.4876863812
 20
113.8721531065
 30
0.0
 10
-641.1493512429
 20
113.8721529764
 30
0.0
  0
LINE
  5
6C9
100
AcDbEntity
  8
0
100
AcDbLine
 62
9
  6
CONTINUOUS
 10
-641.1493512429
 20
113.8721529764
 11
-579.1493512429
 21
113.8721774767
  0
SPLINE
  5
6CA
100
AcDbEntity
  8
0
100
AcDbSpline
 62
9
  6
CONTINUOUS
 70
0
 71
3
 72
10
 73
6
 74
0
 42
0.0000001
 43
0.0000001
 44
0.0000000001
 40
0.0
 40
0.0
 40
0.0
 40
0.0
 40
0.2499999497
 40
0.5000000093
 40
1.0
 40
1.0
 40
1.0
 40
1.0
 10
-607.9388664162
 20
160.7720492025
 30
0.0
 10
-610.5417044209
 20
158.4990712674
 30
0.0
 10
-615.7602068195
 20
153.967795081
 30
0.0
 10
-626.2312096097
 20
144.9446177473
 30
0.0
 10
-634.1107609849
 20
138.2078324593
 30
0.0
 10
-639.3698953948
 20
133.7238275314
 30
0.0
  0
SPLINE
  5
6CB
100
AcDbEntity
  8
0
100
AcDbSpline
 62
9
  6
CONTINUOUS
 70
0
 71
3
 72
11
 73
7
 74
0
 42
0.0000001
 43
0.0000001
 44
0.0000000001
 40
0.0
 40
0.0
 40
0.0
 40
0.0
 40
0.249986353
 40
0.4999790986
 40
0.7499828792
 40
1.0
 40
1.0
 40
1.0
 40
1.0
 10
-604.4071273038
 20
162.2688519154
 30
0.0
 10
-604.7127329907
 20
162.2688520252
 30
0.0
 10
-605.3255277345
 20
162.2103359951
 30
0.0
 10
-606.2103881381
 20
161.9508973083
 30
0.0
 10
-607.0314371655
 20
161.5314287724
 30
0.0
 10
-607.5188656407
 20
161.1560099137
 30
0.0
 10
-607.743252158
 20
160.9484803548
 30
0.0
  0
SPLINE
  5
6CC
100
AcDbEntity
  8
0
100
AcDbSpline
 62
9
  6
CONTINUOUS
 70
0
 71
3
 72
18
 73
14
 74
0
 42
0.0000001
 43
0.0000001
 44
0.0000000001
 40
0.0
 40
0.0
 40
0.0
 40
0.0
 40
0.2211891953
 40
0.4185471354
 40
0.5897315298
 40
0.732782403
 40
0.8460628906
 40
0.9283603823
 40
0.957663703
 40
0.9790629538
 40
0.9868557248
 40
0.9927982091
 40
1.0
 40
1.0
 40
1.0
 40
1.0
 10
-641.2916521204
 20
213.6213739796
 30
0.0
 10
-641.5040142302
 20
213.6290488502
 30
0.0
 10
-641.905808494
 20
213.6450140844
 30
0.0
 10
-642.471712007
 20
213.67262782
 30
0.0
 10
-642.9623289107
 20
213.702218479
 30
0.0
 10
-643.3719176199
 20
213.7331011513
 30
0.0
 10
-643.695697629
 20
213.7650673165
 30
0.0
 10
-643.9099626227
 20
213.7934259142
 30
0.0
 10
-644.0354047776
 20
213.8185089244
 30
0.0
 10
-644.0896262209
 20
213.8329030735
 30
0.0
 10
-644.121303163
 20
213.8456432025
 30
0.0
 10
-644.1384695522
 20
213.8547244985
 30
0.0
 10
-644.149348414
 20
213.8652585771
 30
0.0
 10
-644.1493512429
 20
213.8721774767
 30
0.0
  0
SPLINE
  5
6CD
100
AcDbEntity
  8
0
100
AcDbSpline
 62
9
  6
CONTINUOUS
 70
0
 71
3
 72
11
 73
7
 74
0
 42
0.0000001
 43
0.0000001
 44
0.0000000001
 40
0.0
 40
0.0
 40
0.0
 40
0.0
 40
0.2499269918
 40
0.4998808692
 40
0.7498962803
 40
1.0
 40
1.0
 40
1.0
 40
1.0
 10
-644.1235326026
 20
281.2591183499
 30
0.0
 10
-644.0830420196
 20
280.7545101165
 30
0.0
 10
-643.9062026148
 20
279.7503448897
 30
0.0
 10
-643.3631044925
 20
278.3224598781
 30
0.0
 10
-642.5612367832
 20
277.0216875583
 30
0.0
 10
-641.8716078518
 20
276.2698937068
 30
0.0
 10
-641.4953282737
 20
275.9307105871
 30
0.0
  0
SPLINE
  5
6CE
100
AcDbEntity
  8
0
100
AcDbSpline
 62
9
  6
CONTINUOUS
 70
0
 71
3
 72
18
 73
14
 74
0
 42
0.0000001
 43
0.0000001
 44
0.0000000001
 40
0.0
 40
0.0
 40
0.0
 40
0.0
 40
0.0072017908
 40
0.0131442752
 40
0.0209370462
 40
0.042336297
 40
0.0716396177
 40
0.1539371094
 40
0.267217597
 40
0.4102684702
 40
0.5814528646
 40
0.7788108047
 40
1.0
 40
1.0
 40
1.0
 40
1.0
 10
-644.1493512429
 20
197.8721774767
 30
0.0
 10
-644.1493484141
 20
197.8790963763
 30
0.0
 10
-644.1384695522
 20
197.8896304549
 30
0.0
 10
-644.121303163
 20
197.8987117509
 30
0.0
 10
-644.0896262209
 20
197.91145188
 30
0.0
 10
-644.0354047777
 20
197.925846029
 30
0.0
 10
-643.9099626227
 20
197.9509290391
 30
0.0
 10
-643.695697629
 20
197.979287637
 30
0.0
 10
-643.3719176199
 20
198.0112538019
 30
0.0
 10
-642.9623289107
 20
198.0421364745
 30
0.0
 10
-642.471712007
 20
198.0717271336
 30
0.0
 10
-641.905808494
 20
198.0993408684
 30
0.0
 10
-641.5040142303
 20
198.1153061038
 30
0.0
 10
-641.2916521204
 20
198.1229809738
 30
0.0
  0
SPLINE
  5
6CF
100
AcDbEntity
  8
0
100
AcDbSpline
 62
9
  6
CONTINUOUS
 70
0
 71
3
 72
11
 73
7
 74
0
 42
0.0000001
 43
0.0000001
 44
0.0000000001
 40
0.0
 40
0.0
 40
0.0
 40
0.0
 40
0.2501037163
 40
0.5001191153
 40
0.7500729848
 40
1.0
 40
1.0
 40
1.0
 40
1.0
 10
-641.4953282737
 20
135.8136443663
 30
0.0
 10
-641.87166058
 20
135.4744136603
 30
0.0
 10
-642.5613775808
 20
134.7225037852
 30
0.0
 10
-643.3633069661
 20
133.4215149168
 30
0.0
 10
-643.9063871695
 20
131.9933912823
 30
0.0
 10
-644.0831584071
 20
130.9890668179
 30
0.0
 10
-644.1236010066
 20
130.4843834784
 30
0.0
  0
SPLINE
  5
6D0
100
AcDbEntity
  8
0
100
AcDbSpline
 62
9
  6
CONTINUOUS
 70
0
 71
3
 72
15
 73
11
 74
0
 42
0.0000001
 43
0.0000001
 44
0.0000000001
 40
0.0
 40
0.0
 40
0.0
 40
0.0
 40
0.125006382
 40
0.2500346131
 40
0.3750465783
 40
0.5000554918
 40
0.6250754523
 40
0.7500595886
 40
0.875032936
 40
1.0
 40
1.0
 40
1.0
 40
1.0
 10
-579.1004906104
 20
160.6871121046
 30
0.0
 10
-579.0673188172
 20
160.7734976781
 30
0.0
 10
-579.0211120469
 20
160.9548450162
 30
0.0
 10
-579.0184101501
 20
161.2350408667
 30
0.0
 10
-579.0816241532
 20
161.5079200203
 30
0.0
 10
-579.2046529816
 20
161.7596326089
 30
0.0
 10
-579.3847226398
 20
161.9744997634
 30
0.0
 10
-579.6108685321
 20
162.1402381379
 30
0.0
 10
-579.8709756752
 20
162.2449228068
 30
0.0
 10
-580.0568447593
 20
162.2688514877
 30
0.0
 10
-580.1493512429
 20
162.2688519154
 30
0.0
  0
SPLINE
  5
6D1
100
AcDbEntity
  8
0
100
AcDbSpline
 62
9
  6
CONTINUOUS
 70
0
 71
3
 72
9
 73
5
 74
0
 42
0.0000001
 43
0.0000001
 44
0.0000000001
 40
0.0
 40
0.0
 40
0.0
 40
0.0
 40
0.4996362299
 40
1.0
 40
1.0
 40
1.0
 40
1.0
 10
-579.1493512429
 20
160.4601746581
 30
0.0
 10
-579.1493517562
 20
160.4990068004
 30
0.0
 10
-579.1393146228
 20
160.5769221046
 30
0.0
 10
-579.1144158791
 20
160.6508020937
 30
0.0
 10
-579.1004906104
 20
160.6871121046
 30
0.0
  0
SPLINE
  5
6D2
100
AcDbEntity
  8
0
100
AcDbSpline
 62
9
  6
CONTINUOUS
 70
0
 71
3
 72
13
 73
9
 74
0
 42
0.0000001
 43
0.0000001
 44
0.0000000001
 40
0.0
 40
0.0
 40
0.0
 40
0.0
 40
0.2962096918
 40
0.564508425
 40
0.685058441
 40
0.7963874635
 40
0.9002904343
 40
1.0
 40
1.0
 40
1.0
 40
1.0
 10
-609.5494261502
 20
198.2661165127
 30
0.0
 10
-609.5196507297
 20
198.6127964199
 30
0.0
 10
-609.3881849406
 20
199.2697336289
 30
0.0
 10
-609.0274457184
 20
200.0040500999
 30
0.0
 10
-608.6381624389
 20
200.4484855507
 30
0.0
 10
-608.3212021274
 20
200.6886739792
 30
0.0
 10
-607.9785762881
 20
200.838033748
 30
0.0
 10
-607.7381937411
 20
200.8721773291
 30
0.0
 10
-607.6210653523
 20
200.8721774767
 30
0.0
  0
SPLINE
  5
6D3
100
AcDbEntity
  8
0
100
AcDbSpline
 62
9
  6
CONTINUOUS
 70
0
 71
3
 72
11
 73
7
 74
0
 42
0.0000001
 43
0.0000001
 44
0.0000000001
 40
0.0
 40
0.0
 40
0.0
 40
0.0
 40
0.2500171163
 40
0.5000209104
 40
0.750013656
 40
1.0
 40
1.0
 40
1.0
 40
1.0
 10
-607.7432491626
 20
250.7958722539
 30
0.0
 10
-607.5188646577
 20
250.5883409869
 30
0.0
 10
-607.0314348808
 20
250.2129240501
 30
0.0
 10
-606.2103861191
 20
249.7934578559
 30
0.0
 10
-605.3255268245
 20
249.5340187022
 30
0.0
 10
-604.7127326677
 20
249.4755029323
 30
0.0
 10
-604.4071273038
 20
249.4755030379
 30
0.0
  0
SPLINE
  5
6D4
100
AcDbEntity
  8
0
100
AcDbSpline
 62
9
  6
CONTINUOUS
 70
0
 71
3
 72
10
 73
6
 74
0
 42
0.0000001
 43
0.0000001
 44
0.0000000001
 40
0.0
 40
0.0
 40
0.0
 40
0.0
 40
0.4999999908
 40
0.7500000501
 40
1.0
 40
1.0
 40
1.0
 40
1.0
 10
-639.3698954206
 20
278.0205274438
 30
0.0
 10
-634.1107612199
 20
273.5365222596
 30
0.0
 10
-626.2312095811
 20
266.7997372713
 30
0.0
 10
-615.7602068324
 20
257.7765598716
 30
0.0
 10
-610.5417044105
 20
253.2452837055
 30
0.0
 10
-607.9388664162
 20
250.9723057509
 30
0.0
  0
SPLINE
  5
6D5
100
AcDbEntity
  8
0
100
AcDbSpline
 62
7
  6
CONTINUOUS
 70
0
 71
3
 72
9
 73
5
 74
0
 42
0.0000001
 43
0.0000001
 44
0.0000000001
 40
0.0
 40
0.0
 40
0.0
 40
0.0
 40
0.5195077532
 40
1.0
 40
1.0
 40
1.0
 40
1.0
 10
-907.2739667783
 20
76.92971284
 30
0.0
 10
-907.6833122288
 20
78.4464017861
 30
0.0
 10
-908.3542141354
 20
81.3997014897
 30
0.0
 10
-908.6492244906
 20
84.4243783465
 30
0.0
 10
-908.6493512429
 20
85.8773559672
 30
0.0
  0
SPLINE
  5
6D6
100
AcDbEntity
  8
0
100
AcDbSpline
 62
7
  6
CONTINUOUS
 70
0
 71
3
 72
10
 73
6
 74
0
 42
0.0000001
 43
0.0000001
 44
0.0000000001
 40
0.0
 40
0.0
 40
0.0
 40
0.0
 40
0.4994613513
 40
0.7497499924
 40
1.0
 40
1.0
 40
1.0
 40
1.0
 10
-908.6493512429
 20
407.8905680409
 30
0.0
 10
-908.6493512429
 20
411.9447436051
 30
0.0
 10
-907.8251262595
 20
418.0869478203
 30
0.0
 10
-904.9275746217
 20
425.6960584015
 30
0.0
 10
-902.8566754648
 20
429.2218155205
 30
0.0
 10
-901.6724042522
 20
430.8721774767
 30
0.0
  0
SPLINE
  5
6D7
100
AcDbEntity
  8
0
100
AcDbSpline
 62
9
  6
CONTINUOUS
 70
0
 71
3
 72
13
 73
9
 74
0
 42
0.0000001
 43
0.0000001
 44
0.0000000001
 40
0.0
 40
0.0
 40
0.0
 40
0.0
 40
0.0835316181
 40
0.1755071931
 40
0.2808613346
 40
0.4013920179
 40
0.6835080887
 40
1.0
 40
1.0
 40
1.0
 40
1.0
 10
-908.6493402967
 20
85.8773559667
 30
0.0
 10
-908.6493410188
 20
85.7419906376
 30
0.0
 10
-908.7082593507
 20
85.4556628815
 30
0.0
 10
-908.9509513266
 20
85.0624925833
 30
0.0
 10
-909.3326473108
 20
84.7095753189
 30
0.0
 10
-910.039533008
 20
84.279981772
 30
0.0
 10
-911.164492328
 20
83.9230262492
 30
0.0
 10
-912.1364672276
 20
83.8293976417
 30
0.0
 10
-912.6493512429
 20
83.8293977248
 30
0.0
  0
SPLINE
  5
6D8
100
AcDbEntity
  8
0
100
AcDbSpline
 62
7
  6
CONTINUOUS
 70
0
 71
3
 72
11
 73
7
 74
0
 42
0.0000001
 43
0.0000001
 44
0.0000000001
 40
0.0
 40
0.0
 40
0.0
 40
0.0
 40
0.2709553715
 40
0.5301710465
 40
0.7733182448
 40
1.0
 40
1.0
 40
1.0
 40
1.0
 10
-901.6724042522
 20
430.8721774767
 30
0.0
 10
-900.1040225749
 20
433.0578233198
 30
0.0
 10
-896.7171459798
 20
437.1143599397
 30
0.0
 10
-891.0244414993
 20
442.3006421266
 30
0.0
 10
-885.0193422919
 20
446.3859719831
 30
0.0
 10
-880.7701090634
 20
448.3770374355
 30
0.0
 10
-878.6493512429
 20
449.1303564533
 30
0.0
  0
SPLINE
  5
6D9
100
AcDbEntity
  8
0
100
AcDbSpline
 62
9
  6
CONTINUOUS
 70
0
 71
3
 72
9
 73
5
 74
0
 42
0.0000001
 43
0.0000001
 44
0.0000000001
 40
0.0
 40
0.0
 40
0.0
 40
0.0
 40
0.5197348249
 40
1.0
 40
1.0
 40
1.0
 40
1.0
 10
-911.0905821831
 20
75.8721774767
 30
0.0
 10
-911.5645922015
 20
77.2001028515
 30
0.0
 10
-912.3401744577
 20
79.8097170489
 30
0.0
 10
-912.6489067181
 20
82.5264825476
 30
0.0
 10
-912.6493512429
 20
83.8293949884
 30
0.0
  0
SPLINE
  5
6DA
100
AcDbEntity
  8
0
100
AcDbSpline
 62
7
  6
CONTINUOUS
 70
0
 71
3
 72
11
 73
7
 74
0
 42
0.0000001
 43
0.0000001
 44
0.0000000001
 40
0.0
 40
0.0
 40
0.0
 40
0.0
 40
0.2391175892
 40
0.4823375577
 40
0.7344889139
 40
1.0
 40
1.0
 40
1.0
 40
1.0
 10
-678.6493512429
 20
389.1401789695
 30
0.0
 10
-678.6493512429
 20
386.6831617384
 30
0.0
 10
-679.0649030833
 20
381.7170060216
 30
0.0
 10
-680.9620916059
 20
374.375737684
 30
0.0
 10
-684.1792874608
 20
367.2126162711
 30
0.0
 10
-687.0604986028
 20
362.7216927679
 30
0.0
 10
-688.6493512429
 20
360.5038717807
 30
0.0
  0
SPLINE
  5
6DB
100
AcDbEntity
  8
0
100
AcDbSpline
 62
7
  6
CONTINUOUS
 70
0
 71
3
 72
13
 73
9
 74
0
 42
0.0000001
 43
0.0000001
 44
0.0000000001
 40
0.0
 40
0.0
 40
0.0
 40
0.0
 40
0.2445178519
 40
0.4921708193
 40
0.6175498471
 40
0.7440907624
 40
0.8717231251
 40
1.0
 40
1.0
 40
1.0
 40
1.0
 10
-688.6493512429
 20
360.5038717807
 30
0.0
 10
-689.2472911074
 20
359.6692295067
 30
0.0
 10
-690.5273166194
 20
358.0423881379
 30
0.0
 10
-692.3862441043
 20
356.2157575194
 30
0.0
 10
-694.090836961
 20
354.9856568497
 30
0.0
 10
-695.5003363037
 20
354.2285414208
 30
0.0
 10
-697.0329202112
 20
353.7191397801
 30
0.0
 10
-698.1107206384
 20
353.5955598816
 30
0.0
 10
-698.6493512429
 20
353.5955598816
 30
0.0
  0
SPLINE
  5
6DC
100
AcDbEntity
  8
0
100
AcDbSpline
 62
7
  6
CONTINUOUS
 70
0
 71
3
 72
20
 73
16
 74
0
 42
0.0000001
 43
0.0000001
 44
0.0000000001
 40
0.0
 40
0.0
 40
0.0
 40
0.0
 40
0.0344044047
 40
0.0686426662
 40
0.1025941703
 40
0.1362370565
 40
0.2026984627
 40
0.2683192875
 40
0.3332087234
 40
0.397414731
 40
0.5237775638
 40
0.6473898889
 40
0.768065599
 40
0.8856229308
 40
1.0
 40
1.0
 40
1.0
 40
1.0
 10
-758.6493512429
 20
353.5955598816
 30
0.0
 10
-759.1797836692
 20
353.5955598816
 30
0.0
 10
-760.2411890183
 20
353.7154105678
 30
0.0
 10
-761.7528379551
 20
354.2101639618
 30
0.0
 10
-763.1456552883
 20
354.9478339308
 30
0.0
 10
-764.8329135152
 20
356.1489537021
 30
0.0
 10
-766.6759201798
 20
357.9375342062
 30
0.0
 10
-768.5703853457
 20
360.316740711
 30
0.0
 10
-770.2235049606
 20
362.8265602676
 30
0.0
 10
-772.159188126
 20
366.2591007886
 30
0.0
 10
-774.1822828401
 20
370.6700934779
 30
0.0
 10
-776.0965840048
 20
376.061131536
 30
0.0
 10
-777.515181496
 20
381.463925877
 30
0.0
 10
-778.4208848655
 20
386.8318314254
 30
0.0
 10
-778.6493512429
 20
390.4098362556
 30
0.0
 10
-778.6493512429
 20
392.1732530891
 30
0.0
  0
SPLINE
  5
6DD
100
AcDbEntity
  8
0
100
AcDbSpline
 62
9
  6
CONTINUOUS
 70
0
 71
3
 72
15
 73
11
 74
0
 42
0.0000001
 43
0.0000001
 44
0.0000000001
 40
0.0
 40
0.0
 40
0.0
 40
0.0
 40
0.0114602095
 40
0.0457020268
 40
0.1047717455
 40
0.1926632219
 40
0.3161338507
 40
0.4854556468
 40
0.7130694329
 40
1.0
 40
1.0
 40
1.0
 40
1.0
 10
-896.8822392482
 20
45.0487238325
 30
0.0
 10
-896.9026510562
 20
45.1754002792
 30
0.0
 10
-896.9689021182
 20
45.682872917
 30
0.0
 10
-897.1643550518
 20
46.8397752804
 30
0.0
 10
-897.5597917943
 20
48.830126453
 30
0.0
 10
-898.3080076324
 20
51.765869064
 30
0.0
 10
-899.5956082212
 20
55.8311738819
 30
0.0
 10
-901.6413705569
 20
61.289041105
 30
0.0
 10
-904.4922128352
 20
68.3914775435
 30
0.0
 10
-906.4374020613
 20
73.8280260658
 30
0.0
 10
-907.2739667783
 20
76.92971284
 30
0.0
  0
SPLINE
  5
6DE
100
AcDbEntity
  8
0
100
AcDbSpline
 62
9
  6
CONTINUOUS
 70
0
 71
3
 72
28
 73
24
 74
0
 42
0.0000001
 43
0.0000001
 44
0.0000000001
 40
0.0
 40
0.0
 40
0.0
 40
0.0
 40
0.0001696921
 40
0.0006759284
 40
0.0015187387
 40
0.0026996887
 40
0.0060831301
 40
0.0108405627
 40
0.0169864335
 40
0.0245414244
 40
0.0335398331
 40
0.0440182051
 40
0.0695819939
 40
0.1016836121
 40
0.1409173605
 40
0.1880699861
 40
0.244156232
 40
0.3104490065
 40
0.3884979715
 40
0.4800863358
 40
0.7105288025
 40
0.8498531595
 40
1.0
 40
1.0
 40
1.0
 40
1.0
 10
-899.3132670713
 20
45.8721366426
 30
0.0
 10
-899.314742091
 20
45.8732175316
 30
0.0
 10
-899.3130659712
 20
45.8821606789
 30
0.0
 10
-899.3183366298
 20
45.8966423865
 30
0.0
 10
-899.3210167882
 20
45.9245310988
 30
0.0
 10
-899.3310447156
 20
45.9815066709
 30
0.0
 10
-899.3462957432
 20
46.0811214235
 30
0.0
 10
-899.3717542028
 20
46.2328076228
 30
0.0
 10
-899.4049601329
 20
46.4289901306
 30
0.0
 10
-899.4472957114
 20
46.6698941444
 30
0.0
 10
-899.499821006
 20
46.9564343585
 30
0.0
 10
-899.5914684591
 20
47.4330781973
 30
0.0
 10
-899.7406980795
 20
48.1521574376
 30
0.0
 10
-899.9768991185
 20
49.1694243483
 30
0.0
 10
-900.2989747282
 20
50.405183755
 30
0.0
 10
-900.7307209078
 20
51.8788247844
 30
0.0
 10
-901.3005155255
 20
53.6149714008
 30
0.0
 10
-902.041316616
 20
55.6442539428
 30
0.0
 10
-902.9897204566
 20
58.0036392821
 30
0.0
 10
-904.7147525887
 20
61.9555417381
 30
0.0
 10
-906.8864887412
 20
66.4293662294
 30
0.0
 10
-909.3168602179
 20
71.4763267124
 30
0.0
 10
-910.5463422926
 20
74.3484190389
 30
0.0
 10
-911.0905821831
 20
75.8721774767
 30
0.0
  0
SPLINE
  5
6DF
100
AcDbEntity
  8
0
100
AcDbSpline
 62
9
  6
CONTINUOUS
 70
0
 71
3
 72
13
 73
9
 74
0
 42
0.0000001
 43
0.0000001
 44
0.0000000001
 40
0.0
 40
0.0
 40
0.0
 40
0.0
 40
0.1218681094
 40
0.2442991784
 40
0.3675940589
 40
0.4919905606
 40
0.7437213744
 40
1.0
 40
1.0
 40
1.0
 40
1.0
 10
-658.6493512429
 20
420.8721774858
 30
0.0
 10
-658.6498459577
 20
422.3138219353
 30
0.0
 10
-658.8874638353
 20
425.2092730456
 30
0.0
 10
-659.9478895809
 20
429.4451761882
 30
0.0
 10
-661.6875457494
 20
433.4843848501
 30
0.0
 10
-664.8632335431
 20
438.4914589406
 30
0.0
 10
-670.3189506427
 20
443.7903292971
 30
0.0
 10
-675.7740670078
 20
446.5467242592
 30
0.0
 10
-678.6493514008
 20
447.5078186237
 30
0.0
  0
SPLINE
  5
6E0
100
AcDbEntity
  8
0
100
AcDbSpline
 62
9
  6
CONTINUOUS
 70
0
 71
3
 72
15
 73
11
 74
0
 42
0.0000001
 43
0.0000001
 44
0.0000000001
 40
0.0
 40
0.0
 40
0.0
 40
0.0
 40
0.1250001511
 40
0.249999036
 40
0.3750004763
 40
0.4999999986
 40
0.6249995223
 40
0.7500009611
 40
0.8749998477
 40
1.0
 40
1.0
 40
1.0
 40
1.0
 10
2044.2555525238
 20
278.7968414628
 30
0.0
 10
2044.121358552
 20
279.3611502478
 30
0.0
 10
2043.7754375848
 20
280.473058301
 30
0.0
 10
2043.0296972432
 20
282.0512258042
 30
0.0
 10
2042.0750349525
 20
283.5126167681
 30
0.0
 10
2040.9298956465
 20
284.8302607588
 30
0.0
 10
2039.6122518113
 20
285.9754002201
 30
0.0
 10
2038.1508609571
 20
286.9300627338
 30
0.0
 10
2036.572693394
 20
287.6758028995
 30
0.0
 10
2035.4607854969
 20
288.0217244178
 30
0.0
 10
2034.8964767039
 20
288.155918379
 30
0.0
  0
SPLINE
  5
6E1
100
AcDbEntity
  8
0
100
AcDbSpline
 62
9
  6
CONTINUOUS
 70
0
 71
3
 72
15
 73
11
 74
0
 42
0.0000001
 43
0.0000001
 44
0.0000000001
 40
0.0
 40
0.0
 40
0.0
 40
0.0
 40
0.1250001511
 40
0.2499990362
 40
0.3750004763
 40
0.4999999987
 40
0.6249995225
 40
0.7500009613
 40
0.8749998481
 40
1.0
 40
1.0
 40
1.0
 40
1.0
 10
2034.8964753784
 20
123.5884362937
 30
0.0
 10
2035.4607841537
 20
123.7226302665
 30
0.0
 10
2036.5726921884
 20
124.0685512334
 30
0.0
 10
2038.150859665
 20
124.8142915668
 30
0.0
 10
2039.612250606
 20
125.7689538429
 30
0.0
 10
2040.9298945784
 20
126.9140931282
 30
0.0
 10
2042.0750340276
 20
128.2317369387
 30
0.0
 10
2043.0296965359
 20
129.6931277646
 30
0.0
 10
2043.7754367026
 20
131.2712952956
 30
0.0
 10
2044.121358227
 20
132.3832031701
 30
0.0
 10
2044.2555521924
 20
132.9475119509
 30
0.0
  0
SPLINE
  5
6E2
100
AcDbEntity
  8
0
100
AcDbSpline
 62
9
  6
CONTINUOUS
 70
0
 71
3
 72
15
 73
11
 74
0
 42
0.0000001
 43
0.0000001
 44
0.0000000001
 40
0.0
 40
0.0
 40
0.0
 40
0.0
 40
0.1250001511
 40
0.2499990362
 40
0.3750004763
 40
0.4999999987
 40
0.6249995225
 40
0.7500009613
 40
0.8749998481
 40
1.0
 40
1.0
 40
1.0
 40
1.0
 10
1889.0471472714
 20
288.1559186596
 30
0.0
 10
1888.4828384961
 20
288.0217246868
 30
0.0
 10
1887.3709304614
 20
287.6758037199
 30
0.0
 10
1885.7927629849
 20
286.9300633865
 30
0.0
 10
1884.3313720439
 20
285.9754011104
 30
0.0
 10
1883.0137280714
 20
284.8302618252
 30
0.0
 10
1881.8685886223
 20
283.5126180147
 30
0.0
 10
1880.9139261139
 20
282.0512271887
 30
0.0
 10
1880.1681859472
 20
280.4730596578
 30
0.0
 10
1879.8222644228
 20
279.3611517833
 30
0.0
 10
1879.6880704575
 20
278.7968430025
 30
0.0
  0
SPLINE
  5
6E3
100
AcDbEntity
  8
0
100
AcDbSpline
 62
9
  6
CONTINUOUS
 70
0
 71
3
 72
15
 73
11
 74
0
 42
0.0000001
 43
0.0000001
 44
0.0000000001
 40
0.0
 40
0.0
 40
0.0
 40
0.0
 40
0.1250001511
 40
0.249999036
 40
0.3750004763
 40
0.4999999986
 40
0.6249995223
 40
0.7500009611
 40
0.8749998477
 40
1.0
 40
1.0
 40
1.0
 40
1.0
 10
1879.688070126
 20
132.9475134906
 30
0.0
 10
1879.8222640979
 20
132.3832047056
 30
0.0
 10
1880.168185065
 20
131.2712966524
 30
0.0
 10
1880.9139254066
 20
129.6931291492
 30
0.0
 10
1881.8685876974
 20
128.2317381853
 30
0.0
 10
1883.0137270033
 20
126.9140941946
 30
0.0
 10
1884.3313708385
 20
125.7689547333
 30
0.0
 10
1885.7927616927
 20
124.8142922196
 30
0.0
 10
1887.3709292559
 20
124.0685520539
 30
0.0
 10
1888.4828371529
 20
123.7226305356
 30
0.0
 10
1889.0471459459
 20
123.5884365744
 30
0.0
  0
SPLINE
  5
6E4
100
AcDbEntity
  8
0
100
AcDbSpline
 62
9
  6
CONTINUOUS
 70
0
 71
3
 72
31
 73
27
 74
0
 42
0.0000001
 43
0.0000001
 44
0.0000000001
 40
0.0
 40
0.0
 40
0.0
 40
0.0
 40
0.1413177527
 40
0.2816338947
 40
0.4204372337
 40
0.489081058
 40
0.5570703417
 40
0.6242541114
 40
0.6904198947
 40
0.7552489677
 40
0.8182232581
 40
0.8487521123
 40
0.8784116375
 40
0.9069231283
 40
0.933845366
 40
0.9464972748
 40
0.9584383926
 40
0.9694873245
 40
0.9793893327
 40
0.9878265653
 40
0.991363015
 40
0.9943635864
 40
0.9967689498
 40
0.9985345235
 40
0.9996237131
 40
1.0
 40
1.0
 40
1.0
 40
1.0
 10
2014.4949364871
 20
452.7819922486
 30
0.0
 10
2017.5543565115
 20
451.3742453886
 30
0.0
 10
2023.5660448372
 20
448.3782975039
 30
0.0
 10
2032.2417590551
 20
443.3539404712
 30
0.0
 10
2039.1426864222
 20
438.753524354
 30
0.0
 10
2044.4233106783
 20
434.8531662904
 30
0.0
 10
2048.2353821492
 20
431.8416661388
 30
0.0
 10
2051.9009312368
 20
428.7442163408
 30
0.0
 10
2055.4039541755
 20
425.5751935588
 30
0.0
 10
2058.7221127741
 20
422.3555526436
 30
0.0
 10
2061.3328051458
 20
419.6299130348
 30
0.0
 10
2063.2995176267
 20
417.4509550398
 30
0.0
 10
2064.6837113984
 20
415.8531759819
 30
0.0
 10
2065.9789258045
 20
414.2926386005
 30
0.0
 10
2066.9877406854
 20
413.0216308518
 30
0.0
 10
2067.7344343366
 20
412.0471223007
 30
0.0
 10
2068.243526769
 20
411.3671863545
 30
0.0
 10
2068.7064213964
 20
410.7345837157
 30
0.0
 10
2069.1141092056
 20
410.1651249195
 30
0.0
 10
2069.4136106777
 20
409.7383739366
 30
0.0
 10
2069.6164430498
 20
409.4448307318
 30
0.0
 10
2069.7376737966
 20
409.2694286744
 30
0.0
 10
2069.8326698328
 20
409.1277069492
 30
0.0
 10
2069.9066087216
 20
409.0255596586
 30
0.0
 10
2069.9435822547
 20
408.9590999312
 30
0.0
 10
2069.9696642453
 20
408.9329901036
 30
0.0
 10
2069.9718113249
 20
408.9242836018
 30
0.0
  0
SPLINE
  5
6E5
100
AcDbEntity
  8
0
100
AcDbSpline
 62
7
  6
CONTINUOUS
 70
0
 71
3
 72
11
 73
7
 74
0
 42
0.0000001
 43
0.0000001
 44
0.0000000001
 40
0.0
 40
0.0
 40
0.0
 40
0.0
 40
0.2639168835
 40
0.5225230063
 40
0.7697557291
 40
1.0
 40
1.0
 40
1.0
 40
1.0
 10
1807.9718113249
 20
389.1401789695
 30
0.0
 10
1806.3225776497
 20
386.6966218842
 30
0.0
 10
1803.0660245359
 20
381.8529319552
 30
0.0
 10
1798.3429380517
 20
374.6667214548
 30
0.0
 10
1794.055788906
 20
367.6491514688
 30
0.0
 10
1791.6343151711
 20
362.8805056461
 30
0.0
 10
1790.6513032492
 20
360.5038717807
 30
0.0
  0
SPLINE
  5
6E6
100
AcDbEntity
  8
0
100
AcDbSpline
 62
9
  6
CONTINUOUS
 70
0
 71
3
 72
16
 73
12
 74
0
 42
0.0000001
 43
0.0000001
 44
0.0000000001
 40
0.0
 40
0.0
 40
0.0
 40
0.0
 40
0.0077511322
 40
0.023211427
 40
0.0805044614
 40
0.1724537261
 40
0.2956938953
 40
0.44594206
 40
0.6178117599
 40
0.8051672944
 40
1.0
 40
1.0
 40
1.0
 40
1.0
 10
2013.1350751498
 20
449.1303531404
 30
0.0
 10
2013.1258401469
 20
449.1344821986
 30
0.0
 10
2013.1163576513
 20
449.1695137788
 30
0.0
 10
2013.1266781141
 20
449.2694473341
 30
0.0
 10
2013.1785121276
 20
449.4834223034
 30
0.0
 10
2013.2873774049
 20
449.8192658526
 30
0.0
 10
2013.449104455
 20
450.269181729
 30
0.0
 10
2013.6589757223
 20
450.8108233078
 30
0.0
 10
2013.9095351922
 20
451.426892277
 30
0.0
 10
2014.1914918639
 20
452.092738002
 30
0.0
 10
2014.391552674
 20
452.5496805977
 30
0.0
 10
2014.4949365597
 20
452.7819922486
 30
0.0
  0
SPLINE
  5
6E7
100
AcDbEntity
  8
0
100
AcDbSpline
 62
9
  6
CONTINUOUS
 70
0
 71
3
 72
29
 73
25
 74
0
 42
0.0000001
 43
0.0000001
 44
0.0000000001
 40
0.0
 40
0.0
 40
0.0
 40
0.0
 40
0.1948584697
 40
0.3822867494
 40
0.4709505758
 40
0.5551132744
 40
0.6339465662
 40
0.7066980682
 40
0.7726548367
 40
0.8311867186
 40
0.8817100593
 40
0.9038169701
 40
0.923745169
 40
0.941441405
 40
0.9568664617
 40
0.9699847394
 40
0.9807606383
 40
0.9891627564
 40
0.9924688869
 40
0.9951767233
 40
0.9972850091
 40
0.998792488
 40
0.9996979038
 40
1.0
 40
1.0
 40
1.0
 40
1.0
 10
2002.7987281506
 20
420.8721774767
 30
0.0
 10
2002.9458405308
 20
422.8203216435
 30
0.0
 10
2003.2217261068
 20
426.6432739829
 30
0.0
 10
2003.5677736399
 20
431.3524210784
 30
0.0
 10
2003.8292422064
 20
434.9549336701
 30
0.0
 10
2004.0109951871
 20
437.4715717008
 30
0.0
 10
2004.1811955515
 20
439.8290884003
 30
0.0
 10
2004.3379713935
 20
442.0045628257
 30
0.0
 10
2004.4795567397
 20
443.9770579011
 30
0.0
 10
2004.6048299774
 20
445.7272864462
 30
0.0
 10
2004.698624514
 20
447.038995378
 30
0.0
 10
2004.7647411911
 20
447.9646474847
 30
0.0
 10
2004.8073710258
 20
448.5620058559
 30
0.0
 10
2004.8451819696
 20
449.0925487335
 30
0.0
 10
2004.8781180836
 20
449.5549740259
 30
0.0
 10
2004.9060622294
 20
449.9482362462
 30
0.0
 10
2004.9291181066
 20
450.2711369106
 30
0.0
 10
2004.944914059
 20
450.4962127846
 30
0.0
 10
2004.9554799466
 20
450.6400603856
 30
0.0
 10
2004.9606206376
 20
450.7219757289
 30
0.0
 10
2004.9667839417
 20
450.783445196
 30
0.0
 10
2004.9662474937
 20
450.8326748256
 30
0.0
 10
2004.9747841191
 20
450.8527790166
 30
0.0
 10
2004.9688108841
 20
450.8721565103
 30
0.0
 10
2004.9718396917
 20
450.8721771997
 30
0.0
  0
SPLINE
  5
6E8
100
AcDbEntity
  8
0
100
AcDbSpline
 62
9
  6
CONTINUOUS
 70
0
 71
3
 72
10
 73
6
 74
0
 42
0.0000001
 43
0.0000001
 44
0.0000000001
 40
0.0
 40
0.0
 40
0.0
 40
0.0
 40
0.3937949223
 40
0.6827312056
 40
1.0
 40
1.0
 40
1.0
 40
1.0
 10
1885.114194079
 20
448.8721749218
 30
0.0
 10
1885.3753662492
 20
445.1963683618
 30
0.0
 10
1885.8333758308
 20
438.8239072877
 30
0.0
 10
1886.5128324767
 20
429.4907636332
 30
0.0
 10
1886.9216197648
 20
423.8327234112
 30
0.0
 10
1887.1448944993
 20
420.8721774767
 30
0.0
  0
SPLINE
  5
6E9
100
AcDbEntity
  8
0
100
AcDbSpline
 62
9
  6
CONTINUOUS
 70
0
 71
3
 72
10
 73
6
 74
0
 42
0.0000001
 43
0.0000001
 44
0.0000000001
 40
0.0
 40
0.0
 40
0.0
 40
0.0
 40
0.3209403661
 40
0.6119300881
 40
1.0
 40
1.0
 40
1.0
 40
1.0
 10
1887.1448944958
 20
420.8721774858
 30
0.0
 10
1886.0744055748
 20
423.7119820125
 30
0.0
 10
1884.0382226391
 20
429.1284664385
 30
0.0
 10
1880.7815990676
 20
438.0062549761
 30
0.0
 10
1878.6104153789
 20
444.0494425246
 30
0.0
 10
1877.3832099476
 20
447.5078186237
 30
0.0
  0
SPLINE
  5
6EA
100
AcDbEntity
  8
0
100
AcDbSpline
 62
9
  6
CONTINUOUS
 70
0
 71
3
 72
26
 73
22
 74
0
 42
0.0000001
 43
0.0000001
 44
0.0000000001
 40
0.0
 40
0.0
 40
0.0
 40
0.0
 40
0.0003057725
 40
0.0012150946
 40
0.0027267119
 40
0.0048393687
 40
0.0108627771
 40
0.0192752727
 40
0.0300624051
 40
0.0431925142
 40
0.0586297377
 40
0.0763382139
 40
0.1183968277
 40
0.1689404879
 40
0.2274874439
 40
0.2934526637
 40
0.3662050418
 40
0.4450314998
 40
0.6178238802
 40
0.8052000437
 40
1.0
 40
1.0
 40
1.0
 40
1.0
 10
2013.135043659
 20
449.130370455
 30
0.0
 10
2013.1329936974
 20
449.1280893467
 30
0.0
 10
2013.1313498648
 20
449.1151456524
 30
0.0
 10
2013.1198939676
 20
449.0907626768
 30
0.0
 10
2013.106060874
 20
449.0470990483
 30
0.0
 10
2013.073022778
 20
448.9563407206
 30
0.0
 10
2013.0183011362
 20
448.7994918316
 30
0.0
 10
2012.9336377757
 20
448.5611627813
 30
0.0
 10
2012.8254976911
 20
448.2554327321
 30
0.0
 10
2012.6935714675
 20
447.8834178004
 30
0.0
 10
2012.5383711305
 20
447.445986643
 30
0.0
 10
2012.2859119917
 20
446.7351944193
 30
0.0
 10
2011.9150945066
 20
445.6927714725
 30
0.0
 10
2011.4055418205
 20
444.2649492288
 30
0.0
 10
2010.8133596964
 20
442.6120219654
 30
0.0
 10
2010.1436433146
 20
440.7502575703
 30
0.0
 10
2009.4022533158
 20
438.6981150985
 30
0.0
 10
2008.2915142579
 20
435.6401600764
 30
0.0
 10
2006.7757003929
 20
431.5061919117
 30
0.0
 10
2004.8420030444
 20
426.2865209827
 30
0.0
 10
2003.4877286578
 20
422.7004977077
 30
0.0
 10
2002.7987281547
 20
420.8721774876
 30
0.0
  0
SPLINE
  5
6EB
100
AcDbEntity
  8
0
100
AcDbSpline
 62
9
  6
CONTINUOUS
 70
0
 71
3
 72
15
 73
11
 74
0
 42
0.0000001
 43
0.0000001
 44
0.0000000001
 40
0.0
 40
0.0
 40
0.0
 40
0.0
 40
0.1245016175
 40
0.2490566544
 40
0.3737531405
 40
0.498635623
 40
0.6237284471
 40
0.7490217694
 40
0.8744638449
 40
1.0
 40
1.0
 40
1.0
 40
1.0
 10
1015.3336390749
 20
-344.2297933843
 30
0.0
 10
1015.3336464578
 20
-344.4891223209
 30
0.0
 10
1015.3851743273
 20
-345.009351263
 30
0.0
 10
1015.6142228867
 20
-345.758467901
 30
0.0
 10
1015.9861519859
 20
-346.4491109825
 30
0.0
 10
1016.4867714772
 20
-347.0543571273
 30
0.0
 10
1017.0968082215
 20
-347.551062752
 30
0.0
 10
1017.7929187079
 20
-347.9201046881
 30
0.0
 10
1018.5479535948
 20
-348.1473965259
 30
0.0
 10
1019.0721552625
 20
-348.198524511
 30
0.0
 10
1019.3336390749
 20
-348.1985348793
 30
0.0
  0
SPLINE
  5
6EC
100
AcDbEntity
  8
0
100
AcDbSpline
 62
9
  6
CONTINUOUS
 70
0
 71
3
 72
11
 73
7
 74
0
 42
0.0000001
 43
0.0000001
 44
0.0000000001
 40
0.0
 40
0.0
 40
0.0
 40
0.0
 40
0.1637100438
 40
0.4006069181
 40
0.68777431
 40
1.0
 40
1.0
 40
1.0
 40
1.0
 10
1084.5935060081
 20
-349.1529739604
 30
0.0
 10
1084.6255774486
 20
-348.9852655945
 30
0.0
 10
1084.6852966425
 20
-348.5714195663
 30
0.0
 10
1084.7598350534
 20
-347.8578782004
 30
0.0
 10
1084.8172386606
 20
-346.9873023147
 30
0.0
 10
1084.8336294429
 20
-346.3620995268
 30
0.0
 10
1084.8336295297
 20
-346.0364522889
 30
0.0
  0
SPLINE
  5
6ED
100
AcDbEntity
  8
0
100
AcDbSpline
 62
9
  6
CONTINUOUS
 70
0
 71
3
 72
11
 73
7
 74
0
 42
0.0000001
 43
0.0000001
 44
0.0000000001
 40
0.0
 40
0.0
 40
0.0
 40
0.0
 40
0.3123150576
 40
0.599625108
 40
0.836601476
 40
1.0
 40
1.0
 40
1.0
 40
1.0
 10
1084.8336295307
 20
-434.0364522889
 30
0.0
 10
1084.8336294428
 20
-433.710725449
 30
0.0
 10
1084.8168685783
 20
-433.0853033669
 30
0.0
 10
1084.7585316292
 20
-432.2145111492
 30
0.0
 10
1084.6836435545
 20
-431.501113983
 30
0.0
 10
1084.6244266913
 20
-431.0875174112
 30
0.0
 10
1084.5935061165
 20
-430.9199306724
 30
0.0
  0
SPLINE
  5
6EE
100
AcDbEntity
  8
0
100
AcDbSpline
 62
9
  6
CONTINUOUS
 70
0
 71
3
 72
9
 73
5
 74
0
 42
0.0000001
 43
0.0000001
 44
0.0000000001
 40
0.0
 40
0.0
 40
0.0
 40
0.0
 40
0.4956959773
 40
1.0
 40
1.0
 40
1.0
 40
1.0
 10
1084.5935061165
 20
-430.9199306724
 30
0.0
 10
1084.5842336117
 20
-430.8696736422
 30
0.0
 10
1084.5509226946
 20
-430.7698488935
 30
0.0
 10
1084.4842539126
 20
-430.6881753329
 30
0.0
 10
1084.4457754875
 20
-430.6532088366
 30
0.0
  0
SPLINE
  5
6EF
100
AcDbEntity
  8
0
100
AcDbSpline
 62
9
  6
CONTINUOUS
 70
0
 71
3
 72
9
 73
5
 74
0
 42
0.0000001
 43
0.0000001
 44
0.0000000001
 40
0.0
 40
0.0
 40
0.0
 40
0.0
 40
0.2400483714
 40
1.0
 40
1.0
 40
1.0
 40
1.0
 10
1084.4195608746
 20
-430.6308232687
 30
0.0
 10
1084.4129183543
 20
-430.6254862932
 30
0.0
 10
1084.3847693523
 20
-430.6038492123
 30
0.0
 10
1084.3548386978
 20
-430.5845721805
 30
0.0
 10
1084.3314687297
 20
-430.5710985307
 30
0.0
  0
SPLINE
  5
6F0
100
AcDbEntity
  8
0
100
AcDbSpline
 62
9
  6
CONTINUOUS
 70
0
 71
3
 72
9
 73
5
 74
0
 42
0.0000001
 43
0.0000001
 44
0.0000000001
 40
0.0
 40
0.0
 40
0.0
 40
0.0
 40
0.2616297948
 40
1.0
 40
1.0
 40
1.0
 40
1.0
 10
1084.3315508125
 20
-349.5017587171
 30
0.0
 10
1084.3398156822
 20
-349.4969924549
 30
0.0
 10
1084.3710866816
 20
-349.4782348532
 30
0.0
 10
1084.4010226676
 20
-349.4571950719
 30
0.0
 10
1084.4219358997
 20
-349.4402353059
 30
0.0
  0
SPLINE
  5
6F1
100
AcDbEntity
  8
0
100
AcDbSpline
 62
9
  6
CONTINUOUS
 70
0
 71
3
 72
9
 73
5
 74
0
 42
0.0000001
 43
0.0000001
 44
0.0000000001
 40
0.0
 40
0.0
 40
0.0
 40
0.0
 40
0.5029782956
 40
1.0
 40
1.0
 40
1.0
 40
1.0
 10
1084.4462630396
 20
-349.419343465
 30
0.0
 10
1084.4845284202
 20
-349.3845024906
 30
0.0
 10
1084.550842256
 20
-349.302776063
 30
0.0
 10
1084.5839009489
 20
-349.2032016317
 30
0.0
 10
1084.5935060081
 20
-349.1529739604
 30
0.0
  0
SPLINE
  5
6F2
100
AcDbEntity
  8
0
100
AcDbSpline
 62
9
  6
CONTINUOUS
 70
0
 71
3
 72
11
 73
7
 74
0
 42
0.0000001
 43
0.0000001
 44
0.0000000001
 40
0.0
 40
0.0
 40
0.0
 40
0.0
 40
0.2499364461
 40
0.4999140573
 40
0.7499420178
 40
1.0
 40
1.0
 40
1.0
 40
1.0
 10
1019.3336390749
 20
-434.8276344568
 30
0.0
 10
1019.2026075708
 20
-434.8276444787
 30
0.0
 10
1018.9375526709
 20
-434.8814384682
 30
0.0
 10
1018.605141725
 20
-435.1097124859
 30
0.0
 10
1018.3848171947
 20
-435.4470784742
 30
0.0
 10
1018.3336486785
 20
-435.7120159729
 30
0.0
 10
1018.3336390749
 20
-435.8431111935
 30
0.0
  0
SPLINE
  5
6F3
100
AcDbEntity
  8
0
100
AcDbSpline
 62
9
  6
CONTINUOUS
 70
0
 71
3
 72
11
 73
7
 74
0
 42
0.0000001
 43
0.0000001
 44
0.0000000001
 40
0.0
 40
0.0
 40
0.0
 40
0.0
 40
0.2500083417
 40
0.5000052994
 40
0.7499996279
 40
1.0
 40
1.0
 40
1.0
 40
1.0
 10
1046.8053531843
 20
-436.0154492162
 30
0.0
 10
1046.5836712874
 20
-435.8266535553
 30
0.0
 10
1046.1063724484
 20
-435.4869466806
 30
0.0
 10
1045.3131800481
 20
-435.1107367382
 30
0.0
 10
1044.4662356486
 20
-434.8795802941
 30
0.0
 10
1043.882587352
 20
-434.8276441671
 30
0.0
 10
1043.5914151358
 20
-434.8276344568
 30
0.0
  0
SPLINE
  5
6F4
100
AcDbEntity
  8
0
100
AcDbSpline
 62
9
  6
CONTINUOUS
 70
0
 71
3
 72
11
 73
7
 74
0
 42
0.0000001
 43
0.0000001
 44
0.0000000001
 40
0.0
 40
0.0
 40
0.0
 40
0.0
 40
0.2500043589
 40
0.5000039987
 40
0.7500015826
 40
1.0
 40
1.0
 40
1.0
 40
1.0
 10
1080.3336390749
 20
-466.7553613562
 30
0.0
 10
1080.3336259178
 20
-466.3908449496
 30
0.0
 10
1080.2541926399
 20
-465.6593751046
 30
0.0
 10
1079.9019614063
 20
-464.6153419427
 30
0.0
 10
1079.3333443981
 20
-463.6715152234
 30
0.0
 10
1078.8261049288
 20
-463.1384109329
 30
0.0
 10
1078.5475771233
 20
-462.9032765947
 30
0.0
  0
SPLINE
  5
6F5
100
AcDbEntity
  8
0
100
AcDbSpline
 62
9
  6
CONTINUOUS
 70
0
 71
3
 72
11
 73
7
 74
0
 42
0.0000001
 43
0.0000001
 44
0.0000000001
 40
0.0
 40
0.0
 40
0.0
 40
0.0
 40
0.2500003721
 40
0.4999947006
 40
0.7499916583
 40
1.0
 40
1.0
 40
1.0
 40
1.0
 10
1043.5914151358
 20
-345.245270121
 30
0.0
 10
1043.882587352
 20
-345.2452604106
 30
0.0
 10
1044.4662356486
 20
-345.1933242837
 30
0.0
 10
1045.3131800482
 20
-344.9621678397
 30
0.0
 10
1046.106372448
 20
-344.5859578966
 30
0.0
 10
1046.5836712883
 20
-344.2462510235
 30
0.0
 10
1046.8053531843
 20
-344.0574553615
 30
0.0
  0
SPLINE
  5
6F6
100
AcDbEntity
  8
0
100
AcDbSpline
 62
9
  6
CONTINUOUS
 70
0
 71
3
 72
11
 73
7
 74
0
 42
0.0000001
 43
0.0000001
 44
0.0000000001
 40
0.0
 40
0.0
 40
0.0
 40
0.0
 40
0.2500579822
 40
0.5000859427
 40
0.7500635539
 40
1.0
 40
1.0
 40
1.0
 40
1.0
 10
1018.3336390749
 20
-344.2297933843
 30
0.0
 10
1018.3336486785
 20
-344.3608886048
 30
0.0
 10
1018.3848171947
 20
-344.6258261036
 30
0.0
 10
1018.605141725
 20
-344.9631920919
 30
0.0
 10
1018.9375526709
 20
-345.1914661095
 30
0.0
 10
1019.2026075708
 20
-345.2452600992
 30
0.0
 10
1019.3336390749
 20
-345.245270121
 30
0.0
  0
LINE
  5
6F7
100
AcDbEntity
  8
0
100
AcDbLine
 62
9
  6
CONTINUOUS
 10
1084.8336390783
 20
-475.7869366276
 11
1084.8336390782
 21
-460.0364522889
  0
LINE
  5
6F8
100
AcDbEntity
  8
0
100
AcDbLine
 62
9
  6
CONTINUOUS
 10
1084.8336399664
 20
-309.851093707
 11
1084.8336390782
 21
-304.2859679499
  0
SPLINE
  5
6F9
100
AcDbEntity
  8
0
100
AcDbSpline
 62
9
  6
CONTINUOUS
 70
0
 71
3
 72
15
 73
11
 74
0
 42
0.0000001
 43
0.0000001
 44
0.0000000001
 40
0.0
 40
0.0
 40
0.0
 40
0.0
 40
0.1255361551
 40
0.2509782306
 40
0.3762715529
 40
0.501364377
 40
0.6262468595
 40
0.7509433456
 40
0.8754983825
 40
1.0
 40
1.0
 40
1.0
 40
1.0
 10
1019.3336390749
 20
-431.8743696985
 30
0.0
 10
1019.0721552625
 20
-431.874380067
 30
0.0
 10
1018.5479535948
 20
-431.9255080518
 30
0.0
 10
1017.7929187079
 20
-432.1527998897
 30
0.0
 10
1017.0968082215
 20
-432.5218418258
 30
0.0
 10
1016.4867714772
 20
-433.0185474505
 30
0.0
 10
1015.9861519858
 20
-433.6237935952
 30
0.0
 10
1015.6142228868
 20
-434.3144366768
 30
0.0
 10
1015.385174327
 20
-435.0635533147
 30
0.0
 10
1015.3336464581
 20
-435.5837822568
 30
0.0
 10
1015.3336390749
 20
-435.8431111935
 30
0.0
  0
SPLINE
  5
6FA
100
AcDbEntity
  8
0
100
AcDbSpline
 62
7
  6
CONTINUOUS
 70
0
 71
3
 72
13
 73
9
 74
0
 42
0.0000001
 43
0.0000001
 44
0.0000000001
 40
0.0
 40
0.0
 40
0.0
 40
0.0
 40
0.2909652384
 40
0.5600749357
 40
0.6839142598
 40
0.7991055414
 40
0.9046508632
 40
1.0
 40
1.0
 40
1.0
 40
1.0
 10
1317.8336390749
 20
-441.199717595
 30
0.0
 10
1319.8276432286
 20
-442.783908303
 30
0.0
 10
1323.7518483819
 20
-445.7271570058
 30
0.0
 10
1328.8218176797
 20
-448.9322650328
 30
0.0
 10
1332.7947608422
 20
-450.9392523378
 30
0.0
 10
1335.5943299245
 20
-452.0740371896
 30
0.0
 10
1338.263139613
 20
-452.826165491
 30
0.0
 10
1340.0221379475
 20
-453.0364522889
 30
0.0
 10
1340.8566920842
 20
-453.0364522889
 30
0.0
  0
SPLINE
  5
6FB
100
AcDbEntity
  8
0
100
AcDbSpline
 62
9
  6
CONTINUOUS
 70
0
 71
3
 72
19
 73
15
 74
0
 42
0.0000001
 43
0.0000001
 44
0.0000000001
 40
0.0
 40
0.0
 40
0.0
 40
0.0
 40
0.008631091
 40
0.01552709
 40
0.0245162041
 40
0.0356951936
 40
0.0490845211
 40
0.0824525773
 40
0.1747160554
 40
0.2983189467
 40
0.4487256811
 40
0.6202700193
 40
0.8064097498
 40
1.0
 40
1.0
 40
1.0
 40
1.0
 10
1097.8336390749
 20
-430.8633691145
 30
0.0
 10
1097.834043828
 20
-430.950469741
 30
0.0
 10
1097.9620513102
 20
-431.0852971292
 30
0.0
 10
1098.1733350869
 20
-431.1996282525
 30
0.0
 10
1098.4285715307
 20
-431.3049725057
 30
0.0
 10
1098.7507730266
 20
-431.4069721278
 30
0.0
 10
1099.3170720477
 20
-431.554778408
 30
0.0
 10
1100.694606184
 20
-431.8240821921
 30
0.0
 10
1103.1927662641
 20
-432.1338609973
 30
0.0
 10
1106.8759588778
 20
-432.4457506379
 30
0.0
 10
1111.3656524256
 20
-432.7010811226
 30
0.0
 10
1116.4897167112
 20
-432.8925607061
 30
0.0
 10
1122.0519440824
 20
-433.0100885948
 30
0.0
 10
1125.8840790223
 20
-433.0364626495
 30
0.0
 10
1127.8377154957
 20
-433.0364806557
 30
0.0
  0
SPLINE
  5
6FC
100
AcDbEntity
  8
0
100
AcDbSpline
 62
9
  6
CONTINUOUS
 70
0
 71
3
 72
17
 73
13
 74
0
 42
0.0000001
 43
0.0000001
 44
0.0000000001
 40
0.0
 40
0.0
 40
0.0
 40
0.0
 40
0.1744338862
 40
0.3428851642
 40
0.4997237131
 40
0.6400537482
 40
0.7601531044
 40
0.8581709077
 40
0.8992368943
 40
0.9357396998
 40
0.9688276465
 40
1.0
 40
1.0
 40
1.0
 40
1.0
 10
1127.83813512
 20
-441.1996849858
 30
0.0
 10
1125.8831703783
 20
-441.1995762282
 30
0.0
 10
1122.0390364618
 20
-441.0756144082
 30
0.0
 10
1116.4616636698
 20
-440.5182018381
 30
0.0
 10
1111.3170597608
 20
-439.6116218497
 30
0.0
 10
1106.7947798381
 20
-438.3855252647
 30
0.0
 10
1103.0587316659
 20
-436.8837368625
 30
0.0
 10
1100.5579213428
 20
-435.3528856717
 30
0.0
 10
1099.127484181
 20
-433.9903041321
 30
0.0
 10
1098.3896342189
 20
-432.9829639404
 30
0.0
 10
1097.9379791896
 20
-431.9361433935
 30
0.0
 10
1097.8339857379
 20
-431.2127325557
 30
0.0
 10
1097.8336390749
 20
-430.8633691187
 30
0.0
  0
SPLINE
  5
6FD
100
AcDbEntity
  8
0
100
AcDbSpline
 62
9
  6
CONTINUOUS
 70
0
 71
3
 72
13
 73
9
 74
0
 42
0.0000001
 43
0.0000001
 44
0.0000000001
 40
0.0
 40
0.0
 40
0.0
 40
0.0
 40
0.3340403154
 40
0.6251384297
 40
0.7451524933
 40
0.8458542512
 40
0.9287516304
 40
1.0
 40
1.0
 40
1.0
 40
1.0
 10
1201.5006035895
 20
-441.1997146256
 30
0.0
 10
1201.0005977018
 20
-441.1712296807
 30
0.0
 10
1200.0599676437
 20
-441.1881479516
 30
0.0
 10
1198.9520890506
 20
-441.3953410947
 30
0.0
 10
1198.2395738999
 20
-441.6878133777
 30
0.0
 10
1197.8536378311
 20
-441.9358372974
 30
0.0
 10
1197.5940720994
 20
-442.2251538493
 30
0.0
 10
1197.5172018268
 20
-442.4530056386
 30
0.0
 10
1197.5099174175
 20
-442.5595775174
 30
0.0
  0
SPLINE
  5
6FE
100
AcDbEntity
  8
0
100
AcDbSpline
 62
9
  6
CONTINUOUS
 70
0
 71
3
 72
13
 73
9
 74
0
 42
0.0000001
 43
0.0000001
 44
0.0000000001
 40
0.0
 40
0.0
 40
0.0
 40
0.0
 40
0.3340401965
 40
0.625138251
 40
0.7451523324
 40
0.8458541422
 40
0.9287515903
 40
1.0
 40
1.0
 40
1.0
 40
1.0
 10
1134.1666745603
 20
-441.1997161138
 30
0.0
 10
1134.6666800737
 20
-441.1712312442
 30
0.0
 10
1135.607309483
 20
-441.1881495244
 30
0.0
 10
1136.7151873924
 20
-441.3953424195
 30
0.0
 10
1137.4277023846
 20
-441.6878142908
 30
0.0
 10
1137.8136386589
 20
-441.9358379126
 30
0.0
 10
1138.0732048783
 20
-442.2251540774
 30
0.0
 10
1138.1500758571
 20
-442.4530056531
 30
0.0
 10
1138.1573606406
 20
-442.5595775236
 30
0.0
  0
SPLINE
  5
6FF
100
AcDbEntity
  8
0
100
AcDbSpline
 62
9
  6
CONTINUOUS
 70
0
 71
3
 72
12
 73
8
 74
0
 42
0.0000001
 43
0.0000001
 44
0.0000000001
 40
0.0
 40
0.0
 40
0.0
 40
0.0
 40
0.2500374067
 40
0.5000440188
 40
0.7499712566
 40
0.8749980168
 40
1.0
 40
1.0
 40
1.0
 40
1.0
 10
1201.8336390749
 20
-433.0364522889
 30
0.0
 10
1201.8336664872
 20
-428.2533687978
 30
0.0
 10
1201.3631963209
 20
-418.6799724023
 30
0.0
 10
1199.177647515
 20
-404.4761720457
 30
0.0
 10
1195.9273295545
 20
-392.9226296717
 30
0.0
 10
1192.2045640658
 20
-384.1007895104
 30
0.0
 10
1189.8823822898
 20
-379.9025435781
 30
0.0
 10
1188.58098581
 20
-377.8964754418
 30
0.0
  0
SPLINE
  5
700
100
AcDbEntity
  8
0
100
AcDbSpline
 62
9
  6
CONTINUOUS
 70
0
 71
3
 72
17
 73
13
 74
0
 42
0.0000001
 43
0.0000001
 44
0.0000000001
 40
0.0
 40
0.0
 40
0.0
 40
0.0
 40
0.1318632043
 40
0.2598043028
 40
0.3837695253
 40
0.5040353817
 40
0.6214978122
 40
0.738425556
 40
0.7983821678
 40
0.8609680101
 40
0.9280451425
 40
1.0
 40
1.0
 40
1.0
 40
1.0
 10
1134.1666745603
 20
-441.199717595
 30
0.0
 10
1134.3887370929
 20
-444.3724706248
 30
0.0
 10
1135.046867711
 20
-450.6107784836
 30
0.0
 10
1136.7048375261
 20
-459.7266545277
 30
0.0
 10
1139.0330217346
 20
-468.4078746297
 30
0.0
 10
1142.0898782838
 20
-476.5964772614
 30
0.0
 10
1146.0118110376
 20
-484.2232284423
 30
0.0
 10
1150.243829167
 20
-489.9871130154
 30
0.0
 10
1154.4411627409
 20
-493.978852981
 30
0.0
 10
1158.2193742521
 20
-496.5979515682
 30
0.0
 10
1162.7265648596
 20
-498.5291621865
 30
0.0
 10
1166.0981024748
 20
-499.0176260393
 30
0.0
 10
1167.8336390749
 20
-499.0189084292
 30
0.0
  0
SPLINE
  5
701
100
AcDbEntity
  8
0
100
AcDbSpline
 62
9
  6
CONTINUOUS
 70
0
 71
3
 72
17
 73
13
 74
0
 42
0.0000001
 43
0.0000001
 44
0.0000000001
 40
0.0
 40
0.0
 40
0.0
 40
0.0
 40
0.0719468131
 40
0.1390569049
 40
0.2016612002
 40
0.261623832
 40
0.3785497061
 40
0.4960026604
 40
0.6162572253
 40
0.7402118258
 40
0.8681437188
 40
1.0
 40
1.0
 40
1.0
 40
1.0
 10
1167.8336390749
 20
-499.0189084292
 30
0.0
 10
1169.5689838684
 20
-499.0177222694
 30
0.0
 10
1172.9411189986
 20
-498.5290976252
 30
0.0
 10
1177.4492947134
 20
-496.5974324919
 30
0.0
 10
1181.228446947
 20
-493.9772071478
 30
0.0
 10
1185.4257396129
 20
-489.9846248637
 30
0.0
 10
1189.657208814
 20
-484.2205046166
 30
0.0
 10
1193.5784093197
 20
-476.5939956593
 30
0.0
 10
1196.6348970651
 20
-468.4060611508
 30
0.0
 10
1198.9626701345
 20
-459.7254944926
 30
0.0
 10
1200.6204549216
 20
-450.6102360956
 30
0.0
 10
1201.2785686884
 20
-444.3723091252
 30
0.0
 10
1201.5006035895
 20
-441.199717595
 30
0.0
  0
SPLINE
  5
702
100
AcDbEntity
  8
0
100
AcDbSpline
 62
9
  6
CONTINUOUS
 70
0
 71
3
 72
12
 73
8
 74
0
 42
0.0000001
 43
0.0000001
 44
0.0000000001
 40
0.0
 40
0.0
 40
0.0
 40
0.0
 40
0.1250008834
 40
0.250025712
 40
0.4999514854
 40
0.7499605238
 40
1.0
 40
1.0
 40
1.0
 40
1.0
 10
1147.0878605964
 20
-377.894055077
 30
0.0
 10
1145.7863278109
 20
-379.9001525499
 30
0.0
 10
1143.4638197695
 20
-384.0984271778
 30
0.0
 10
1139.7406480407
 20
-392.920530544
 30
0.0
 10
1136.4899273196
 20
-404.4745704738
 30
0.0
 10
1134.3041496472
 20
-418.6791275698
 30
0.0
 10
1133.833601857
 20
-428.2530895043
 30
0.0
 10
1133.8336390749
 20
-433.0364522889
 30
0.0
  0
SPLINE
  5
703
100
AcDbEntity
  8
0
100
AcDbSpline
 62
7
  6
CONTINUOUS
 70
0
 71
3
 72
13
 73
9
 74
0
 42
0.0000001
 43
0.0000001
 44
0.0000000001
 40
0.0
 40
0.0
 40
0.0
 40
0.0
 40
0.0953523533
 40
0.2009013063
 40
0.3160922985
 40
0.4399301091
 40
0.7090356135
 40
1.0
 40
1.0
 40
1.0
 40
1.0
 10
1340.8566920842
 20
-293.0364522889
 30
0.0
 10
1340.022109798
 20
-293.0364522889
 30
0.0
 10
1338.2630531691
 20
-293.2467618854
 30
0.0
 10
1335.59418774
 20
-293.9989031634
 30
0.0
 10
1332.7946140503
 20
-295.1337211826
 30
0.0
 10
1328.8217267158
 20
-297.1407003883
 30
0.0
 10
1323.7518063006
 20
-300.3457773561
 30
0.0
 10
1319.8276373823
 20
-303.2890009196
 30
0.0
 10
1317.8336390749
 20
-304.8731869828
 30
0.0
  0
ELLIPSE
  5
704
100
AcDbEntity
  8
02___PRT_ALL_AXES
100
AcDbEllipse
 62
7
  6
CONTINUOUS
 10
189.0298592056
 20
75.8721774767
 30
0.0
 11
65.0
 21
0.0
 31
0.0
 40
0.4615384615
 41
0.0
 42
6.2831853072
  0
ELLIPSE
  5
705
100
AcDbEntity
  8
02___PRT_ALL_AXES
100
AcDbEllipse
 62
7
  6
CONTINUOUS
 10
1167.8336390749
 20
-433.0364522889
 30
0.0
 11
0.0
 21
65.0
 31
0.0
 40
0.4615384615
 41
0.5820536312
 42
5.701131669
  0
ENDSEC
  0
SECTION
  2
OBJECTS
  0
DICTIONARY
  5
C
100
AcDbDictionary
280
0
281
1
  3
ACAD_GROUP
350
D
  3
ACAD_MLINESTYLE
350
17
  3
ACAD_LAYOUT
350
1A
  3
ACAD_PLOTSETTINGS
350
19
  3
ACAD_PLOTSTYLENAME
350
E
  0
DICTIONARY
  5
D
102
{ACAD_REACTORS
330
C
102
}
100
AcDbDictionary
280
0
281
1
  0
ACDBDICTIONARYWDFLT
  5
E
102
{ACAD_REACTORS
330
C
102
}
100
AcDbDictionary
281
1
  3
Normal
350
F
100
AcDbDictionaryWithDefault
340
F
  0
DICTIONARY
  5
17
102
{ACAD_REACTORS
330
C
102
}
100
AcDbDictionary
280
0
281
1
  3
Standard
350
18
  0
DICTIONARY
  5
19
102
{ACAD_REACTORS
330
C
102
}
100
AcDbDictionary
281
1
  0
DICTIONARY
  5
1A
102
{ACAD_REACTORS
330
C
102
}
100
AcDbDictionary
281
1
  3
Model
350
706
  3
Layout1
350
707
  0
ACDBPLACEHOLDER
  5
F
102
{ACAD_REACTORS
330
E
102
}
  0
MLINESTYLE
  5
18
102
{ACAD_REACTORS
330
17
102
}
100
AcDbMlineStyle
  2
STANDARD
 70
0
  3

 62
256
 51
90.0
 52
90.0
 71
2
 49
0.5
 62
256
  6
BYLAYER
 49
-0.5
 62
256
  6
BYLAYER
  0
LAYOUT
  5
706
102
{ACAD_REACTORS
330
1A
102
}
100
AcDbPlotSettings
  1

  2
none_device
  4

  6

 40
0.0
 41
0.0
 42
0.0
 43
0.0
 44
210.0
 45
297.0
 46
0.0
 47
0.0
 48
0.0
 49
0.0
140
0.0
141
0.0
142
1.0
143
1.0
 70
1024
 72
1
 73
0
 74
0
  7

 75
0
147
1.0
148
0.0
149
0.0
100
AcDbLayout
  1
Model
 70
0
 71
0
 10
0.0
 20
0.0
 11
210.0
 21
297.0
 12
0.0
 22
0.0
 32
0.0
 14
0.0
 24
0.0
 34
0.0
 15
0.0
 25
0.0
 35
0.0
146
0.0
 13
0.0
 23
0.0
 33
0.0
 16
1.0
 26
0.0
 36
0.0
 17
0.0
 27
1.0
 37
0.0
 76
0
330
21A
345
0
346
0
  0
LAYOUT
  5
707
102
{ACAD_REACTORS
330
1A
102
}
100
AcDbPlotSettings
  1

  2
none_device
  4

  6

 40
0.0
 41
0.0
 42
0.0
 43
0.0
 44
210.0
 45
297.0
 46
0.0
 47
0.0
 48
0.0
 49
0.0
140
0.0
141
0.0
142
1.0
143
1.0
 70
0
 72
1
 73
0
 74
0
  7

 75
0
147
1.0
148
0.0
149
0.0
100
AcDbLayout
  1
Layout1
 70
0
 71
1
 10
0.0
 20
0.0
 11
210.0
 21
297.0
 12
0.0
 22
0.0
 32
0.0
 14
0.0
 24
0.0
 34
0.0
 15
0.0
 25
0.0
 35
0.0
146
0.0
 13
0.0
 23
0.0
 33
0.0
 16
1.0
 26
0.0
 36
0.0
 17
0.0
 27
1.0
 37
0.0
 76
0
330
21B
345
0
346
0
  0
ENDSEC
  0
EOF
