999
DXF file: s105_t_2.dxf
999
Pro/ENGINEER 2011370 by Parametric Technology Corporation
  0
SECTION
  2
HEADER
  9
$ACADVER
  1
AC1015
  9
$DWGCODEPAGE
  3
ANSI_1252
  9
$EXTMAX
 10
210.0
 20
297.0
 30
0.0
  9
$EXTMIN
 10
0.0
 20
0.0
 30
0.0
  9
$LIMMIN
 10
0.0
 20
0.0
  9
$LIMMAX
 10
210.0
 20
297.0
  9
$VIEWCTR
 10
105.0
 20
148.5
  9
$VIEWSIZE
 40
297.0
  9
$CLAYER
  8
0
  9
$LTSCALE
 40
19.36
  9
$CELTYPE
  6
BYLAYER
  9
$DIMSCALE
 40
1.0
  9
$DIMASZ
 40
2.0
  9
$DIMEXO
 40
2.2
  9
$DIMDLI
 40
13.376
  9
$DIMEXE
 40
6.336
  9
$DIMCEN
 40
3.168
  9
$DIMLFAC
 40
1.0
  9
$DIMBLK
  1
_FILLED
  9
$DIMTXT
 40
2.0
  9
$DIMTOL
 70
0
  9
$DIMLIM
 70
0
  9
$DIMTFAC
 40
1.0
  9
$PDMODE
 70
3
  9
$PDSIZE
 40
0.3125
  9
$HANDSEED
  5
6B2
  9
$TILEMODE
 70
1
  9
$MEASUREMENT
 70
1
  9
$INSUNITS
 70
4
  0
ENDSEC
  0
SECTION
  2
CLASSES
  0
CLASS
  1
ACDBDICTIONARYWDFLT
  2
AcDbDictionaryWithDefault
  3
AutoCAD 2000
 90
0
280
0
281
0
  0
CLASS
  1
ACDBPLACEHOLDER
  2
AcDbPlaceHolder
  3
AutoCAD 2000
 90
0
280
0
281
0
  0
CLASS
  1
LAYOUT
  2
AcDbLayout
  3
AutoCAD 2000
 90
0
280
0
281
0
  0
ENDSEC
  0
SECTION
  2
TABLES
  0
TABLE
  2
VPORT
  5
8
100
AcDbSymbolTable
 70
2
  0
VPORT
  5
1F4
100
AcDbSymbolTableRecord
100
AcDbViewportTableRecord
  2
*ACTIVE
 70
0
 10
0.0
 20
0.0
 11
1.0
 21
1.0
 12
105.0
 22
148.5
 13
0.0
 23
0.0
 14
1.0
 24
1.0
 15
0.0
 25
0.0
 16
0.0
 26
0.0
 36
1.0
 17
0.0
 27
0.0
 37
0.0
 40
297.0
 41
0.7070707071
 42
50.0
 43
0.0
 44
0.0
 50
0.0
 51
0.0
 71
0
 72
100
 73
1
 74
1
 75
0
 76
0
 77
0
 78
0
  0
ENDTAB
  0
TABLE
  2
LTYPE
  5
5
100
AcDbSymbolTable
 70
6
  0
LTYPE
  5
14
100
AcDbSymbolTableRecord
100
AcDbLinetypeTableRecord
  2
BYBLOCK
 70
0
  3

 72
65
 73
0
 40
0.0
  0
LTYPE
  5
15
100
AcDbSymbolTableRecord
100
AcDbLinetypeTableRecord
  2
BYLAYER
 70
0
  3

 72
65
 73
0
 40
0.0
  0
LTYPE
  5
16
100
AcDbSymbolTableRecord
100
AcDbLinetypeTableRecord
  2
CONTINUOUS
 70
64
  3
Solid line
 72
65
 73
0
 40
0.0
  0
LTYPE
  5
1F5
100
AcDbSymbolTableRecord
100
AcDbLinetypeTableRecord
  2
CENTER
 70
64
  3
____ _ ____ _ ____ _ ____ _ ____ _ ____ _ ____
 72
65
 73
4
 40
0.6
 49
0.375
 74
0
 49
-0.075
 74
0
 49
0.075
 74
0
 49
-0.075
 74
0
  0
LTYPE
  5
1F6
100
AcDbSymbolTableRecord
100
AcDbLinetypeTableRecord
  2
HIDDEN
 70
64
  3
- - - - - - - - - - - - - - - - - - - -
 72
65
 73
2
 40
0.2
 49
0.1
 74
0
 49
-0.1
 74
0
  0
LTYPE
  5
1F7
100
AcDbSymbolTableRecord
100
AcDbLinetypeTableRecord
  2
PHANTOM
 70
64
  3
_____ _ _ _____ _ _ _____ _ _ _____
 72
65
 73
6
 40
0.8
 49
0.45
 74
0
 49
-0.05
 74
0
 49
0.1
 74
0
 49
-0.05
 74
0
 49
0.1
 74
0
 49
-0.05
 74
0
  0
LTYPE
  5
1F8
100
AcDbSymbolTableRecord
100
AcDbLinetypeTableRecord
  2
DOT
 70
64
  3
. . . . . . . . . . . . . . . . . . . .
 72
65
 73
2
 40
0.2
 49
0.1
 74
0
 49
-0.1
 74
0
  0
LTYPE
  5
1F9
100
AcDbSymbolTableRecord
100
AcDbLinetypeTableRecord
  2
DASHED
 70
64
  3
- - - - - - - - - - - - - - - - - - - -
 72
65
 73
2
 40
0.2
 49
0.1
 74
0
 49
-0.1
 74
0
  0
ENDTAB
  0
TABLE
  2
LAYER
  5
2
100
AcDbSymbolTable
 70
36
  0
LAYER
  5
10
100
AcDbSymbolTableRecord
100
AcDbLayerTableRecord
  2
0
 70
0
 62
7
  6
CONTINUOUS
370
-3
390
F
  0
LAYER
  5
1FA
100
AcDbSymbolTableRecord
100
AcDbLayerTableRecord
  2
DEFAULT_1
 70
0
 62
7
  6
CENTER
370
-3
390
F
  0
LAYER
  5
1FB
100
AcDbSymbolTableRecord
100
AcDbLayerTableRecord
  2
DEFAULT_2
 70
0
 62
8
  6
HIDDEN
370
-3
390
F
  0
LAYER
  5
1FC
100
AcDbSymbolTableRecord
100
AcDbLayerTableRecord
  2
DEFAULT_3
 70
0
 62
7
  6
PHANTOM
370
-3
390
F
  0
LAYER
  5
1FD
100
AcDbSymbolTableRecord
100
AcDbLayerTableRecord
  2
01___PRT_ALL_DTM_PLN
 70
0
 62
7
  6
CONTINUOUS
370
-3
390
F
  0
LAYER
  5
1FE
100
AcDbSymbolTableRecord
100
AcDbLayerTableRecord
  2
01___PRT_DEF_DTM_PLN
 70
0
 62
7
  6
CONTINUOUS
370
-3
390
F
  0
LAYER
  5
1FF
100
AcDbSymbolTableRecord
100
AcDbLayerTableRecord
  2
02___PRT_ALL_AXES
 70
0
 62
7
  6
CONTINUOUS
370
-3
390
F
  0
LAYER
  5
200
100
AcDbSymbolTableRecord
100
AcDbLayerTableRecord
  2
03___PRT_ALL_CURVES
 70
0
 62
7
  6
CONTINUOUS
370
-3
390
F
  0
LAYER
  5
201
100
AcDbSymbolTableRecord
100
AcDbLayerTableRecord
  2
04___PRT_ALL_DTM_PNT
 70
0
 62
7
  6
CONTINUOUS
370
-3
390
F
  0
LAYER
  5
202
100
AcDbSymbolTableRecord
100
AcDbLayerTableRecord
  2
05___PRT_ALL_DTM_CSYS
 70
0
 62
7
  6
CONTINUOUS
370
-3
390
F
  0
LAYER
  5
203
100
AcDbSymbolTableRecord
100
AcDbLayerTableRecord
  2
05___PRT_DEF_DTM_CSYS
 70
0
 62
7
  6
CONTINUOUS
370
-3
390
F
  0
LAYER
  5
204
100
AcDbSymbolTableRecord
100
AcDbLayerTableRecord
  2
06___PRT_ALL_SURFS
 70
0
 62
7
  6
CONTINUOUS
370
-3
390
F
  0
LAYER
  5
205
100
AcDbSymbolTableRecord
100
AcDbLayerTableRecord
  2
1_ALL_PLANES
 70
0
 62
7
  6
CONTINUOUS
370
-3
390
F
  0
LAYER
  5
206
100
AcDbSymbolTableRecord
100
AcDbLayerTableRecord
  2
1_SISCO
 70
0
 62
7
  6
CONTINUOUS
370
-3
390
F
  0
LAYER
  5
207
100
AcDbSymbolTableRecord
100
AcDbLayerTableRecord
  2
1__DEF_ASM_PLN
 70
0
 62
7
  6
CONTINUOUS
370
-3
390
F
  0
LAYER
  5
208
100
AcDbSymbolTableRecord
100
AcDbLayerTableRecord
  2
1__DEF_PLANES
 70
0
 62
7
  6
CONTINUOUS
370
-3
390
F
  0
LAYER
  5
209
100
AcDbSymbolTableRecord
100
AcDbLayerTableRecord
  2
2_ALL_CSYS
 70
0
 62
7
  6
CONTINUOUS
370
-3
390
F
  0
LAYER
  5
20A
100
AcDbSymbolTableRecord
100
AcDbLayerTableRecord
  2
2_PIANI
 70
0
 62
7
  6
CONTINUOUS
370
-3
390
F
  0
LAYER
  5
20B
100
AcDbSymbolTableRecord
100
AcDbLayerTableRecord
  2
2__DEF_ASM_CSYS
 70
0
 62
7
  6
CONTINUOUS
370
-3
390
F
  0
LAYER
  5
20C
100
AcDbSymbolTableRecord
100
AcDbLayerTableRecord
  2
2__DEF_CSYS
 70
0
 62
7
  6
CONTINUOUS
370
-3
390
F
  0
LAYER
  5
20D
100
AcDbSymbolTableRecord
100
AcDbLayerTableRecord
  2
3_ALL_AXES
 70
0
 62
7
  6
CONTINUOUS
370
-3
390
F
  0
LAYER
  5
20E
100
AcDbSymbolTableRecord
100
AcDbLayerTableRecord
  2
3_PUNTI
 70
0
 62
7
  6
CONTINUOUS
370
-3
390
F
  0
LAYER
  5
20F
100
AcDbSymbolTableRecord
100
AcDbLayerTableRecord
  2
4_ALL_POINTS
 70
0
 62
7
  6
CONTINUOUS
370
-3
390
F
  0
LAYER
  5
210
100
AcDbSymbolTableRecord
100
AcDbLayerTableRecord
  2
4_CURVE
 70
0
 62
7
  6
CONTINUOUS
370
-3
390
F
  0
LAYER
  5
211
100
AcDbSymbolTableRecord
100
AcDbLayerTableRecord
  2
5_ALL_CURVES
 70
0
 62
7
  6
CONTINUOUS
370
-3
390
F
  0
LAYER
  5
212
100
AcDbSymbolTableRecord
100
AcDbLayerTableRecord
  2
5_SUPERFICI
 70
0
 62
7
  6
CONTINUOUS
370
-3
390
F
  0
LAYER
  5
213
100
AcDbSymbolTableRecord
100
AcDbLayerTableRecord
  2
6_ALL_SURFS
 70
0
 62
7
  6
CONTINUOUS
370
-3
390
F
  0
LAYER
  5
214
100
AcDbSymbolTableRecord
100
AcDbLayerTableRecord
  2
7_ALL_QUILTS
 70
0
 62
7
  6
CONTINUOUS
370
-3
390
F
  0
LAYER
  5
215
100
AcDbSymbolTableRecord
100
AcDbLayerTableRecord
  2
8_ALL_CGFEAT
 70
0
 62
7
  6
CONTINUOUS
370
-3
390
F
  0
LAYER
  5
216
100
AcDbSymbolTableRecord
100
AcDbLayerTableRecord
  2
9_ALL_THREAD
 70
0
 62
7
  6
CONTINUOUS
370
-3
390
F
  0
LAYER
  5
217
100
AcDbSymbolTableRecord
100
AcDbLayerTableRecord
  2
FILETTATURE
 70
0
 62
7
  6
CONTINUOUS
370
-3
390
F
  0
ENDTAB
  0
TABLE
  2
STYLE
  5
3
100
AcDbSymbolTable
 70
1
  0
STYLE
  5
11
100
AcDbSymbolTableRecord
100
AcDbTextStyleTableRecord
  2
STANDARD
 70
0
 40
0.0
 41
1.0
 50
0.0
 71
0
 42
0.2
  3
arial.ttf
  4

  0
STYLE
  5
218
100
AcDbSymbolTableRecord
100
AcDbTextStyleTableRecord
  2
TEXTSTYLE_1
 70
0
 40
0.0
 41
0.8
 50
0.0
 71
0
 42
0.2
  3
gdt
  4

  0
ENDTAB
  0
TABLE
  2
VIEW
  5
6
100
AcDbSymbolTable
 70
0
  0
ENDTAB
  0
TABLE
  2
UCS
  5
7
100
AcDbSymbolTable
 70
0
  0
ENDTAB
  0
TABLE
  2
APPID
  5
9
100
AcDbSymbolTable
 70
1
  0
APPID
  5
219
100
AcDbSymbolTableRecord
100
AcDbRegAppTableRecord
  2
ACAD
 70
0
  0
ENDTAB
  0
TABLE
  2
BLOCK_RECORD
  5
1
100
AcDbSymbolTable
 70
0
  0
BLOCK_RECORD
  5
21A
100
AcDbSymbolTableRecord
100
AcDbBlockTableRecord
  2
*Model_Space
  0
BLOCK_RECORD
  5
21B
100
AcDbSymbolTableRecord
100
AcDbBlockTableRecord
  2
*Paper_Space
  0
ENDTAB
  0
TABLE
  2
DIMSTYLE
  5
A
100
AcDbSymbolTable
 70
1
100
AcDbDimStyleTable
 71
0
  0
DIMSTYLE
105
21C
100
AcDbSymbolTableRecord
100
AcDbDimStyleTableRecord
  2
STANDARD
 70
0
  3

  4

 40
1.0
 41
2.0
 42
0.0625
 43
0.38
 44
0.18
 45
0.0
 46
0.0
 47
0.01
 48
0.01
140
2.0
141
0.09
142
0.0
143
25.4
144
1.0
145
0.0
146
1.0
147
0.09
 71
0.0
 72
0.0
 73
1
 74
1
 75
0
 76
0
 77
0
 78
8
170
0
171
2
172
0
173
0
174
0
175
0
176
0
177
0
178
0
270
2
271
2
272
2
273
2
274
2
275
0
280
0
281
0
282
0
283
1
284
8
285
0
286
0
287
3
288
0
340
11
  0
ENDTAB
  0
ENDSEC
  0
SECTION
  2
BLOCKS
  0
BLOCK
  5
20
100
AcDbEntity
  8
0
100
AcDbBlockBegin
  2
*Model_Space
 70
0
 10
0.0
 20
0.0
 30
0.0
  3
*Model_Space
  1

  0
ENDBLK
  5
21
100
AcDbEntity
  8
0
100
AcDbBlockEnd
  0
BLOCK
  5
1C
100
AcDbEntity
  8
0
100
AcDbBlockBegin
  2
*Paper_Space
 70
0
 10
0.0
 20
0.0
 30
0.0
  3
*Paper_Space
  1

  0
ENDBLK
  5
1D
100
AcDbEntity
  8
0
100
AcDbBlockEnd
  0
ENDSEC
  0
SECTION
  2
ENTITIES
  0
LINE
  5
21D
100
AcDbEntity
  8
0
100
AcDbLine
 62
7
  6
CONTINUOUS
 10
613.4476851368
 20
278.6048562956
 11
613.4476851368
 21
115.1733612137
  0
LINE
  5
21E
100
AcDbEntity
  8
0
100
AcDbLine
 62
9
  6
CONTINUOUS
 10
619.3055477517
 20
101.0312268527
 11
619.3055477517
 21
292.7469906565
  0
LINE
  5
21F
100
AcDbEntity
  8
0
100
AcDbLine
 62
9
  6
CONTINUOUS
 10
627.589798358
 20
301.0312429294
 11
627.589798358
 21
92.7469745799
  0
LINE
  5
220
100
AcDbEntity
  8
0
100
AcDbLine
 62
7
  6
CONTINUOUS
 10
619.3055477511
 20
101.0312268534
 11
627.5897983605
 21
92.7469745772
  0
LINE
  5
221
100
AcDbEntity
  8
0
100
AcDbLine
 62
9
  6
CONTINUOUS
 10
641.7319354189
 20
306.8891087544
 11
641.7319354189
 21
86.8891087549
  0
LINE
  5
222
100
AcDbEntity
  8
0
100
AcDbLine
 62
7
  6
CONTINUOUS
 10
678.4476851368
 20
96.8891087546
 11
688.4476851368
 21
86.8891087546
  0
LINE
  5
223
100
AcDbEntity
  8
0
100
AcDbLine
 62
7
  6
CONTINUOUS
 10
678.4476851368
 20
306.8878195232
 11
678.4476851368
 21
86.8903979861
  0
LINE
  5
224
100
AcDbEntity
  8
0
100
AcDbLine
 62
7
  6
CONTINUOUS
 10
688.4476851368
 20
306.8891087546
 11
688.4476851368
 21
86.8891087546
  0
LINE
  5
225
100
AcDbEntity
  8
0
100
AcDbLine
 62
3
  6
CONTINUOUS
 10
706.9476851368
 20
84.8891087546
 11
706.9476851368
 21
19.8891087546
  0
LINE
  5
226
100
AcDbEntity
  8
0
100
AcDbLine
 62
7
  6
CONTINUOUS
 10
706.9476851368
 20
16.8891087546
 11
706.9476851368
 21
19.8891087546
  0
LINE
  5
227
100
AcDbEntity
  8
0
100
AcDbLine
 62
7
  6
CONTINUOUS
 10
711.4476851368
 20
84.8891087546
 11
711.4476851368
 21
96.8891087546
  0
LINE
  5
228
100
AcDbEntity
  8
0
100
AcDbLine
 62
7
  6
CONTINUOUS
 10
619.3055477511
 20
292.7469906559
 11
627.5897983605
 21
301.0312429321
  0
LINE
  5
229
100
AcDbEntity
  8
0
100
AcDbLine
 62
9
  6
CONTINUOUS
 10
721.9476851368
 20
16.8891087546
 11
721.9476851368
 21
19.8891087546
  0
LINE
  5
22A
100
AcDbEntity
  8
0
100
AcDbLine
 62
7
  6
CONTINUOUS
 10
678.4476851368
 20
296.8891087546
 11
688.4476851368
 21
306.8891087546
  0
LINE
  5
22B
100
AcDbEntity
  8
0
100
AcDbLine
 62
7
  6
CONTINUOUS
 10
1156.9476851368
 20
16.8891087546
 11
1106.9476851368
 21
16.8891087546
  0
LINE
  5
22C
100
AcDbEntity
  8
0
100
AcDbLine
 62
7
  6
CONTINUOUS
 10
706.9476851368
 20
16.8891087546
 11
891.9476851368
 21
16.8891087546
  0
LINE
  5
22D
100
AcDbEntity
  8
0
100
AcDbLine
 62
3
  6
CONTINUOUS
 10
706.9476851368
 20
19.8891087546
 11
891.9476851368
 21
19.8891087546
  0
LINE
  5
22E
100
AcDbEntity
  8
0
100
AcDbLine
 62
9
  6
CONTINUOUS
 10
706.9476851368
 20
22.8891087546
 11
891.9476851368
 21
22.8891087546
  0
LINE
  5
22F
100
AcDbEntity
  8
0
100
AcDbLine
 62
7
  6
CONTINUOUS
 10
774.4476851368
 20
289.0845533276
 11
774.4476851368
 21
348.8891087546
  0
LINE
  5
230
100
AcDbEntity
  8
0
100
AcDbLine
 62
7
  6
CONTINUOUS
 10
1256.9476851368
 20
29.8891087546
 11
1156.9476851368
 21
29.8891087546
  0
LINE
  5
231
100
AcDbEntity
  8
0
100
AcDbLine
 62
7
  6
CONTINUOUS
 10
1106.9476851368
 20
29.8891087546
 11
1066.9476851368
 21
29.8891087546
  0
LINE
  5
232
100
AcDbEntity
  8
0
100
AcDbLine
 62
9
  6
CONTINUOUS
 10
1116.9476851368
 20
31.8891087546
 11
1156.9476851368
 21
31.8891087546
  0
LINE
  5
233
100
AcDbEntity
  8
0
100
AcDbLine
 62
7
  6
CONTINUOUS
 10
1106.9476851368
 20
34.8891087546
 11
1153.9476851368
 21
34.8891087546
  0
LINE
  5
234
100
AcDbEntity
  8
02___PRT_ALL_AXES
100
AcDbLine
 62
7
  6
CONTINUOUS
 10
1277.6115805455
 20
36.8891087546
 11
1296.9476851368
 21
36.8891087546
  0
LINE
  5
235
100
AcDbEntity
  8
0
100
AcDbLine
 62
7
  6
CONTINUOUS
 10
1156.9476851368
 20
56.4789705518
 11
1116.9476851368
 21
56.4789705518
  0
LINE
  5
236
100
AcDbEntity
  8
3_ALL_AXES
100
AcDbLine
 62
7
  6
CONTINUOUS
 10
1036.9476851368
 20
61.8891087546
 11
1036.4476851368
 21
61.8891087546
  0
LINE
  5
237
100
AcDbEntity
  8
0
100
AcDbLine
 62
7
  6
CONTINUOUS
 10
1036.4476851368
 20
61.8891087546
 11
1027.4476851368
 21
61.8891087546
  0
LINE
  5
238
100
AcDbEntity
  8
0
100
AcDbLine
 62
9
  6
CONTINUOUS
 10
706.9476851368
 20
78.8891087546
 11
891.9476851368
 21
78.8891087546
  0
LINE
  5
239
100
AcDbEntity
  8
0
100
AcDbLine
 62
3
  6
CONTINUOUS
 10
706.9476851368
 20
84.8891087546
 11
711.4476851368
 21
84.8891087546
  0
LINE
  5
23A
100
AcDbEntity
  8
0
100
AcDbLine
 62
7
  6
CONTINUOUS
 10
711.4476851368
 20
84.8891087546
 11
887.4476851368
 21
84.8891087546
  0
LINE
  5
23B
100
AcDbEntity
  8
0
100
AcDbLine
 62
3
  6
CONTINUOUS
 10
887.4476851368
 20
84.8891087546
 11
891.9476851368
 21
84.8891087546
  0
LINE
  5
23C
100
AcDbEntity
  8
02___PRT_ALL_AXES
100
AcDbLine
 62
7
  6
CONTINUOUS
 10
641.73193542
 20
86.8891087546
 11
678.4476851368
 21
86.8891087546
  0
LINE
  5
23D
100
AcDbEntity
  8
02___PRT_ALL_AXES
100
AcDbLine
 62
7
  6
CONTINUOUS
 10
688.4476851368
 20
86.8891087546
 11
711.4476851368
 21
86.8891087546
  0
LINE
  5
23E
100
AcDbEntity
  8
02___PRT_ALL_AXES
100
AcDbLine
 62
7
  6
CONTINUOUS
 10
887.4476851368
 20
86.8891087546
 11
919.4476850925
 21
86.8891087546
  0
LINE
  5
23F
100
AcDbEntity
  8
0
100
AcDbLine
 62
7
  6
CONTINUOUS
 10
1116.9476851368
 20
91.3346220225
 11
1106.9476851368
 21
91.3346220225
  0
LINE
  5
240
100
AcDbEntity
  8
02___PRT_ALL_AXES
100
AcDbLine
 62
7
  6
CONTINUOUS
 10
1296.9476851368
 20
96.8891087546
 11
1290.9476851368
 21
96.8891087546
  0
LINE
  5
241
100
AcDbEntity
  8
3_ALL_AXES
100
AcDbLine
 62
7
  6
CONTINUOUS
 10
952.4476851368
 20
96.8891087546
 11
940.4476851368
 21
96.8891087546
  0
LINE
  5
242
100
AcDbEntity
  8
0
100
AcDbLine
 62
7
  6
CONTINUOUS
 10
711.4476851368
 20
96.8891087546
 11
887.4476851368
 21
96.8891087546
  0
LINE
  5
243
100
AcDbEntity
  8
0
100
AcDbLine
 62
7
  6
CONTINUOUS
 10
940.4476851368
 20
96.8891087546
 11
1021.4476851368
 21
96.8891087546
  0
LINE
  5
244
100
AcDbEntity
  8
0
100
AcDbLine
 62
9
  6
CONTINUOUS
 10
954.4476851368
 20
98.8891087546
 11
1025.4476851368
 21
98.8891087544
  0
LINE
  5
245
100
AcDbEntity
  8
0
100
AcDbLine
 62
7
  6
CONTINUOUS
 10
957.4476851368
 20
106.8891087546
 11
1019.4476851368
 21
106.8891087546
  0
LINE
  5
246
100
AcDbEntity
  8
0
100
AcDbLine
 62
9
  6
CONTINUOUS
 10
1025.4476851368
 20
108.0161254081
 11
1023.4455064266
 21
108.0161254084
  0
LINE
  5
247
100
AcDbEntity
  8
0
100
AcDbLine
 62
9
  6
CONTINUOUS
 10
954.4476851368
 20
109.8891087546
 11
1022.4476851368
 21
109.8891087546
  0
LINE
  5
248
100
AcDbEntity
  8
0
100
AcDbLine
 62
9
  6
CONTINUOUS
 10
1019.4523060401
 20
120.6911501079
 11
1022.4476851368
 21
120.8575954954
  0
LINE
  5
249
100
AcDbEntity
  8
0
100
AcDbLine
 62
9
  6
CONTINUOUS
 10
1022.4476851368
 20
126.8891177841
 11
1025.4476851368
 21
126.8891087546
  0
LINE
  5
24A
100
AcDbEntity
  8
0
100
AcDbLine
 62
7
  6
CONTINUOUS
 10
1296.9476851368
 20
136.8891087546
 11
1290.9476851368
 21
136.8891087546
  0
LINE
  5
24B
100
AcDbEntity
  8
0
100
AcDbLine
 62
9
  6
CONTINUOUS
 10
939.4476851368
 20
136.8891087546
 11
954.4476851368
 21
136.8891087546
  0
LINE
  5
24C
100
AcDbEntity
  8
0
100
AcDbLine
 62
9
  6
CONTINUOUS
 10
876.9476851368
 20
16.8891087546
 11
876.9476851368
 21
19.8891087546
  0
LINE
  5
24D
100
AcDbEntity
  8
0
100
AcDbLine
 62
7
  6
CONTINUOUS
 10
887.4476851368
 20
84.8891087546
 11
887.4476851368
 21
96.8891087546
  0
LINE
  5
24E
100
AcDbEntity
  8
0
100
AcDbLine
 62
9
  6
CONTINUOUS
 10
982.7054611977
 20
153.2857831934
 11
958.4476851368
 21
153.2857831934
  0
LINE
  5
24F
100
AcDbEntity
  8
0
100
AcDbLine
 62
9
  6
CONTINUOUS
 10
982.7054611977
 20
156.1607277359
 11
958.4476851368
 21
156.1607277359
  0
LINE
  5
250
100
AcDbEntity
  8
0
100
AcDbLine
 62
9
  6
CONTINUOUS
 10
1286.9476851368
 20
161.8891087546
 11
1296.9476851368
 21
161.8891087546
  0
LINE
  5
251
100
AcDbEntity
  8
0
100
AcDbLine
 62
9
  6
CONTINUOUS
 10
957.3988245043
 20
151.7040433826
 11
954.4476851368
 21
152.2432802821
  0
LINE
  5
252
100
AcDbEntity
  8
0
100
AcDbLine
 62
3
  6
CONTINUOUS
 10
891.9476851368
 20
84.8891087546
 11
891.9476851368
 21
19.8891087546
  0
LINE
  5
253
100
AcDbEntity
  8
0
100
AcDbLine
 62
7
  6
CONTINUOUS
 10
891.9476851368
 20
16.8891087546
 11
891.9476851368
 21
19.8891087546
  0
LINE
  5
254
100
AcDbEntity
  8
0
100
AcDbLine
 62
7
  6
CONTINUOUS
 10
894.4476851368
 20
289.0845533276
 11
894.4476851368
 21
348.8891087546
  0
LINE
  5
255
100
AcDbEntity
  8
0
100
AcDbLine
 62
7
  6
CONTINUOUS
 10
919.4476851904
 20
306.8891087546
 11
919.4476851904
 21
86.8891087546
  0
LINE
  5
256
100
AcDbEntity
  8
0
100
AcDbLine
 62
9
  6
CONTINUOUS
 10
954.4476851368
 20
188.8891087546
 11
952.4476851368
 21
188.8891087546
  0
LINE
  5
257
100
AcDbEntity
  8
0
100
AcDbLine
 62
9
  6
CONTINUOUS
 10
1022.4476851368
 20
188.8891087546
 11
1025.4476851368
 21
188.8891087546
  0
LINE
  5
258
100
AcDbEntity
  8
0
100
AcDbLine
 62
9
  6
CONTINUOUS
 10
958.4476851368
 20
189.4165812821
 11
982.7054611977
 21
189.4165812821
  0
LINE
  5
259
100
AcDbEntity
  8
0
100
AcDbLine
 62
7
  6
CONTINUOUS
 10
1022.4476851368
 20
191.8891087546
 11
957.4476851368
 21
191.8891087546
  0
LINE
  5
25A
100
AcDbEntity
  8
0
100
AcDbLine
 62
9
  6
CONTINUOUS
 10
957.4476851368
 20
193.8891087546
 11
1025.4476851368
 21
193.8891087548
  0
LINE
  5
25B
100
AcDbEntity
  8
0
100
AcDbLine
 62
9
  6
CONTINUOUS
 10
1036.9476851368
 20
196.8891087546
 11
1286.9476851368
 21
196.8891087546
  0
LINE
  5
25C
100
AcDbEntity
  8
0
100
AcDbLine
 62
7
  6
CONTINUOUS
 10
939.4476851368
 20
296.7175358794
 11
939.4476851368
 21
97.0606816299
  0
LINE
  5
25D
100
AcDbEntity
  8
0
100
AcDbLine
 62
9
  6
CONTINUOUS
 10
940.4476851368
 20
96.8891087546
 11
940.4476851368
 21
296.8891087546
  0
LINE
  5
25E
100
AcDbEntity
  8
0
100
AcDbLine
 62
7
  6
CONTINUOUS
 10
1313.4300470466
 20
291.1234750053
 11
1334.9476851368
 21
296.8891087546
  0
LINE
  5
25F
100
AcDbEntity
  8
0
100
AcDbLine
 62
9
  6
CONTINUOUS
 10
957.4476851368
 20
199.8891087546
 11
1025.4476851368
 21
199.8891087544
  0
LINE
  5
260
100
AcDbEntity
  8
0
100
AcDbLine
 62
7
  6
CONTINUOUS
 10
957.4476851368
 20
201.8891087546
 11
1022.4476851368
 21
201.8891087546
  0
LINE
  5
261
100
AcDbEntity
  8
0
100
AcDbLine
 62
9
  6
CONTINUOUS
 10
982.7054611977
 20
204.3616362272
 11
958.4476851368
 21
204.3616362272
  0
LINE
  5
262
100
AcDbEntity
  8
0
100
AcDbLine
 62
9
  6
CONTINUOUS
 10
1025.4476851368
 20
204.8891087546
 11
1022.4476851368
 21
204.8891087546
  0
LINE
  5
263
100
AcDbEntity
  8
0
100
AcDbLine
 62
9
  6
CONTINUOUS
 10
954.4476851368
 20
204.8891087546
 11
952.4476851369
 21
204.8891087549
  0
LINE
  5
264
100
AcDbEntity
  8
0
100
AcDbLine
 62
9
  6
CONTINUOUS
 10
952.4476851368
 20
296.8891087546
 11
952.4476851368
 21
204.8891087546
  0
LINE
  5
265
100
AcDbEntity
  8
0
100
AcDbLine
 62
9
  6
CONTINUOUS
 10
952.4476851368
 20
188.8891087546
 11
952.4476851368
 21
96.8891087546
  0
LINE
  5
266
100
AcDbEntity
  8
0
100
AcDbLine
 62
7
  6
CONTINUOUS
 10
954.4476851368
 20
294.8891087546
 11
954.4476851368
 21
204.8891087546
  0
LINE
  5
267
100
AcDbEntity
  8
0
100
AcDbLine
 62
7
  6
CONTINUOUS
 10
954.4476851368
 20
188.8891087546
 11
954.4476851368
 21
98.8891087546
  0
LINE
  5
268
100
AcDbEntity
  8
0
100
AcDbLine
 62
9
  6
CONTINUOUS
 10
957.4476851368
 20
201.8891087546
 11
957.4476851368
 21
199.8891087546
  0
LINE
  5
269
100
AcDbEntity
  8
0
100
AcDbLine
 62
9
  6
CONTINUOUS
 10
957.4476851368
 20
151.477105936
 11
957.4476851368
 21
96.8891087546
  0
LINE
  5
26A
100
AcDbEntity
  8
0
100
AcDbLine
 62
9
  6
CONTINUOUS
 10
957.4476851368
 20
191.8891087546
 11
957.4476851371
 21
193.8891087546
  0
LINE
  5
26B
100
AcDbEntity
  8
0
100
AcDbLine
 62
9
  6
CONTINUOUS
 10
957.4476851368
 20
242.3011115733
 11
957.4476851371
 21
296.8891087546
  0
LINE
  5
26C
100
AcDbEntity
  8
0
100
AcDbLine
 62
9
  6
CONTINUOUS
 10
958.4476851368
 20
240.4924343159
 11
958.4476851368
 21
201.8891087546
  0
LINE
  5
26D
100
AcDbEntity
  8
0
100
AcDbLine
 62
9
  6
CONTINUOUS
 10
958.4476851368
 20
153.2857831934
 11
958.4476851368
 21
191.8891087546
  0
LINE
  5
26E
100
AcDbEntity
  8
0
100
AcDbLine
 62
9
  6
CONTINUOUS
 10
957.3988245043
 20
242.0741741267
 11
954.4476851368
 21
241.5349372272
  0
LINE
  5
26F
100
AcDbEntity
  8
0
100
AcDbLine
 62
9
  6
CONTINUOUS
 10
1286.9476851368
 20
231.8891087546
 11
1296.9476851368
 21
231.8891087546
  0
LINE
  5
270
100
AcDbEntity
  8
0
100
AcDbLine
 62
9
  6
CONTINUOUS
 10
958.4476851368
 20
237.6174897734
 11
982.7054611977
 21
237.6174897734
  0
LINE
  5
271
100
AcDbEntity
  8
0
100
AcDbLine
 62
9
  6
CONTINUOUS
 10
958.4476851368
 20
240.4924343159
 11
982.7054611977
 21
240.4924343159
  0
LINE
  5
272
100
AcDbEntity
  8
0
100
AcDbLine
 62
7
  6
CONTINUOUS
 10
939.447691779
 20
286.8891153624
 11
919.4476932118
 21
306.889116874
  0
LINE
  5
273
100
AcDbEntity
  8
0
100
AcDbLine
 62
9
  6
CONTINUOUS
 10
986.0415860519
 20
241.8128058765
 11
987.8477620752
 21
239.504809851
  0
LINE
  5
274
100
AcDbEntity
  8
0
100
AcDbLine
 62
9
  6
CONTINUOUS
 10
982.7054611977
 20
153.2857831934
 11
982.7054611977
 21
191.8891087546
  0
LINE
  5
275
100
AcDbEntity
  8
0
100
AcDbLine
 62
9
  6
CONTINUOUS
 10
982.7054611977
 20
201.8891087546
 11
982.7054611977
 21
240.4924343159
  0
LINE
  5
276
100
AcDbEntity
  8
0
100
AcDbLine
 62
9
  6
CONTINUOUS
 10
987.8477620752
 20
154.2734076701
 11
987.8477620752
 21
189.2830482056
  0
LINE
  5
277
100
AcDbEntity
  8
0
100
AcDbLine
 62
9
  6
CONTINUOUS
 10
987.8477620752
 20
204.4951693037
 11
987.8477620752
 21
239.504809851
  0
LINE
  5
278
100
AcDbEntity
  8
0
100
AcDbLine
 62
7
  6
CONTINUOUS
 10
1038.0576957345
 20
474.3714706644
 11
1041.9476851368
 21
488.8891087546
  0
LINE
  5
279
100
AcDbEntity
  8
0
100
AcDbLine
 62
7
  6
CONTINUOUS
 10
1296.9476851368
 20
256.8891087546
 11
1290.9476851368
 21
256.8891087546
  0
LINE
  5
27A
100
AcDbEntity
  8
0
100
AcDbLine
 62
9
  6
CONTINUOUS
 10
939.4476851368
 20
256.8891087546
 11
954.4476851368
 21
256.8891087546
  0
LINE
  5
27B
100
AcDbEntity
  8
02___PRT_ALL_AXES
100
AcDbLine
 62
7
  6
CONTINUOUS
 10
1290.9476851368
 20
256.8891087546
 11
1296.9476851368
 21
256.8891087546
  0
LINE
  5
27C
100
AcDbEntity
  8
0
100
AcDbLine
 62
9
  6
CONTINUOUS
 10
1025.4476851368
 20
266.8891087546
 11
1022.4476851368
 21
266.8890997619
  0
LINE
  5
27D
100
AcDbEntity
  8
0
100
AcDbLine
 62
7
  6
CONTINUOUS
 10
1309.9476851368
 20
281.8891087546
 11
1286.9476851368
 21
281.8891087546
  0
LINE
  5
27E
100
AcDbEntity
  8
0
100
AcDbLine
 62
9
  6
CONTINUOUS
 10
954.4476851368
 20
283.8891087546
 11
1022.4476851368
 21
283.8891087546
  0
LINE
  5
27F
100
AcDbEntity
  8
0
100
AcDbLine
 62
9
  6
CONTINUOUS
 10
1019.4523060401
 20
273.0870674014
 11
1022.4476851368
 21
272.9206220138
  0
LINE
  5
280
100
AcDbEntity
  8
0
100
AcDbLine
 62
9
  6
CONTINUOUS
 10
1019.4476851368
 20
104.8890842583
 11
1019.4476851368
 21
120.4051822832
  0
LINE
  5
281
100
AcDbEntity
  8
0
100
AcDbLine
 62
9
  6
CONTINUOUS
 10
1019.4476851368
 20
273.3730352261
 11
1019.4476851368
 21
288.8891332549
  0
LINE
  5
282
100
AcDbEntity
  8
0
100
AcDbLine
 62
9
  6
CONTINUOUS
 10
1019.5899860143
 20
127.0080806015
 11
1019.5899860143
 21
189.1399122518
  0
LINE
  5
283
100
AcDbEntity
  8
0
100
AcDbLine
 62
9
  6
CONTINUOUS
 10
1019.5899860143
 20
204.6383052575
 11
1019.5899860143
 21
266.7701369078
  0
LINE
  5
284
100
AcDbEntity
  8
0
100
AcDbLine
 62
9
  6
CONTINUOUS
 10
1021.4476851368
 20
96.8891087546
 11
1021.4476851368
 21
105.1954915146
  0
LINE
  5
285
100
AcDbEntity
  8
0
100
AcDbLine
 62
9
  6
CONTINUOUS
 10
1021.4476851368
 20
288.5827262343
 11
1021.4476851368
 21
296.8891087546
  0
LINE
  5
286
100
AcDbEntity
  8
0
100
AcDbLine
 62
7
  6
CONTINUOUS
 10
1022.4476851368
 20
109.8891087546
 11
1022.4476851368
 21
188.8891087546
  0
LINE
  5
287
100
AcDbEntity
  8
0
100
AcDbLine
 62
9
  6
CONTINUOUS
 10
1022.4476851368
 20
191.8891087546
 11
1022.4476851368
 21
201.8891087546
  0
LINE
  5
288
100
AcDbEntity
  8
0
100
AcDbLine
 62
7
  6
CONTINUOUS
 10
1022.4476851368
 20
204.8891087546
 11
1022.4476851368
 21
283.8891087546
  0
LINE
  5
289
100
AcDbEntity
  8
0
100
AcDbLine
 62
9
  6
CONTINUOUS
 10
1023.9476851354
 20
126.8891087546
 11
1023.9476851368
 21
188.8891087546
  0
LINE
  5
28A
100
AcDbEntity
  8
0
100
AcDbLine
 62
9
  6
CONTINUOUS
 10
1023.9476851368
 20
204.8891087546
 11
1023.9476851354
 21
266.8891087554
  0
LINE
  5
28B
100
AcDbEntity
  8
0
100
AcDbLine
 62
7
  6
CONTINUOUS
 10
1025.4476851368
 20
329.8891087546
 11
1025.4476851368
 21
63.8891087546
  0
LINE
  5
28C
100
AcDbEntity
  8
0
100
AcDbLine
 62
7
  6
CONTINUOUS
 10
1026.9476851368
 20
470.8891087546
 11
1026.9476851368
 21
439.8891087546
  0
LINE
  5
28D
100
AcDbEntity
  8
0
100
AcDbLine
 62
9
  6
CONTINUOUS
 10
1027.4476851368
 20
331.8891087546
 11
1027.4476851368
 21
61.8891087546
  0
LINE
  5
28E
100
AcDbEntity
  8
0
100
AcDbLine
 62
9
  6
CONTINUOUS
 10
1023.4455065737
 20
285.7620921008
 11
1025.4476851368
 21
285.7620921012
  0
LINE
  5
28F
100
AcDbEntity
  8
0
100
AcDbLine
 62
7
  6
CONTINUOUS
 10
1019.4476851368
 20
286.8891087546
 11
957.4476851368
 21
286.8891087546
  0
LINE
  5
290
100
AcDbEntity
  8
0
100
AcDbLine
 62
9
  6
CONTINUOUS
 10
1036.9476851368
 20
287.6914932766
 11
1286.9476851368
 21
287.6914932766
  0
LINE
  5
291
100
AcDbEntity
  8
0
100
AcDbLine
 62
7
  6
CONTINUOUS
 10
774.4476851368
 20
289.0845533276
 11
894.4476851368
 21
289.0845533276
  0
LINE
  5
292
100
AcDbEntity
  8
0
100
AcDbLine
 62
9
  6
CONTINUOUS
 10
954.4476851368
 20
294.8891087546
 11
1025.4476851368
 21
294.8891087549
  0
LINE
  5
293
100
AcDbEntity
  8
0
100
AcDbLine
 62
7
  6
CONTINUOUS
 10
1021.4476851368
 20
296.8891087546
 11
940.4476851368
 21
296.8891087546
  0
LINE
  5
294
100
AcDbEntity
  8
0
100
AcDbLine
 62
9
  6
CONTINUOUS
 10
1311.9476851368
 20
299.8891087546
 11
1296.9476851368
 21
299.8891087546
  0
LINE
  5
295
100
AcDbEntity
  8
0
100
AcDbLine
 62
9
  6
CONTINUOUS
 10
1296.9476851368
 20
301.8891087546
 11
1286.9476851368
 21
301.8891087546
  0
LINE
  5
296
100
AcDbEntity
  8
02___PRT_ALL_AXES
100
AcDbLine
 62
7
  6
CONTINUOUS
 10
641.73193542
 20
306.8891087546
 11
678.4476851368
 21
306.8891087546
  0
LINE
  5
297
100
AcDbEntity
  8
02___PRT_ALL_AXES
100
AcDbLine
 62
7
  6
CONTINUOUS
 10
688.4476851368
 20
306.8891087546
 11
774.4476851368
 21
306.8891087546
  0
LINE
  5
298
100
AcDbEntity
  8
02___PRT_ALL_AXES
100
AcDbLine
 62
7
  6
CONTINUOUS
 10
894.4476851368
 20
306.8891087546
 11
919.4476850925
 21
306.8891087546
  0
LINE
  5
299
100
AcDbEntity
  8
0
100
AcDbLine
 62
9
  6
CONTINUOUS
 10
1017.6682292887
 20
269.0374586999
 11
1019.5899860143
 21
266.7701369078
  0
LINE
  5
29A
100
AcDbEntity
  8
0
100
AcDbLine
 62
9
  6
CONTINUOUS
 10
1017.8709041569
 20
269.2162578406
 11
1019.7936621676
 21
266.947641865
  0
LINE
  5
29B
100
AcDbEntity
  8
0
100
AcDbLine
 62
7
  6
CONTINUOUS
 10
1036.4476851368
 20
331.8891087546
 11
1036.4476851368
 21
61.8891087546
  0
LINE
  5
29C
100
AcDbEntity
  8
3_ALL_AXES
100
AcDbLine
 62
7
  6
CONTINUOUS
 10
1036.4476851368
 20
331.8891087546
 11
1036.4476851368
 21
61.8891087546
  0
LINE
  5
29D
100
AcDbEntity
  8
3_ALL_AXES
100
AcDbLine
 62
7
  6
CONTINUOUS
 10
1036.9476851368
 20
258.7235416405
 11
1036.9476851368
 21
62.0176953909
  0
LINE
  5
29E
100
AcDbEntity
  8
0
100
AcDbLine
 62
7
  6
CONTINUOUS
 10
1036.9476851368
 20
59.8891095802
 11
1036.9476851368
 21
62.0176953909
  0
LINE
  5
29F
100
AcDbEntity
  8
0
100
AcDbLine
 62
7
  6
CONTINUOUS
 10
1036.9476851368
 20
258.7235416405
 11
1036.9476851368
 21
411.8891087546
  0
LINE
  5
2A0
100
AcDbEntity
  8
0
100
AcDbLine
 62
9
  6
CONTINUOUS
 10
1044.9476851368
 20
472.8891087546
 11
1044.9476851368
 21
456.8891087546
  0
LINE
  5
2A1
100
AcDbEntity
  8
0
100
AcDbLine
 62
9
  6
CONTINUOUS
 10
1046.9476851368
 20
456.8891087546
 11
1046.9476851368
 21
439.8891087546
  0
LINE
  5
2A2
100
AcDbEntity
  8
0
100
AcDbLine
 62
9
  6
CONTINUOUS
 10
986.0415830565
 20
151.9654139774
 11
987.8477620752
 21
154.2734076701
  0
LINE
  5
2A3
100
AcDbEntity
  8
0
100
AcDbLine
 62
7
  6
CONTINUOUS
 10
939.447691779
 20
106.8891021469
 11
919.4476932118
 21
86.8891006353
  0
LINE
  5
2A4
100
AcDbEntity
  8
3_ALL_AXES
100
AcDbLine
 62
7
  6
CONTINUOUS
 10
1036.9476851368
 20
331.8891087546
 11
1036.4476851368
 21
331.8891087546
  0
LINE
  5
2A5
100
AcDbEntity
  8
0
100
AcDbLine
 62
7
  6
CONTINUOUS
 10
1036.4476851368
 20
331.8891087546
 11
1027.4476851368
 21
331.8891087546
  0
LINE
  5
2A6
100
AcDbEntity
  8
0
100
AcDbLine
 62
9
  6
CONTINUOUS
 10
1066.9476851368
 20
29.8891087546
 11
1066.9476851494
 21
441.8891087546
  0
LINE
  5
2A7
100
AcDbEntity
  8
02___PRT_ALL_AXES
100
AcDbLine
 62
7
  6
CONTINUOUS
 10
1076.9476851368
 20
456.8891087546
 11
1076.9476851368
 21
445.8891087546
  0
LINE
  5
2A8
100
AcDbEntity
  8
0
100
AcDbLine
 62
9
  6
CONTINUOUS
 10
1017.6682293145
 20
124.7407587875
 11
1019.5899860143
 21
127.0080806015
  0
LINE
  5
2A9
100
AcDbEntity
  8
0
100
AcDbLine
 62
9
  6
CONTINUOUS
 10
1017.8709041569
 20
124.5619596687
 11
1019.7936621676
 21
126.8305756442
  0
LINE
  5
2AA
100
AcDbEntity
  8
0
100
AcDbLine
 62
7
  6
CONTINUOUS
 10
774.4476851368
 20
348.8891087546
 11
894.4476851368
 21
348.8891087546
  0
LINE
  5
2AB
100
AcDbEntity
  8
0
100
AcDbLine
 62
7
  6
CONTINUOUS
 10
1106.9476851368
 20
16.8891087546
 11
1106.9476851368
 21
91.3346220225
  0
LINE
  5
2AC
100
AcDbEntity
  8
0
100
AcDbLine
 62
7
  6
CONTINUOUS
 10
1116.9476851368
 20
31.8891087546
 11
1116.9476851368
 21
91.3346220225
  0
LINE
  5
2AD
100
AcDbEntity
  8
02___PRT_ALL_AXES
100
AcDbLine
 62
7
  6
CONTINUOUS
 10
1136.9476851368
 20
445.8891087546
 11
1136.9476851368
 21
456.8891087546
  0
LINE
  5
2AE
100
AcDbEntity
  8
0
100
AcDbLine
 62
9
  6
CONTINUOUS
 10
1144.9476851368
 20
16.8891087546
 11
1144.9476851368
 21
34.8891087546
  0
LINE
  5
2AF
100
AcDbEntity
  8
0
100
AcDbLine
 62
9
  6
CONTINUOUS
 10
1296.9476851368
 20
421.8891087546
 11
1279.9707381461
 21
421.8891087546
  0
LINE
  5
2B0
100
AcDbEntity
  8
0
100
AcDbLine
 62
9
  6
CONTINUOUS
 10
1311.9476851368
 20
423.8891087546
 11
1296.9476851368
 21
423.8891087546
  0
LINE
  5
2B1
100
AcDbEntity
  8
0
100
AcDbLine
 62
7
  6
CONTINUOUS
 10
1156.9476851368
 20
56.4789705518
 11
1156.9476851368
 21
16.8891087546
  0
LINE
  5
2B2
100
AcDbEntity
  8
0
100
AcDbLine
 62
9
  6
CONTINUOUS
 10
1166.9476851368
 20
456.8891087546
 11
1166.9476851368
 21
441.8891087546
  0
LINE
  5
2B3
100
AcDbEntity
  8
0
100
AcDbLine
 62
9
  6
CONTINUOUS
 10
1168.9476851368
 20
472.8891087546
 11
1168.9476851368
 21
456.8891087546
  0
LINE
  5
2B4
100
AcDbEntity
  8
0
100
AcDbLine
 62
7
  6
CONTINUOUS
 10
1056.1773555225
 20
439.8891087546
 11
1026.9476851368
 21
439.8891087546
  0
LINE
  5
2B5
100
AcDbEntity
  8
0
100
AcDbLine
 62
9
  6
CONTINUOUS
 10
1140.6146496514
 20
440.1472877312
 11
1256.9476851368
 21
440.1472877312
  0
LINE
  5
2B6
100
AcDbEntity
  8
0
100
AcDbLine
 62
9
  6
CONTINUOUS
 10
1066.9476851517
 20
440.1473032508
 11
1073.2807206222
 21
440.1472877312
  0
LINE
  5
2B7
100
AcDbEntity
  8
0
100
AcDbLine
 62
7
  6
CONTINUOUS
 10
1309.9476851368
 20
441.8891087546
 11
1140.9476851368
 21
441.8891087546
  0
LINE
  5
2B8
100
AcDbEntity
  8
0
100
AcDbLine
 62
7
  6
CONTINUOUS
 10
1072.9476851368
 20
441.8891087546
 11
1066.9476851368
 21
441.8891087546
  0
LINE
  5
2B9
100
AcDbEntity
  8
0
100
AcDbLine
 62
7
  6
CONTINUOUS
 10
1186.9476851368
 20
456.8891087546
 11
1136.9476851368
 21
456.8891087546
  0
LINE
  5
2BA
100
AcDbEntity
  8
0
100
AcDbLine
 62
7
  6
CONTINUOUS
 10
1076.9478602426
 20
456.8891087546
 11
1026.9476851368
 21
456.8891087546
  0
LINE
  5
2BB
100
AcDbEntity
  8
02___PRT_ALL_AXES
100
AcDbLine
 62
7
  6
CONTINUOUS
 10
1076.9478602426
 20
456.8891087546
 11
1136.947510031
 21
456.8891087546
  0
LINE
  5
2BC
100
AcDbEntity
  8
0
100
AcDbLine
 62
7
  6
CONTINUOUS
 10
1186.9476851368
 20
470.8891087546
 11
1186.9476851368
 21
441.8891087546
  0
LINE
  5
2BD
100
AcDbEntity
  8
0
100
AcDbLine
 62
9
  6
CONTINUOUS
 10
1026.9476851368
 20
470.8891087546
 11
1186.9476851368
 21
470.8891087546
  0
LINE
  5
2BE
100
AcDbEntity
  8
0
100
AcDbLine
 62
7
  6
CONTINUOUS
 10
1028.9476851368
 20
472.8891087546
 11
1184.9476851368
 21
472.8891087546
  0
LINE
  5
2BF
100
AcDbEntity
  8
0
100
AcDbLine
 62
9
  6
CONTINUOUS
 10
1038.0576957345
 20
474.3714706644
 11
1175.8376745391
 21
474.3714706644
  0
LINE
  5
2C0
100
AcDbEntity
  8
0
100
AcDbLine
 62
7
  6
CONTINUOUS
 10
1041.9476851368
 20
488.8891087546
 11
1171.9476851368
 21
488.8891087546
  0
LINE
  5
2C1
100
AcDbEntity
  8
0
100
AcDbLine
 62
7
  6
CONTINUOUS
 10
1313.4300470466
 20
432.6547425039
 11
1334.9476851368
 21
426.8891087546
  0
LINE
  5
2C2
100
AcDbEntity
  8
0
100
AcDbLine
 62
7
  6
CONTINUOUS
 10
1175.8376745391
 20
474.3714706644
 11
1171.9476851368
 21
488.8891087546
  0
LINE
  5
2C3
100
AcDbEntity
  8
0
100
AcDbLine
 62
9
  6
CONTINUOUS
 10
1256.9476851368
 20
440.1472877312
 11
1256.9476851368
 21
29.8891087546
  0
LINE
  5
2C4
100
AcDbEntity
  8
0
100
AcDbLine
 62
7
  6
CONTINUOUS
 10
1286.9476851368
 20
398.9074993189
 11
1286.9476851368
 21
76.8942872909
  0
LINE
  5
2C5
100
AcDbEntity
  8
0
100
AcDbLine
 62
9
  6
CONTINUOUS
 10
1290.9476851368
 20
256.8891087546
 11
1290.9476851368
 21
136.8891087546
  0
LINE
  5
2C6
100
AcDbEntity
  8
0
100
AcDbLine
 62
9
  6
CONTINUOUS
 10
1290.9476851368
 20
96.8891087546
 11
1290.9476851368
 21
74.8463262664
  0
LINE
  5
2C7
100
AcDbEntity
  8
02___PRT_ALL_AXES
100
AcDbLine
 62
7
  6
CONTINUOUS
 10
1296.9476851368
 20
256.8891087546
 11
1296.9476851368
 21
136.8891087546
  0
LINE
  5
2C8
100
AcDbEntity
  8
02___PRT_ALL_AXES
100
AcDbLine
 62
7
  6
CONTINUOUS
 10
1296.9476851368
 20
96.8889336489
 11
1296.9476851368
 21
36.8892838604
  0
LINE
  5
2C9
100
AcDbEntity
  8
0
100
AcDbLine
 62
7
  6
CONTINUOUS
 10
1296.9476851368
 20
281.8891087546
 11
1296.9476851368
 21
441.8891087546
  0
LINE
  5
2CA
100
AcDbEntity
  8
0
100
AcDbLine
 62
9
  6
CONTINUOUS
 10
1309.9476851368
 20
441.8891087546
 11
1309.9476851368
 21
281.8891087546
  0
LINE
  5
2CB
100
AcDbEntity
  8
0
100
AcDbLine
 62
7
  6
CONTINUOUS
 10
1311.9476851368
 20
439.8891087546
 11
1311.9476851368
 21
283.8891087546
  0
LINE
  5
2CC
100
AcDbEntity
  8
0
100
AcDbLine
 62
9
  6
CONTINUOUS
 10
1313.4300470466
 20
432.6547425039
 11
1313.4300470466
 21
291.1234750053
  0
LWPOLYLINE
  5
2CD
100
AcDbEntity
  8
0
100
AcDbPolyline
 62
7
  6
CONTINUOUS
 90
4
 70
0
 10
1275.1805230364
 20
36.0655282836
 10
1275.9496315001
 20
36.5274514493
 10
1277.2179150625
 20
36.8696347234
 10
1277.6115803298
 20
36.8890533058
  0
LINE
  5
2CE
100
AcDbEntity
  8
0
100
AcDbLine
 62
7
  6
CONTINUOUS
 10
1334.9476851368
 20
426.8891087546
 11
1334.9476851368
 21
296.8891087546
  0
LINE
  5
2CF
100
AcDbEntity
  8
0
100
AcDbLine
 62
7
  6
CONTINUOUS
 10
317.5444385186
 20
16.8891087546
 11
267.5444385186
 21
16.8891087546
  0
LINE
  5
2D0
100
AcDbEntity
  8
0
100
AcDbLine
 62
7
  6
CONTINUOUS
 10
77.5444385186
 20
16.8891087546
 11
27.5444385186
 21
16.8891087546
  0
LINE
  5
2D1
100
AcDbEntity
  8
0
100
AcDbLine
 62
7
  6
CONTINUOUS
 10
258.4023028949
 20
29.8891087546
 11
86.6865741424
 21
29.8891087546
  0
LINE
  5
2D2
100
AcDbEntity
  8
0
100
AcDbLine
 62
9
  6
CONTINUOUS
 10
27.5444385186
 20
31.8891087546
 11
74.5444385186
 21
31.8891087546
  0
LINE
  5
2D3
100
AcDbEntity
  8
0
100
AcDbLine
 62
9
  6
CONTINUOUS
 10
270.5444385186
 20
31.8891087546
 11
317.5444385186
 21
31.8891087546
  0
LINE
  5
2D4
100
AcDbEntity
  8
0
100
AcDbLine
 62
7
  6
CONTINUOUS
 10
30.5444385186
 20
34.8891087546
 11
77.5444385186
 21
34.8891087546
  0
LINE
  5
2D5
100
AcDbEntity
  8
0
100
AcDbLine
 62
7
  6
CONTINUOUS
 10
267.5444385186
 20
34.8891087546
 11
314.5444385186
 21
34.8891087546
  0
LINE
  5
2D6
100
AcDbEntity
  8
0
100
AcDbLine
 62
7
  6
CONTINUOUS
 10
22.5444385186
 20
287.6914932766
 11
22.5444385186
 21
196.8891087546
  0
LINE
  5
2D7
100
AcDbEntity
  8
0
100
AcDbLine
 62
9
  6
CONTINUOUS
 10
123.4366264922
 20
76.8942872452
 11
126.8726034995
 21
74.8463191397
  0
LINE
  5
2D8
100
AcDbEntity
  8
0
100
AcDbLine
 62
7
  6
CONTINUOUS
 10
27.5444385186
 20
16.8891087546
 11
27.5444385186
 21
34.8891087546
  0
LINE
  5
2D9
100
AcDbEntity
  8
0
100
AcDbLine
 62
9
  6
CONTINUOUS
 10
39.5444385186
 20
16.8891087546
 11
39.5444385186
 21
34.8891087546
  0
LINE
  5
2DA
100
AcDbEntity
  8
0
100
AcDbLine
 62
9
  6
CONTINUOUS
 10
52.5444385186
 20
287.6914932766
 11
52.5444385186
 21
196.8891087546
  0
LINE
  5
2DB
100
AcDbEntity
  8
0
100
AcDbLine
 62
7
  6
CONTINUOUS
 10
64.5444385186
 20
456.8891087546
 11
64.5444385186
 21
399.9412148798
  0
LINE
  5
2DC
100
AcDbEntity
  8
02___PRT_ALL_AXES
100
AcDbLine
 62
7
  6
CONTINUOUS
 10
77.5444385186
 20
16.8891087546
 11
77.5444385186
 21
20.7469731309
  0
LINE
  5
2DD
100
AcDbEntity
  8
0
100
AcDbLine
 62
9
  6
CONTINUOUS
 10
124.5444385186
 20
132.8891087546
 11
254.5444385186
 21
132.8891087546
  0
LINE
  5
2DE
100
AcDbEntity
  8
02___PRT_ALL_AXES
100
AcDbLine
 62
7
  6
CONTINUOUS
 10
124.5444385186
 20
136.8891087546
 11
254.5444385186
 21
136.8891087546
  0
LINE
  5
2DF
100
AcDbEntity
  8
02___PRT_ALL_AXES
100
AcDbLine
 62
7
  6
CONTINUOUS
 10
247.8816120284
 20
40.4097996212
 11
267.5444385186
 21
20.7469731309
  0
LINE
  5
2E0
100
AcDbEntity
  8
0
100
AcDbLine
 62
9
  6
CONTINUOUS
 10
95.5444385186
 20
231.8891087546
 11
95.5444385186
 21
161.8891087546
  0
LINE
  5
2E1
100
AcDbEntity
  8
02___PRT_ALL_AXES
100
AcDbLine
 62
7
  6
CONTINUOUS
 10
99.5444385186
 20
231.8891087546
 11
99.5444385186
 21
161.8891087546
  0
LINE
  5
2E2
100
AcDbEntity
  8
0
100
AcDbLine
 62
7
  6
CONTINUOUS
 10
270.5444385186
 20
31.8891087546
 11
257.9097410371
 21
44.5238062361
  0
LINE
  5
2E3
100
AcDbEntity
  8
0
100
AcDbLine
 62
7
  6
CONTINUOUS
 10
109.5444385186
 20
423.8891087546
 11
109.5444385186
 21
299.8891087546
  0
LINE
  5
2E4
100
AcDbEntity
  8
0
100
AcDbLine
 62
9
  6
CONTINUOUS
 10
111.5444385186
 20
423.8891087546
 11
111.5444385186
 21
299.8891087546
  0
LINE
  5
2E5
100
AcDbEntity
  8
0
100
AcDbLine
 62
9
  6
CONTINUOUS
 10
283.5444385186
 20
161.8891087546
 11
279.5444385186
 21
161.8891087546
  0
LINE
  5
2E6
100
AcDbEntity
  8
0
100
AcDbLine
 62
9
  6
CONTINUOUS
 10
95.5444385186
 20
161.8891087546
 11
99.5444385186
 21
161.8891087546
  0
LINE
  5
2E7
100
AcDbEntity
  8
0
100
AcDbLine
 62
9
  6
CONTINUOUS
 10
124.5444385186
 20
260.8891087546
 11
124.5444385186
 21
256.8891087546
  0
LINE
  5
2E8
100
AcDbEntity
  8
0
100
AcDbLine
 62
9
  6
CONTINUOUS
 10
124.5444385186
 20
132.8891087546
 11
124.5444385186
 21
136.8891087546
  0
LINE
  5
2E9
100
AcDbEntity
  8
0
100
AcDbLine
 62
9
  6
CONTINUOUS
 10
127.5444385186
 20
283.8891087546
 11
127.5444385186
 21
281.8891087546
  0
LINE
  5
2EA
100
AcDbEntity
  8
0
100
AcDbLine
 62
9
  6
CONTINUOUS
 10
127.5444385186
 20
439.8891087546
 11
127.5444385186
 21
441.8891087546
  0
LINE
  5
2EB
100
AcDbEntity
  8
0
100
AcDbLine
 62
9
  6
CONTINUOUS
 10
129.5444385186
 20
441.8891079479
 11
129.5444385186
 21
445.8891087546
  0
LINE
  5
2EC
100
AcDbEntity
  8
0
100
AcDbLine
 62
7
  6
CONTINUOUS
 10
27.5444385186
 20
34.8891087546
 11
60.1332707984
 21
91.3346220225
  0
LINE
  5
2ED
100
AcDbEntity
  8
0
100
AcDbLine
 62
9
  6
CONTINUOUS
 10
52.5444385186
 20
196.8891087546
 11
22.5444385186
 21
196.8891087547
  0
LINE
  5
2EE
100
AcDbEntity
  8
0
100
AcDbLine
 62
9
  6
CONTINUOUS
 10
326.5444385186
 20
196.8891087546
 11
356.5444385186
 21
196.8891087546
  0
LINE
  5
2EF
100
AcDbEntity
  8
0
100
AcDbLine
 62
7
  6
CONTINUOUS
 10
227.6544491164
 20
474.3714706644
 11
231.5444385186
 21
488.8891087546
  0
LINE
  5
2F0
100
AcDbEntity
  8
0
100
AcDbLine
 62
9
  6
CONTINUOUS
 10
283.5444385186
 20
231.8891087546
 11
279.5444385186
 21
231.8891087546
  0
LINE
  5
2F1
100
AcDbEntity
  8
0
100
AcDbLine
 62
9
  6
CONTINUOUS
 10
95.5444385186
 20
231.8891087546
 11
99.5444385186
 21
231.8891087546
  0
LINE
  5
2F2
100
AcDbEntity
  8
0
100
AcDbLine
 62
7
  6
CONTINUOUS
 10
194.5444385186
 20
456.8891087546
 11
194.5444385186
 21
445.8891087546
  0
LINE
  5
2F3
100
AcDbEntity
  8
0
100
AcDbLine
 62
7
  6
CONTINUOUS
 10
297.5515735464
 20
69.5177666753
 11
317.5444385186
 21
34.8891087546
  0
LINE
  5
2F4
100
AcDbEntity
  8
0
100
AcDbLine
 62
7
  6
CONTINUOUS
 10
216.5444385186
 20
470.8891087546
 11
216.5444385186
 21
441.8891087546
  0
LINE
  5
2F5
100
AcDbEntity
  8
02___PRT_ALL_AXES
100
AcDbLine
 62
7
  6
CONTINUOUS
 10
254.5444385186
 20
256.8891087546
 11
124.5444385186
 21
256.8891087546
  0
LINE
  5
2F6
100
AcDbEntity
  8
0
100
AcDbLine
 62
9
  6
CONTINUOUS
 10
254.5444385186
 20
260.8891087546
 11
124.5444385186
 21
260.8891087546
  0
LINE
  5
2F7
100
AcDbEntity
  8
0
100
AcDbLine
 62
9
  6
CONTINUOUS
 10
234.5444385186
 20
472.8891087546
 11
234.5444385186
 21
456.8891087546
  0
LINE
  5
2F8
100
AcDbEntity
  8
0
100
AcDbLine
 62
9
  6
CONTINUOUS
 10
236.5444385186
 20
456.8891087546
 11
236.5444385186
 21
441.8891087546
  0
LINE
  5
2F9
100
AcDbEntity
  8
0
100
AcDbLine
 62
7
  6
CONTINUOUS
 10
127.5444385186
 20
281.8891087546
 11
251.5444385186
 21
281.8891087546
  0
LINE
  5
2FA
100
AcDbEntity
  8
0
100
AcDbLine
 62
9
  6
CONTINUOUS
 10
127.5444385186
 20
283.8891087546
 11
251.5444385186
 21
283.8891087546
  0
LINE
  5
2FB
100
AcDbEntity
  8
0
100
AcDbLine
 62
9
  6
CONTINUOUS
 10
52.5444385186
 20
287.6914932766
 11
22.5444385186
 21
287.6914932766
  0
LINE
  5
2FC
100
AcDbEntity
  8
0
100
AcDbLine
 62
9
  6
CONTINUOUS
 10
326.5444385186
 20
287.6914932766
 11
356.5444385186
 21
287.6914932755
  0
LINE
  5
2FD
100
AcDbEntity
  8
0
100
AcDbLine
 62
9
  6
CONTINUOUS
 10
251.5444385186
 20
283.8891087546
 11
251.5444385186
 21
281.8891087546
  0
LINE
  5
2FE
100
AcDbEntity
  8
0
100
AcDbLine
 62
9
  6
CONTINUOUS
 10
251.5444385186
 20
439.8891087546
 11
251.5444385186
 21
441.8891087546
  0
LINE
  5
2FF
100
AcDbEntity
  8
0
100
AcDbLine
 62
9
  6
CONTINUOUS
 10
254.5444385186
 20
260.8891087546
 11
254.5444385186
 21
256.8891087546
  0
LINE
  5
300
100
AcDbEntity
  8
0
100
AcDbLine
 62
9
  6
CONTINUOUS
 10
254.5444385186
 20
132.8891087546
 11
254.5444385186
 21
136.8891087546
  0
LINE
  5
301
100
AcDbEntity
  8
0
100
AcDbLine
 62
9
  6
CONTINUOUS
 10
111.5444385186
 20
299.8891087546
 11
109.5444385186
 21
299.8891087546
  0
LINE
  5
302
100
AcDbEntity
  8
0
100
AcDbLine
 62
9
  6
CONTINUOUS
 10
267.5444385186
 20
299.8891087546
 11
269.5444385186
 21
299.8891087546
  0
LINE
  5
303
100
AcDbEntity
  8
02___PRT_ALL_AXES
100
AcDbLine
 62
7
  6
CONTINUOUS
 10
267.5444385186
 20
16.8891087546
 11
267.5444385186
 21
20.7469731309
  0
LINE
  5
304
100
AcDbEntity
  8
0
100
AcDbLine
 62
9
  6
CONTINUOUS
 10
267.5444385186
 20
299.8891087546
 11
267.5444385186
 21
423.8891087546
  0
LINE
  5
305
100
AcDbEntity
  8
0
100
AcDbLine
 62
7
  6
CONTINUOUS
 10
269.5444385186
 20
299.8891087546
 11
269.5444385186
 21
423.8891087546
  0
LINE
  5
306
100
AcDbEntity
  8
02___PRT_ALL_AXES
100
AcDbLine
 62
7
  6
CONTINUOUS
 10
279.5444385186
 20
161.8891087546
 11
279.5444385186
 21
231.8891087546
  0
LINE
  5
307
100
AcDbEntity
  8
0
100
AcDbLine
 62
7
  6
CONTINUOUS
 10
99.1343003158
 20
56.4789705518
 11
74.5444385186
 21
31.8891087546
  0
LINE
  5
308
100
AcDbEntity
  8
02___PRT_ALL_AXES
100
AcDbLine
 62
7
  6
CONTINUOUS
 10
77.5444385186
 20
20.7469731309
 11
107.9671600627
 21
51.169694675
  0
LINE
  5
309
100
AcDbEntity
  8
0
100
AcDbLine
 62
9
  6
CONTINUOUS
 10
283.5444385186
 20
161.8891087546
 11
283.5444385186
 21
231.8891087546
  0
LINE
  5
30A
100
AcDbEntity
  8
0
100
AcDbLine
 62
9
  6
CONTINUOUS
 10
305.5444385186
 20
34.8891087546
 11
305.5444385186
 21
16.8891087546
  0
LINE
  5
30B
100
AcDbEntity
  8
0
100
AcDbLine
 62
7
  6
CONTINUOUS
 10
317.5444385186
 20
16.8891087546
 11
317.5444385186
 21
34.8891087546
  0
LINE
  5
30C
100
AcDbEntity
  8
0
100
AcDbLine
 62
9
  6
CONTINUOUS
 10
326.5444385186
 20
196.8891087546
 11
326.5444385186
 21
287.6914932766
  0
LINE
  5
30D
100
AcDbEntity
  8
0
100
AcDbLine
 62
9
  6
CONTINUOUS
 10
326.5444385186
 20
383.1901843671
 11
326.5444385186
 21
439.8891087546
  0
LINE
  5
30E
100
AcDbEntity
  8
0
100
AcDbLine
 62
7
  6
CONTINUOUS
 10
346.5444385186
 20
344.6124911596
 11
346.5444385186
 21
439.8891087546
  0
LINE
  5
30F
100
AcDbEntity
  8
0
100
AcDbLine
 62
9
  6
CONTINUOUS
 10
356.5444385186
 20
456.8891087546
 11
356.5444385186
 21
439.8891087546
  0
LINE
  5
310
100
AcDbEntity
  8
0
100
AcDbLine
 62
7
  6
CONTINUOUS
 10
356.5444385186
 20
196.8891087546
 11
356.5444385186
 21
287.6914932766
  0
LINE
  5
311
100
AcDbEntity
  8
0
100
AcDbLine
 62
9
  6
CONTINUOUS
 10
358.5444385186
 20
472.8891087546
 11
358.5444385186
 21
456.8891087546
  0
LINE
  5
312
100
AcDbEntity
  8
0
100
AcDbLine
 62
7
  6
CONTINUOUS
 10
376.5444385186
 20
470.8891087546
 11
376.5444385186
 21
439.8891087546
  0
LINE
  5
313
100
AcDbEntity
  8
0
100
AcDbLine
 62
9
  6
CONTINUOUS
 10
111.5444385186
 20
423.8891087546
 11
109.5444385186
 21
423.8891087546
  0
LINE
  5
314
100
AcDbEntity
  8
0
100
AcDbLine
 62
9
  6
CONTINUOUS
 10
267.5444385186
 20
423.8891087546
 11
269.5444385186
 21
423.8891087546
  0
LINE
  5
315
100
AcDbEntity
  8
0
100
AcDbLine
 62
9
  6
CONTINUOUS
 10
255.6522505453
 20
76.8942872446
 11
252.2162900855
 21
74.8463290027
  0
LINE
  5
316
100
AcDbEntity
  8
0
100
AcDbLine
 62
7
  6
CONTINUOUS
 10
376.5444385186
 20
439.8891087546
 11
259.782254719
 21
439.8891087546
  0
LINE
  5
317
100
AcDbEntity
  8
0
100
AcDbLine
 62
9
  6
CONTINUOUS
 10
251.5444385186
 20
439.8891087546
 11
127.5444385186
 21
439.8891087546
  0
LINE
  5
318
100
AcDbEntity
  8
0
100
AcDbLine
 62
7
  6
CONTINUOUS
 10
251.5444385186
 20
441.8891087546
 11
127.5444385186
 21
441.8891087546
  0
LINE
  5
319
100
AcDbEntity
  8
0
100
AcDbLine
 62
9
  6
CONTINUOUS
 10
129.5444385186
 20
445.8891087546
 11
194.5444385186
 21
445.8891087546
  0
LINE
  5
31A
100
AcDbEntity
  8
0
100
AcDbLine
 62
7
  6
CONTINUOUS
 10
376.5444385186
 20
456.8891087546
 11
216.5444385186
 21
456.8891087546
  0
LINE
  5
31B
100
AcDbEntity
  8
02___PRT_ALL_AXES
100
AcDbLine
 62
7
  6
CONTINUOUS
 10
64.5444385186
 20
456.8891087546
 11
194.5444385186
 21
456.8891087546
  0
LINE
  5
31C
100
AcDbEntity
  8
0
100
AcDbLine
 62
9
  6
CONTINUOUS
 10
216.5444385186
 20
470.8891087546
 11
376.5444385186
 21
470.8891087546
  0
LINE
  5
31D
100
AcDbEntity
  8
0
100
AcDbLine
 62
7
  6
CONTINUOUS
 10
365.4344279209
 20
474.3714706644
 11
361.5444385186
 21
488.8891087546
  0
LINE
  5
31E
100
AcDbEntity
  8
0
100
AcDbLine
 62
7
  6
CONTINUOUS
 10
218.5444385186
 20
472.8891087546
 11
374.5444385186
 21
472.8891087546
  0
LINE
  5
31F
100
AcDbEntity
  8
0
100
AcDbLine
 62
9
  6
CONTINUOUS
 10
227.6544491164
 20
474.3714706644
 11
365.4344279209
 21
474.3714706644
  0
LINE
  5
320
100
AcDbEntity
  8
0
100
AcDbLine
 62
7
  6
CONTINUOUS
 10
231.5444385186
 20
488.8891087546
 11
361.5444385186
 21
488.8891087546
  0
LINE
  5
321
100
AcDbEntity
  8
0
100
AcDbLine
 62
7
  6
CONTINUOUS
 10
-957.1810918589
 20
296.8891087546
 11
-957.1810918589
 21
426.8891087546
  0
LINE
  5
322
100
AcDbEntity
  8
0
100
AcDbLine
 62
9
  6
CONTINUOUS
 10
-935.6634537687
 20
291.1234750053
 11
-935.6634537687
 21
432.6547425039
  0
LINE
  5
323
100
AcDbEntity
  8
0
100
AcDbLine
 62
7
  6
CONTINUOUS
 10
-934.1810918589
 20
283.8891087546
 11
-934.1810918589
 21
439.8891087546
  0
LINE
  5
324
100
AcDbEntity
  8
0
100
AcDbLine
 62
9
  6
CONTINUOUS
 10
-932.1810918589
 20
281.8891087546
 11
-932.1810918589
 21
441.8891087546
  0
LINE
  5
325
100
AcDbEntity
  8
02___PRT_ALL_AXES
100
AcDbLine
 62
7
  6
CONTINUOUS
 10
-919.1810918589
 20
36.8892838604
 11
-919.1810918589
 21
96.8889336489
  0
LINE
  5
326
100
AcDbEntity
  8
02___PRT_ALL_AXES
100
AcDbLine
 62
7
  6
CONTINUOUS
 10
-919.1810918589
 20
136.8891087546
 11
-919.1810918589
 21
256.8891087546
  0
LINE
  5
327
100
AcDbEntity
  8
0
100
AcDbLine
 62
7
  6
CONTINUOUS
 10
-919.1810918589
 20
281.8891087546
 11
-919.1810918589
 21
441.8891087546
  0
LINE
  5
328
100
AcDbEntity
  8
0
100
AcDbLine
 62
9
  6
CONTINUOUS
 10
-913.1810918589
 20
74.8463262664
 11
-913.1810918589
 21
96.8891087524
  0
LINE
  5
329
100
AcDbEntity
  8
0
100
AcDbLine
 62
9
  6
CONTINUOUS
 10
-913.1810918589
 20
136.8891087546
 11
-913.1810918589
 21
256.8891087546
  0
LINE
  5
32A
100
AcDbEntity
  8
0
100
AcDbLine
 62
7
  6
CONTINUOUS
 10
-909.1810918589
 20
76.8942872452
 11
-909.1810918589
 21
398.9074993189
  0
LINE
  5
32B
100
AcDbEntity
  8
0
100
AcDbLine
 62
9
  6
CONTINUOUS
 10
-879.1810918589
 20
29.8891087546
 11
-879.1810918589
 21
440.1472877312
  0
LINE
  5
32C
100
AcDbEntity
  8
0
100
AcDbLine
 62
7
  6
CONTINUOUS
 10
-798.0710812612
 20
474.3714706644
 11
-794.1810918589
 21
488.8891087546
  0
LINE
  5
32D
100
AcDbEntity
  8
0
100
AcDbLine
 62
7
  6
CONTINUOUS
 10
-329.1810918589
 20
16.8891087546
 11
-514.1810918589
 21
16.8891087546
  0
LINE
  5
32E
100
AcDbEntity
  8
0
100
AcDbLine
 62
7
  6
CONTINUOUS
 10
-729.1810918589
 20
16.8891087546
 11
-779.1810918589
 21
16.8891087546
  0
LINE
  5
32F
100
AcDbEntity
  8
0
100
AcDbLine
 62
3
  6
CONTINUOUS
 10
-329.1810918589
 20
19.8891087546
 11
-514.1810918589
 21
19.8891087546
  0
LINE
  5
330
100
AcDbEntity
  8
0
100
AcDbLine
 62
9
  6
CONTINUOUS
 10
-329.1810918589
 20
22.8891087546
 11
-514.1810918589
 21
22.8891087546
  0
LWPOLYLINE
  5
331
100
AcDbEntity
  8
0
100
AcDbPolyline
 62
7
  6
CONTINUOUS
 90
4
 70
0
 10
-899.8449870519
 20
36.8890533058
 10
-899.4513217845
 20
36.8696347234
 10
-898.1830382222
 20
36.5274514493
 10
-897.4139297584
 20
36.0655282836
  0
LINE
  5
332
100
AcDbEntity
  8
0
100
AcDbLine
 62
7
  6
CONTINUOUS
 10
-809.1810918589
 20
470.8891087546
 11
-809.1810918589
 21
439.8891087546
  0
LINE
  5
333
100
AcDbEntity
  8
0
100
AcDbLine
 62
7
  6
CONTINUOUS
 10
-879.1810918589
 20
29.8891087546
 11
-779.1810918589
 21
29.8891087546
  0
LINE
  5
334
100
AcDbEntity
  8
0
100
AcDbLine
 62
7
  6
CONTINUOUS
 10
-729.1810918589
 20
29.8891087546
 11
-689.1810918589
 21
29.8891087546
  0
LINE
  5
335
100
AcDbEntity
  8
0
100
AcDbLine
 62
9
  6
CONTINUOUS
 10
-779.1810918589
 20
31.8891087546
 11
-739.1810918589
 21
31.8891087546
  0
LINE
  5
336
100
AcDbEntity
  8
0
100
AcDbLine
 62
7
  6
CONTINUOUS
 10
-729.1810918589
 20
34.8891087546
 11
-776.1810918589
 21
34.8891087546
  0
LINE
  5
337
100
AcDbEntity
  8
02___PRT_ALL_AXES
100
AcDbLine
 62
7
  6
CONTINUOUS
 10
-919.1810918589
 20
36.8891087546
 11
-899.8449872676
 21
36.8891087546
  0
LINE
  5
338
100
AcDbEntity
  8
0
100
AcDbLine
 62
7
  6
CONTINUOUS
 10
-779.1810918589
 20
44.5238062361
 11
-739.1810918589
 21
44.5238062361
  0
LINE
  5
339
100
AcDbEntity
  8
0
100
AcDbLine
 62
9
  6
CONTINUOUS
 10
-791.1810918589
 20
472.8891087546
 11
-791.1810918589
 21
456.8891087546
  0
LINE
  5
33A
100
AcDbEntity
  8
0
100
AcDbLine
 62
9
  6
CONTINUOUS
 10
-789.1810918589
 20
456.8891087546
 11
-789.1810918589
 21
439.8891087546
  0
LINE
  5
33B
100
AcDbEntity
  8
0
100
AcDbLine
 62
7
  6
CONTINUOUS
 10
-779.1810918589
 20
16.8891087546
 11
-779.1810918589
 21
44.5238062361
  0
LINE
  5
33C
100
AcDbEntity
  8
0
100
AcDbLine
 62
7
  6
CONTINUOUS
 10
-779.1810918589
 20
383.1901843671
 11
-779.1810918589
 21
439.8891087546
  0
LINE
  5
33D
100
AcDbEntity
  8
0
100
AcDbLine
 62
9
  6
CONTINUOUS
 10
-767.1810918589
 20
16.8891087546
 11
-767.1810918589
 21
34.8891087546
  0
LINE
  5
33E
100
AcDbEntity
  8
3_ALL_AXES
100
AcDbLine
 62
7
  6
CONTINUOUS
 10
-659.1810918589
 20
61.8891087546
 11
-658.6810918589
 21
61.8891087546
  0
LINE
  5
33F
100
AcDbEntity
  8
0
100
AcDbLine
 62
7
  6
CONTINUOUS
 10
-658.6810918589
 20
61.8891087546
 11
-649.6810918589
 21
61.8891087546
  0
LINE
  5
340
100
AcDbEntity
  8
0
100
AcDbLine
 62
7
  6
CONTINUOUS
 10
-739.1810918589
 20
69.5177666753
 11
-729.1810918589
 21
69.5177666753
  0
LINE
  5
341
100
AcDbEntity
  8
0
100
AcDbLine
 62
9
  6
CONTINUOUS
 10
-329.1810918589
 20
78.8891087546
 11
-514.1810918589
 21
78.8891087546
  0
LINE
  5
342
100
AcDbEntity
  8
0
100
AcDbLine
 62
9
  6
CONTINUOUS
 10
-759.1810918589
 20
344.6124911596
 11
-759.1810918589
 21
439.8891087546
  0
LINE
  5
343
100
AcDbEntity
  8
0
100
AcDbLine
 62
7
  6
CONTINUOUS
 10
-739.1810918589
 20
31.8891087546
 11
-739.1810918589
 21
69.5177666753
  0
LINE
  5
344
100
AcDbEntity
  8
0
100
AcDbLine
 62
7
  6
CONTINUOUS
 10
-509.6810918589
 20
84.8891087546
 11
-333.6810918589
 21
84.8891087546
  0
LINE
  5
345
100
AcDbEntity
  8
0
100
AcDbLine
 62
3
  6
CONTINUOUS
 10
-329.1810918589
 20
84.8891087546
 11
-333.6810918589
 21
84.8891087546
  0
LINE
  5
346
100
AcDbEntity
  8
0
100
AcDbLine
 62
3
  6
CONTINUOUS
 10
-509.6810918589
 20
84.8891087546
 11
-514.1810918589
 21
84.8891087546
  0
LINE
  5
347
100
AcDbEntity
  8
02___PRT_ALL_AXES
100
AcDbLine
 62
7
  6
CONTINUOUS
 10
-263.9653421421
 20
86.8891087546
 11
-300.6810918589
 21
86.8891087546
  0
LINE
  5
348
100
AcDbEntity
  8
02___PRT_ALL_AXES
100
AcDbLine
 62
7
  6
CONTINUOUS
 10
-310.6810918589
 20
86.8891087546
 11
-333.6810918589
 21
86.8891087546
  0
LINE
  5
349
100
AcDbEntity
  8
02___PRT_ALL_AXES
100
AcDbLine
 62
7
  6
CONTINUOUS
 10
-509.6810918589
 20
86.8891087546
 11
-541.6810918145
 21
86.8891087546
  0
LINE
  5
34A
100
AcDbEntity
  8
0
100
AcDbLine
 62
7
  6
CONTINUOUS
 10
-643.6810918589
 20
96.8891087546
 11
-562.6810918589
 21
96.8891087546
  0
LINE
  5
34B
100
AcDbEntity
  8
0
100
AcDbLine
 62
7
  6
CONTINUOUS
 10
-509.6810918589
 20
96.8891087546
 11
-333.6810918589
 21
96.8891087546
  0
LINE
  5
34C
100
AcDbEntity
  8
02___PRT_ALL_AXES
100
AcDbLine
 62
7
  6
CONTINUOUS
 10
-913.1810918589
 20
96.8891087546
 11
-919.1810918589
 21
96.8891087546
  0
LINE
  5
34D
100
AcDbEntity
  8
0
100
AcDbLine
 62
9
  6
CONTINUOUS
 10
-576.6810918589
 20
98.8891087546
 11
-647.6810918589
 21
98.8891087544
  0
LINE
  5
34E
100
AcDbEntity
  8
0
100
AcDbLine
 62
7
  6
CONTINUOUS
 10
-641.6810918589
 20
106.8891087546
 11
-579.6810918589
 21
106.8891087546
  0
LINE
  5
34F
100
AcDbEntity
  8
0
100
AcDbLine
 62
9
  6
CONTINUOUS
 10
-645.6789132957
 20
108.0161254084
 11
-647.6810918589
 21
108.0161254081
  0
LINE
  5
350
100
AcDbEntity
  8
0
100
AcDbLine
 62
9
  6
CONTINUOUS
 10
-576.6810918589
 20
109.8891087546
 11
-644.6810918589
 21
109.8891087546
  0
LINE
  5
351
100
AcDbEntity
  8
0
100
AcDbLine
 62
7
  6
CONTINUOUS
 10
-729.1810918589
 20
16.8891087546
 11
-729.1810918589
 21
69.5177666753
  0
LINE
  5
352
100
AcDbEntity
  8
0
100
AcDbLine
 62
9
  6
CONTINUOUS
 10
-644.6810918589
 20
126.8891177474
 11
-647.6810918589
 21
126.8891087546
  0
LINE
  5
353
100
AcDbEntity
  8
0
100
AcDbLine
 62
7
  6
CONTINUOUS
 10
-919.1810918589
 20
136.8891087546
 11
-913.1810918589
 21
136.8891087546
  0
LINE
  5
354
100
AcDbEntity
  8
0
100
AcDbLine
 62
9
  6
CONTINUOUS
 10
-561.6810918589
 20
136.8891087546
 11
-576.6810918589
 21
136.8891087546
  0
LINE
  5
355
100
AcDbEntity
  8
02___PRT_ALL_AXES
100
AcDbLine
 62
7
  6
CONTINUOUS
 10
-913.1810918589
 20
136.8891087546
 11
-919.1810918589
 21
136.8891087546
  0
LINE
  5
356
100
AcDbEntity
  8
0
100
AcDbLine
 62
9
  6
CONTINUOUS
 10
-641.6857127622
 20
120.6911501079
 11
-644.6810918589
 21
120.8575954954
  0
LINE
  5
357
100
AcDbEntity
  8
0
100
AcDbLine
 62
9
  6
CONTINUOUS
 10
-640.104310879
 20
124.5619596687
 11
-642.0270688896
 21
126.8305756442
  0
LINE
  5
358
100
AcDbEntity
  8
0
100
AcDbLine
 62
9
  6
CONTINUOUS
 10
-639.9016360107
 20
124.7407588094
 11
-641.8233927364
 21
127.0080806015
  0
LINE
  5
359
100
AcDbEntity
  8
0
100
AcDbLine
 62
9
  6
CONTINUOUS
 10
-699.1810918589
 20
344.6124911596
 11
-699.1810918589
 21
439.8891087546
  0
LINE
  5
35A
100
AcDbEntity
  8
0
100
AcDbLine
 62
9
  6
CONTINUOUS
 10
-689.1810918589
 20
29.8891087546
 11
-689.1810918589
 21
351.5208030587
  0
LINE
  5
35B
100
AcDbEntity
  8
0
100
AcDbLine
 62
7
  6
CONTINUOUS
 10
-679.1810918589
 20
380.1571102474
 11
-679.1810918589
 21
439.8891087546
  0
LINE
  5
35C
100
AcDbEntity
  8
0
100
AcDbLine
 62
9
  6
CONTINUOUS
 10
-579.6322312263
 20
151.7040433826
 11
-576.6810918589
 21
152.2432802821
  0
LINE
  5
35D
100
AcDbEntity
  8
0
100
AcDbLine
 62
9
  6
CONTINUOUS
 10
-580.6810918589
 20
153.2857831934
 11
-604.9388679198
 21
153.2857831934
  0
LINE
  5
35E
100
AcDbEntity
  8
0
100
AcDbLine
 62
9
  6
CONTINUOUS
 10
-580.6810918589
 20
156.1607277359
 11
-604.9388679198
 21
156.1607277359
  0
LINE
  5
35F
100
AcDbEntity
  8
0
100
AcDbLine
 62
9
  6
CONTINUOUS
 10
-909.1810918589
 20
161.8891087546
 11
-919.1810918589
 21
161.8891087546
  0
LINE
  5
360
100
AcDbEntity
  8
0
100
AcDbLine
 62
9
  6
CONTINUOUS
 10
-669.1810918589
 20
456.8891087546
 11
-669.1810918589
 21
439.8891087546
  0
LINE
  5
361
100
AcDbEntity
  8
0
100
AcDbLine
 62
9
  6
CONTINUOUS
 10
-667.1810918589
 20
472.8891087546
 11
-667.1810918589
 21
456.8891087546
  0
LINE
  5
362
100
AcDbEntity
  8
0
100
AcDbLine
 62
7
  6
CONTINUOUS
 10
-659.1810918589
 20
411.8891087546
 11
-659.1810918589
 21
59.8891095802
  0
LINE
  5
363
100
AcDbEntity
  8
3_ALL_AXES
100
AcDbLine
 62
7
  6
CONTINUOUS
 10
-658.6810918589
 20
61.8891087546
 11
-658.6810918589
 21
331.8891087546
  0
LINE
  5
364
100
AcDbEntity
  8
0
100
AcDbLine
 62
7
  6
CONTINUOUS
 10
-658.6810918589
 20
61.8891087546
 11
-658.6810918589
 21
331.8891087546
  0
LINE
  5
365
100
AcDbEntity
  8
0
100
AcDbLine
 62
9
  6
CONTINUOUS
 10
-647.6810918589
 20
188.8891087546
 11
-644.6810918589
 21
188.8891087546
  0
LINE
  5
366
100
AcDbEntity
  8
0
100
AcDbLine
 62
9
  6
CONTINUOUS
 10
-576.6810918589
 20
188.8891087546
 11
-574.6810918589
 21
188.8891087544
  0
LINE
  5
367
100
AcDbEntity
  8
0
100
AcDbLine
 62
9
  6
CONTINUOUS
 10
-604.9388679198
 20
189.4165812821
 11
-580.6810918589
 21
189.4165812821
  0
LINE
  5
368
100
AcDbEntity
  8
0
100
AcDbLine
 62
7
  6
CONTINUOUS
 10
-579.6810918589
 20
191.8891087546
 11
-644.6810918589
 21
191.8891087546
  0
LINE
  5
369
100
AcDbEntity
  8
0
100
AcDbLine
 62
9
  6
CONTINUOUS
 10
-579.6810918589
 20
193.8891087546
 11
-647.6810918589
 21
193.8891087548
  0
LINE
  5
36A
100
AcDbEntity
  8
0
100
AcDbLine
 62
9
  6
CONTINUOUS
 10
-659.1810918589
 20
196.8891087546
 11
-909.1810918589
 21
196.8891087546
  0
LINE
  5
36B
100
AcDbEntity
  8
0
100
AcDbLine
 62
7
  6
CONTINUOUS
 10
-561.681098501
 20
106.8891021469
 11
-541.6810999339
 21
86.8891006353
  0
LINE
  5
36C
100
AcDbEntity
  8
0
100
AcDbLine
 62
9
  6
CONTINUOUS
 10
-608.274992774
 20
151.9654116328
 11
-610.0811687973
 21
154.2734076583
  0
LINE
  5
36D
100
AcDbEntity
  8
0
100
AcDbLine
 62
9
  6
CONTINUOUS
 10
-649.6810918589
 20
61.8891087546
 11
-649.6810918589
 21
331.8891087546
  0
LINE
  5
36E
100
AcDbEntity
  8
0
100
AcDbLine
 62
7
  6
CONTINUOUS
 10
-649.1810918589
 20
470.8891087546
 11
-649.1810918589
 21
439.8891087546
  0
LINE
  5
36F
100
AcDbEntity
  8
0
100
AcDbLine
 62
7
  6
CONTINUOUS
 10
-647.6810918589
 20
63.8891087546
 11
-647.6810918589
 21
329.8891087546
  0
LINE
  5
370
100
AcDbEntity
  8
0
100
AcDbLine
 62
9
  6
CONTINUOUS
 10
-646.1810918575
 20
266.8891087546
 11
-646.1810918589
 21
204.8891087546
  0
LINE
  5
371
100
AcDbEntity
  8
0
100
AcDbLine
 62
9
  6
CONTINUOUS
 10
-646.1810918589
 20
188.8891087546
 11
-646.1810918575
 21
126.8891087538
  0
LINE
  5
372
100
AcDbEntity
  8
0
100
AcDbLine
 62
7
  6
CONTINUOUS
 10
-644.6810918589
 20
283.8891087546
 11
-644.6810918589
 21
204.8891087546
  0
LINE
  5
373
100
AcDbEntity
  8
0
100
AcDbLine
 62
7
  6
CONTINUOUS
 10
-644.6810918589
 20
188.8891087546
 11
-644.6810918589
 21
109.8891087546
  0
LINE
  5
374
100
AcDbEntity
  8
0
100
AcDbLine
 62
9
  6
CONTINUOUS
 10
-644.6810918589
 20
191.8891087546
 11
-644.6810918589
 21
201.8891087546
  0
LINE
  5
375
100
AcDbEntity
  8
0
100
AcDbLine
 62
9
  6
CONTINUOUS
 10
-643.6810918589
 20
96.8891087546
 11
-643.6810918589
 21
105.1954912749
  0
LINE
  5
376
100
AcDbEntity
  8
0
100
AcDbLine
 62
9
  6
CONTINUOUS
 10
-643.6810918589
 20
288.5827259947
 11
-643.6810918589
 21
296.8891087546
  0
LINE
  5
377
100
AcDbEntity
  8
0
100
AcDbLine
 62
9
  6
CONTINUOUS
 10
-641.8233927364
 20
266.7701369078
 11
-641.8233927364
 21
204.6383052575
  0
LINE
  5
378
100
AcDbEntity
  8
0
100
AcDbLine
 62
9
  6
CONTINUOUS
 10
-641.8233927364
 20
189.1399122518
 11
-641.8233927364
 21
127.0080806015
  0
LINE
  5
379
100
AcDbEntity
  8
0
100
AcDbLine
 62
9
  6
CONTINUOUS
 10
-641.6810918589
 20
120.4051822832
 11
-641.6810918589
 21
104.8890842544
  0
LINE
  5
37A
100
AcDbEntity
  8
0
100
AcDbLine
 62
9
  6
CONTINUOUS
 10
-641.6810918589
 20
273.3730352261
 11
-641.6810918589
 21
288.889133251
  0
LINE
  5
37B
100
AcDbEntity
  8
0
100
AcDbLine
 62
9
  6
CONTINUOUS
 10
-642.0270688896
 20
266.947641865
 11
-640.104310879
 21
269.2162578406
  0
LINE
  5
37C
100
AcDbEntity
  8
0
100
AcDbLine
 62
9
  6
CONTINUOUS
 10
-641.8233927364
 20
266.7701369078
 11
-639.9016360366
 21
269.0374587218
  0
LINE
  5
37D
100
AcDbEntity
  8
0
100
AcDbLine
 62
9
  6
CONTINUOUS
 10
-579.6810918589
 20
199.8891087546
 11
-647.6810918589
 21
199.8891087544
  0
LINE
  5
37E
100
AcDbEntity
  8
0
100
AcDbLine
 62
7
  6
CONTINUOUS
 10
-644.6810918589
 20
201.8891087546
 11
-579.6810918589
 21
201.8891087546
  0
LINE
  5
37F
100
AcDbEntity
  8
0
100
AcDbLine
 62
9
  6
CONTINUOUS
 10
-580.6810918589
 20
204.3616362272
 11
-604.9388679198
 21
204.3616362272
  0
LINE
  5
380
100
AcDbEntity
  8
0
100
AcDbLine
 62
9
  6
CONTINUOUS
 10
-576.6810918589
 20
204.8891087546
 11
-574.6810918589
 21
204.8891087546
  0
LINE
  5
381
100
AcDbEntity
  8
0
100
AcDbLine
 62
9
  6
CONTINUOUS
 10
-644.6810918589
 20
204.8891087546
 11
-647.6810918589
 21
204.8891087546
  0
LINE
  5
382
100
AcDbEntity
  8
0
100
AcDbLine
 62
7
  6
CONTINUOUS
 10
-935.6634537687
 20
291.1234750053
 11
-957.1810918589
 21
296.8891087546
  0
LINE
  5
383
100
AcDbEntity
  8
0
100
AcDbLine
 62
9
  6
CONTINUOUS
 10
-610.0811687973
 20
239.5048098392
 11
-610.0811687973
 21
204.4951693037
  0
LINE
  5
384
100
AcDbEntity
  8
0
100
AcDbLine
 62
9
  6
CONTINUOUS
 10
-610.0811687973
 20
189.2830482056
 11
-610.0811687973
 21
154.2734076583
  0
LINE
  5
385
100
AcDbEntity
  8
0
100
AcDbLine
 62
9
  6
CONTINUOUS
 10
-604.9388679198
 20
153.2857831934
 11
-604.9388679198
 21
191.8891087546
  0
LINE
  5
386
100
AcDbEntity
  8
0
100
AcDbLine
 62
9
  6
CONTINUOUS
 10
-604.9388679198
 20
201.8891087546
 11
-604.9388679198
 21
240.4924343159
  0
LINE
  5
387
100
AcDbEntity
  8
0
100
AcDbLine
 62
9
  6
CONTINUOUS
 10
-610.0811687973
 20
239.5048098392
 11
-608.2749897786
 21
241.8128035319
  0
LINE
  5
388
100
AcDbEntity
  8
0
100
AcDbLine
 62
7
  6
CONTINUOUS
 10
-561.681098501
 20
286.8891153624
 11
-541.6810999339
 21
306.889116874
  0
LINE
  5
389
100
AcDbEntity
  8
0
100
AcDbLine
 62
9
  6
CONTINUOUS
 10
-909.1810918589
 20
231.8891087546
 11
-919.1810918589
 21
231.8891087546
  0
LINE
  5
38A
100
AcDbEntity
  8
0
100
AcDbLine
 62
9
  6
CONTINUOUS
 10
-604.9388679198
 20
237.6174897734
 11
-580.6810918589
 21
237.6174897734
  0
LINE
  5
38B
100
AcDbEntity
  8
0
100
AcDbLine
 62
9
  6
CONTINUOUS
 10
-604.9388679198
 20
240.4924343159
 11
-580.6810918589
 21
240.4924343159
  0
LINE
  5
38C
100
AcDbEntity
  8
0
100
AcDbLine
 62
9
  6
CONTINUOUS
 10
-576.6810918589
 20
241.5349372272
 11
-579.6322312263
 21
242.0741741267
  0
LINE
  5
38D
100
AcDbEntity
  8
0
100
AcDbLine
 62
7
  6
CONTINUOUS
 10
-660.2911024566
 20
474.3714706644
 11
-664.1810918589
 21
488.8891087546
  0
LINE
  5
38E
100
AcDbEntity
  8
0
100
AcDbLine
 62
9
  6
CONTINUOUS
 10
-580.6810918589
 20
153.2857831934
 11
-580.6810918589
 21
191.8891087546
  0
LINE
  5
38F
100
AcDbEntity
  8
0
100
AcDbLine
 62
9
  6
CONTINUOUS
 10
-580.6810918589
 20
201.8891087546
 11
-580.6810918589
 21
240.4924343159
  0
LINE
  5
390
100
AcDbEntity
  8
0
100
AcDbLine
 62
9
  6
CONTINUOUS
 10
-579.6810918589
 20
201.8891087546
 11
-579.6810918591
 21
199.8891087547
  0
LINE
  5
391
100
AcDbEntity
  8
0
100
AcDbLine
 62
9
  6
CONTINUOUS
 10
-579.6810918591
 20
96.8891087546
 11
-579.6810918589
 21
151.477105936
  0
LINE
  5
392
100
AcDbEntity
  8
0
100
AcDbLine
 62
9
  6
CONTINUOUS
 10
-579.6810918589
 20
191.8891087546
 11
-579.6810918589
 21
193.8891087546
  0
LINE
  5
393
100
AcDbEntity
  8
0
100
AcDbLine
 62
9
  6
CONTINUOUS
 10
-579.6810918589
 20
242.3011115733
 11
-579.6810918589
 21
296.8891087546
  0
LINE
  5
394
100
AcDbEntity
  8
0
100
AcDbLine
 62
7
  6
CONTINUOUS
 10
-576.6810918589
 20
98.8891087546
 11
-576.6810918589
 21
188.8891087546
  0
LINE
  5
395
100
AcDbEntity
  8
0
100
AcDbLine
 62
7
  6
CONTINUOUS
 10
-576.6810918589
 20
204.8891087546
 11
-576.6810918589
 21
294.8891087546
  0
LINE
  5
396
100
AcDbEntity
  8
0
100
AcDbLine
 62
9
  6
CONTINUOUS
 10
-574.6810918589
 20
96.8891087546
 11
-574.6810918589
 21
188.8891087546
  0
LINE
  5
397
100
AcDbEntity
  8
0
100
AcDbLine
 62
9
  6
CONTINUOUS
 10
-574.6810918589
 20
204.8891087546
 11
-574.6810918589
 21
296.8891087546
  0
LINE
  5
398
100
AcDbEntity
  8
0
100
AcDbLine
 62
9
  6
CONTINUOUS
 10
-644.6810918589
 20
272.9206220138
 11
-641.6857127622
 21
273.0870674014
  0
LINE
  5
399
100
AcDbEntity
  8
0
100
AcDbLine
 62
7
  6
CONTINUOUS
 10
-919.1810918589
 20
256.8891087546
 11
-913.1810918589
 21
256.8891087546
  0
LINE
  5
39A
100
AcDbEntity
  8
0
100
AcDbLine
 62
9
  6
CONTINUOUS
 10
-561.6810918589
 20
256.8891087546
 11
-576.6810918589
 21
256.8891087546
  0
LINE
  5
39B
100
AcDbEntity
  8
0
100
AcDbLine
 62
9
  6
CONTINUOUS
 10
-647.6810918589
 20
266.8891087546
 11
-644.6810918589
 21
266.8890997252
  0
LINE
  5
39C
100
AcDbEntity
  8
0
100
AcDbLine
 62
7
  6
CONTINUOUS
 10
-932.1810918589
 20
281.8891087546
 11
-909.1810918589
 21
281.8891087546
  0
LINE
  5
39D
100
AcDbEntity
  8
0
100
AcDbLine
 62
9
  6
CONTINUOUS
 10
-576.6810918589
 20
283.8891087546
 11
-644.6810918589
 21
283.8891087546
  0
LINE
  5
39E
100
AcDbEntity
  8
0
100
AcDbLine
 62
9
  6
CONTINUOUS
 10
-562.6810918589
 20
296.8891087546
 11
-562.6810918589
 21
96.8891087546
  0
LINE
  5
39F
100
AcDbEntity
  8
0
100
AcDbLine
 62
7
  6
CONTINUOUS
 10
-561.6810918589
 20
97.0606816299
 11
-561.6810918589
 21
296.7175358794
  0
LINE
  5
3A0
100
AcDbEntity
  8
0
100
AcDbLine
 62
7
  6
CONTINUOUS
 10
-541.6810919124
 20
86.8891087546
 11
-541.6810919124
 21
306.8891087546
  0
LINE
  5
3A1
100
AcDbEntity
  8
0
100
AcDbLine
 62
9
  6
CONTINUOUS
 10
-647.6810918589
 20
285.7620921012
 11
-645.6789131487
 21
285.7620921008
  0
LINE
  5
3A2
100
AcDbEntity
  8
0
100
AcDbLine
 62
7
  6
CONTINUOUS
 10
-579.6810918589
 20
286.8891087546
 11
-641.6810918589
 21
286.8891087546
  0
LINE
  5
3A3
100
AcDbEntity
  8
0
100
AcDbLine
 62
9
  6
CONTINUOUS
 10
-659.1810918589
 20
287.6914932766
 11
-909.1810918589
 21
287.6914932766
  0
LINE
  5
3A4
100
AcDbEntity
  8
0
100
AcDbLine
 62
7
  6
CONTINUOUS
 10
-396.6810918589
 20
289.0845533276
 11
-516.6810918589
 21
289.0845533276
  0
LINE
  5
3A5
100
AcDbEntity
  8
0
100
AcDbLine
 62
9
  6
CONTINUOUS
 10
-576.6810918589
 20
294.8891087546
 11
-647.6810918589
 21
294.8891087549
  0
LINE
  5
3A6
100
AcDbEntity
  8
3_ALL_AXES
100
AcDbLine
 62
7
  6
CONTINUOUS
 10
-574.6810918589
 20
296.8891087546
 11
-562.6810918589
 21
296.8891087546
  0
LINE
  5
3A7
100
AcDbEntity
  8
0
100
AcDbLine
 62
7
  6
CONTINUOUS
 10
-562.6810918589
 20
296.8891087546
 11
-643.6810918589
 21
296.8891087546
  0
LINE
  5
3A8
100
AcDbEntity
  8
0
100
AcDbLine
 62
9
  6
CONTINUOUS
 10
-934.1810918589
 20
299.8891087546
 11
-919.1810918589
 21
299.8891087546
  0
LINE
  5
3A9
100
AcDbEntity
  8
0
100
AcDbLine
 62
9
  6
CONTINUOUS
 10
-919.1810918589
 20
301.8891087546
 11
-909.1810918589
 21
301.8891087546
  0
LINE
  5
3AA
100
AcDbEntity
  8
02___PRT_ALL_AXES
100
AcDbLine
 62
7
  6
CONTINUOUS
 10
-263.9653421421
 20
306.8891087546
 11
-300.6810918589
 21
306.8891087546
  0
LINE
  5
3AB
100
AcDbEntity
  8
02___PRT_ALL_AXES
100
AcDbLine
 62
7
  6
CONTINUOUS
 10
-310.6810918589
 20
306.8891087546
 11
-396.6810918589
 21
306.8891087546
  0
LINE
  5
3AC
100
AcDbEntity
  8
02___PRT_ALL_AXES
100
AcDbLine
 62
7
  6
CONTINUOUS
 10
-516.6810918589
 20
306.8891087546
 11
-541.6810918145
 21
306.8891087546
  0
LINE
  5
3AD
100
AcDbEntity
  8
0
100
AcDbLine
 62
7
  6
CONTINUOUS
 10
-516.6810918589
 20
289.0845533276
 11
-516.6810918589
 21
348.8891087546
  0
LINE
  5
3AE
100
AcDbEntity
  8
0
100
AcDbLine
 62
7
  6
CONTINUOUS
 10
-514.1810918589
 20
16.8891087546
 11
-514.1810918589
 21
19.8891087546
  0
LINE
  5
3AF
100
AcDbEntity
  8
0
100
AcDbLine
 62
3
  6
CONTINUOUS
 10
-514.1810918589
 20
19.8891087546
 11
-514.1810918589
 21
84.8891087546
  0
LINE
  5
3B0
100
AcDbEntity
  8
0
100
AcDbLine
 62
7
  6
CONTINUOUS
 10
-509.6810918589
 20
84.8891087546
 11
-509.6810918589
 21
96.8891087546
  0
LINE
  5
3B1
100
AcDbEntity
  8
3_ALL_AXES
100
AcDbLine
 62
7
  6
CONTINUOUS
 10
-659.1810918589
 20
331.8891087546
 11
-658.6810918589
 21
331.8891087546
  0
LINE
  5
3B2
100
AcDbEntity
  8
0
100
AcDbLine
 62
7
  6
CONTINUOUS
 10
-658.6810918589
 20
331.8891087546
 11
-649.6810918589
 21
331.8891087546
  0
LINE
  5
3B3
100
AcDbEntity
  8
0
100
AcDbLine
 62
9
  6
CONTINUOUS
 10
-499.1810918589
 20
16.8891087546
 11
-499.1810918589
 21
19.8891087546
  0
LINE
  5
3B4
100
AcDbEntity
  8
0
100
AcDbLine
 62
7
  6
CONTINUOUS
 10
-759.1810918589
 20
344.6124911596
 11
-699.1810918589
 21
344.6124911596
  0
LINE
  5
3B5
100
AcDbEntity
  8
0
100
AcDbLine
 62
7
  6
CONTINUOUS
 10
-516.6810918589
 20
348.8891087546
 11
-396.6810918589
 21
348.8891087546
  0
LINE
  5
3B6
100
AcDbEntity
  8
0
100
AcDbLine
 62
9
  6
CONTINUOUS
 10
-902.2041448682
 20
421.8891087546
 11
-919.1810918589
 21
421.8891087546
  0
LINE
  5
3B7
100
AcDbEntity
  8
0
100
AcDbLine
 62
9
  6
CONTINUOUS
 10
-934.1810918589
 20
423.8891087546
 11
-919.1810918589
 21
423.8891087546
  0
LINE
  5
3B8
100
AcDbEntity
  8
0
100
AcDbLine
 62
7
  6
CONTINUOUS
 10
-396.6810918589
 20
289.0845533276
 11
-396.6810918589
 21
348.8891087546
  0
LINE
  5
3B9
100
AcDbEntity
  8
0
100
AcDbLine
 62
7
  6
CONTINUOUS
 10
-649.1810918589
 20
439.8891087546
 11
-809.1810918589
 21
439.8891087546
  0
LINE
  5
3BA
100
AcDbEntity
  8
0
100
AcDbLine
 62
9
  6
CONTINUOUS
 10
-809.1810918589
 20
440.1472877312
 11
-879.1810918589
 21
440.1472877312
  0
LINE
  5
3BB
100
AcDbEntity
  8
0
100
AcDbLine
 62
7
  6
CONTINUOUS
 10
-932.1810918589
 20
441.8891087546
 11
-809.1810918589
 21
441.8891087546
  0
LINE
  5
3BC
100
AcDbEntity
  8
0
100
AcDbLine
 62
7
  6
CONTINUOUS
 10
-649.1810918589
 20
456.8891087546
 11
-809.1810918589
 21
456.8891087546
  0
LINE
  5
3BD
100
AcDbEntity
  8
0
100
AcDbLine
 62
9
  6
CONTINUOUS
 10
-809.1810918589
 20
470.8891087546
 11
-649.1810918589
 21
470.8891087546
  0
LINE
  5
3BE
100
AcDbEntity
  8
0
100
AcDbLine
 62
7
  6
CONTINUOUS
 10
-807.1810918589
 20
472.8891087546
 11
-651.1810918589
 21
472.8891087546
  0
LINE
  5
3BF
100
AcDbEntity
  8
0
100
AcDbLine
 62
9
  6
CONTINUOUS
 10
-798.0710812612
 20
474.3714706644
 11
-660.2911024566
 21
474.3714706644
  0
LINE
  5
3C0
100
AcDbEntity
  8
0
100
AcDbLine
 62
9
  6
CONTINUOUS
 10
-344.1810918589
 20
16.8891087546
 11
-344.1810918589
 21
19.8891087546
  0
LINE
  5
3C1
100
AcDbEntity
  8
0
100
AcDbLine
 62
7
  6
CONTINUOUS
 10
-935.6634537687
 20
432.6547425039
 11
-957.1810918589
 21
426.8891087546
  0
LINE
  5
3C2
100
AcDbEntity
  8
0
100
AcDbLine
 62
7
  6
CONTINUOUS
 10
-794.1810918589
 20
488.8891087546
 11
-664.1810918589
 21
488.8891087546
  0
LINE
  5
3C3
100
AcDbEntity
  8
0
100
AcDbLine
 62
7
  6
CONTINUOUS
 10
-300.6810918589
 20
296.8891087546
 11
-310.6810918589
 21
306.8891087546
  0
LINE
  5
3C4
100
AcDbEntity
  8
0
100
AcDbLine
 62
7
  6
CONTINUOUS
 10
-333.6810918589
 20
84.8891087546
 11
-333.6810918589
 21
96.8891087546
  0
LINE
  5
3C5
100
AcDbEntity
  8
0
100
AcDbLine
 62
7
  6
CONTINUOUS
 10
-329.1810918589
 20
16.8891087546
 11
-329.1810918589
 21
19.8891087546
  0
LINE
  5
3C6
100
AcDbEntity
  8
0
100
AcDbLine
 62
3
  6
CONTINUOUS
 10
-329.1810918589
 20
19.8891087546
 11
-329.1810918589
 21
84.8891087546
  0
LINE
  5
3C7
100
AcDbEntity
  8
0
100
AcDbLine
 62
7
  6
CONTINUOUS
 10
-310.6810918589
 20
86.8891087546
 11
-310.6810918589
 21
306.8891087546
  0
LINE
  5
3C8
100
AcDbEntity
  8
0
100
AcDbLine
 62
7
  6
CONTINUOUS
 10
-241.5389544731
 20
292.7469906559
 11
-249.8232050825
 21
301.0312429321
  0
LINE
  5
3C9
100
AcDbEntity
  8
0
100
AcDbLine
 62
7
  6
CONTINUOUS
 10
-300.6810918589
 20
86.8903979861
 11
-300.6810918589
 21
306.8878195232
  0
LINE
  5
3CA
100
AcDbEntity
  8
0
100
AcDbLine
 62
7
  6
CONTINUOUS
 10
-300.6810918589
 20
96.8891087546
 11
-310.6810918589
 21
86.8891087546
  0
LINE
  5
3CB
100
AcDbEntity
  8
0
100
AcDbLine
 62
9
  6
CONTINUOUS
 10
-263.965342141
 20
86.8891087549
 11
-263.965342141
 21
306.8891087544
  0
LINE
  5
3CC
100
AcDbEntity
  8
0
100
AcDbLine
 62
9
  6
CONTINUOUS
 10
-249.82320508
 20
92.7469745799
 11
-249.82320508
 21
301.0312429294
  0
LINE
  5
3CD
100
AcDbEntity
  8
0
100
AcDbLine
 62
9
  6
CONTINUOUS
 10
-241.5389544738
 20
292.7469906565
 11
-241.5389544738
 21
101.0312268527
  0
LINE
  5
3CE
100
AcDbEntity
  8
0
100
AcDbLine
 62
7
  6
CONTINUOUS
 10
-235.6810918589
 20
278.6048496399
 11
-235.6810918589
 21
115.1733678693
  0
LINE
  5
3CF
100
AcDbEntity
  8
0
100
AcDbLine
 62
7
  6
CONTINUOUS
 10
-241.5389544731
 20
101.0312268534
 11
-249.8232050825
 21
92.7469745772
  0
LINE
  5
3D0
100
AcDbEntity
  8
0
100
AcDbLine
 62
7
  6
CONTINUOUS
 10
1653.8756928333
 20
16.8891087546
 11
1703.8756928333
 21
16.8891087546
  0
LINE
  5
3D1
100
AcDbEntity
  8
0
100
AcDbLine
 62
7
  6
CONTINUOUS
 10
1893.8756928333
 20
16.8891087546
 11
1943.8756928333
 21
16.8891087546
  0
LINE
  5
3D2
100
AcDbEntity
  8
0
100
AcDbLine
 62
7
  6
CONTINUOUS
 10
1605.985703431
 20
474.3714706644
 11
1609.8756928333
 21
488.8891087546
  0
LINE
  5
3D3
100
AcDbEntity
  8
0
100
AcDbLine
 62
3
  6
CONTINUOUS
 10
1653.8756928333
 20
19.8891087546
 11
1680.8756928333
 21
19.8891087546
  0
LINE
  5
3D4
100
AcDbEntity
  8
0
100
AcDbLine
 62
3
  6
CONTINUOUS
 10
1916.8756928333
 20
19.8891087546
 11
1943.8756928333
 21
19.8891087546
  0
LINE
  5
3D5
100
AcDbEntity
  8
0
100
AcDbLine
 62
9
  6
CONTINUOUS
 10
1913.8756928333
 20
22.8891087546
 11
1910.8756928333
 21
22.8891087546
  0
LINE
  5
3D6
100
AcDbEntity
  8
0
100
AcDbLine
 62
9
  6
CONTINUOUS
 10
1683.8756928333
 20
22.8891087546
 11
1686.8756928333
 21
22.8891087546
  0
LINE
  5
3D7
100
AcDbEntity
  8
0
100
AcDbLine
 62
7
  6
CONTINUOUS
 10
1713.017828457
 20
29.8891087546
 11
1884.7335572095
 21
29.8891087546
  0
LINE
  5
3D8
100
AcDbEntity
  8
0
100
AcDbLine
 62
7
  6
CONTINUOUS
 10
1594.8756928333
 20
470.8891087546
 11
1594.8756928333
 21
439.8891087546
  0
LINE
  5
3D9
100
AcDbEntity
  8
0
100
AcDbLine
 62
9
  6
CONTINUOUS
 10
1612.8756928333
 20
472.8891087546
 11
1612.8756928333
 21
456.8891087546
  0
LINE
  5
3DA
100
AcDbEntity
  8
0
100
AcDbLine
 62
9
  6
CONTINUOUS
 10
1614.8756928333
 20
456.8891087546
 11
1614.8756928333
 21
439.8891087546
  0
LINE
  5
3DB
100
AcDbEntity
  8
0
100
AcDbLine
 62
7
  6
CONTINUOUS
 10
1614.8756928333
 20
287.6914932766
 11
1614.8756928333
 21
196.8891087546
  0
LINE
  5
3DC
100
AcDbEntity
  8
0
100
AcDbLine
 62
9
  6
CONTINUOUS
 10
1913.8756928333
 20
78.8891087546
 11
1910.8756928333
 21
78.8891087546
  0
LINE
  5
3DD
100
AcDbEntity
  8
0
100
AcDbLine
 62
9
  6
CONTINUOUS
 10
1683.8756928333
 20
78.8891087546
 11
1686.8756928333
 21
78.8891087546
  0
LINE
  5
3DE
100
AcDbEntity
  8
0
100
AcDbLine
 62
7
  6
CONTINUOUS
 10
1689.8756928333
 20
81.8891087546
 11
1907.8756928333
 21
81.8891087546
  0
LINE
  5
3DF
100
AcDbEntity
  8
0
100
AcDbLine
 62
7
  6
CONTINUOUS
 10
1688.8756928333
 20
84.8891087546
 11
1689.8756928333
 21
84.8891087546
  0
LINE
  5
3E0
100
AcDbEntity
  8
0
100
AcDbLine
 62
3
  6
CONTINUOUS
 10
1689.8756928333
 20
84.8891087546
 11
1907.8756928333
 21
84.8891087546
  0
LINE
  5
3E1
100
AcDbEntity
  8
0
100
AcDbLine
 62
7
  6
CONTINUOUS
 10
1907.8756928333
 20
84.8891087546
 11
1908.8756928333
 21
84.8891087546
  0
LINE
  5
3E2
100
AcDbEntity
  8
0
100
AcDbLine
 62
7
  6
CONTINUOUS
 10
1688.8756928333
 20
96.8891087546
 11
1753.0499358837
 21
96.8891087546
  0
LINE
  5
3E3
100
AcDbEntity
  8
0
100
AcDbLine
 62
7
  6
CONTINUOUS
 10
1844.7014497828
 20
96.8891087546
 11
1908.8756928333
 21
96.8891087546
  0
LINE
  5
3E4
100
AcDbEntity
  8
0
100
AcDbLine
 62
7
  6
CONTINUOUS
 10
1858.8756928333
 20
97.0606816299
 11
1844.9945583325
 21
97.0606816299
  0
LINE
  5
3E5
100
AcDbEntity
  8
0
100
AcDbLine
 62
7
  6
CONTINUOUS
 10
1752.756827334
 20
97.0606816299
 11
1738.8756928333
 21
97.0606816299
  0
LINE
  5
3E6
100
AcDbEntity
  8
0
100
AcDbLine
 62
7
  6
CONTINUOUS
 10
1624.8756928333
 20
344.6124911596
 11
1624.8756928333
 21
439.8891087546
  0
LINE
  5
3E7
100
AcDbEntity
  8
0
100
AcDbLine
 62
9
  6
CONTINUOUS
 10
1644.8756928333
 20
287.6914932766
 11
1644.8756928333
 21
196.8891087546
  0
LINE
  5
3E8
100
AcDbEntity
  8
0
100
AcDbLine
 62
9
  6
CONTINUOUS
 10
1644.8756928333
 20
380.1571102474
 11
1644.8756928333
 21
439.8891087546
  0
LINE
  5
3E9
100
AcDbEntity
  8
0
100
AcDbLine
 62
7
  6
CONTINUOUS
 10
1653.8756928333
 20
16.8891087546
 11
1653.8756928333
 21
34.8891087546
  0
LINE
  5
3EA
100
AcDbEntity
  8
0
100
AcDbLine
 62
9
  6
CONTINUOUS
 10
1699.0472657085
 20
136.8891087546
 11
1698.8756928333
 21
136.8891087546
  0
LINE
  5
3EB
100
AcDbEntity
  8
0
100
AcDbLine
 62
9
  6
CONTINUOUS
 10
1898.704119958
 20
136.8891087546
 11
1898.8756928333
 21
136.8891087546
  0
LINE
  5
3EC
100
AcDbEntity
  8
0
100
AcDbLine
 62
9
  6
CONTINUOUS
 10
1668.8756928333
 20
16.8891087546
 11
1668.8756928333
 21
19.8891087546
  0
LINE
  5
3ED
100
AcDbEntity
  8
0
100
AcDbLine
 62
9
  6
CONTINUOUS
 10
1680.8756928333
 20
19.8891087546
 11
1680.8756928333
 21
16.8891087546
  0
LINE
  5
3EE
100
AcDbEntity
  8
0
100
AcDbLine
 62
3
  6
CONTINUOUS
 10
1683.8756928333
 20
22.8891087546
 11
1683.8756928333
 21
78.8891087546
  0
LINE
  5
3EF
100
AcDbEntity
  8
0
100
AcDbLine
 62
7
  6
CONTINUOUS
 10
1686.8756928333
 20
22.8891087546
 11
1686.8756928333
 21
78.8891087546
  0
LINE
  5
3F0
100
AcDbEntity
  8
0
100
AcDbLine
 62
7
  6
CONTINUOUS
 10
1688.8756928333
 20
84.8891087546
 11
1688.8756928333
 21
96.8891087546
  0
LINE
  5
3F1
100
AcDbEntity
  8
0
100
AcDbLine
 62
9
  6
CONTINUOUS
 10
1689.8756928333
 20
84.8891087546
 11
1689.8756928333
 21
81.8891087546
  0
LINE
  5
3F2
100
AcDbEntity
  8
0
100
AcDbLine
 62
7
  6
CONTINUOUS
 10
1893.8756928333
 20
20.7469731309
 11
1884.7335572095
 21
29.8891087546
  0
LINE
  5
3F3
100
AcDbEntity
  8
0
100
AcDbLine
 62
7
  6
CONTINUOUS
 10
1698.8756928333
 20
256.8891087546
 11
1698.8756928333
 21
242.6937619847
  0
LINE
  5
3F4
100
AcDbEntity
  8
0
100
AcDbLine
 62
7
  6
CONTINUOUS
 10
1698.8756928333
 20
151.0844555245
 11
1698.8756928333
 21
136.8891087546
  0
LINE
  5
3F5
100
AcDbEntity
  8
0
100
AcDbLine
 62
7
  6
CONTINUOUS
 10
1699.0472657085
 20
136.8891087546
 11
1699.0472657085
 21
150.7702432631
  0
LINE
  5
3F6
100
AcDbEntity
  8
0
100
AcDbLine
 62
7
  6
CONTINUOUS
 10
1699.0472657085
 20
243.0079742462
 11
1699.0472657085
 21
256.8891087546
  0
LINE
  5
3F7
100
AcDbEntity
  8
02___PRT_ALL_AXES
100
AcDbLine
 62
7
  6
CONTINUOUS
 10
1703.8756928333
 20
16.8891087546
 11
1703.8756928333
 21
20.7469731309
  0
LINE
  5
3F8
100
AcDbEntity
  8
0
100
AcDbLine
 62
9
  6
CONTINUOUS
 10
1734.8756928333
 20
456.8891087546
 11
1734.8756928333
 21
439.8891087546
  0
LINE
  5
3F9
100
AcDbEntity
  8
0
100
AcDbLine
 62
9
  6
CONTINUOUS
 10
1644.8756928333
 20
196.8891087546
 11
1614.8756928333
 21
196.8891087547
  0
LINE
  5
3FA
100
AcDbEntity
  8
0
100
AcDbLine
 62
9
  6
CONTINUOUS
 10
1933.7934544818
 20
196.8891087546
 11
1948.8756928333
 21
196.8891087546
  0
LINE
  5
3FB
100
AcDbEntity
  8
0
100
AcDbLine
 62
9
  6
CONTINUOUS
 10
1736.8756928333
 20
472.8891087546
 11
1736.8756928333
 21
456.8891087546
  0
LINE
  5
3FC
100
AcDbEntity
  8
0
100
AcDbLine
 62
7
  6
CONTINUOUS
 10
1738.8756928333
 20
289.0845533276
 11
1738.8756928333
 21
348.8891087546
  0
LINE
  5
3FD
100
AcDbEntity
  8
0
100
AcDbLine
 62
7
  6
CONTINUOUS
 10
1754.8756928333
 20
470.8891087546
 11
1754.8756928333
 21
439.8891087546
  0
LINE
  5
3FE
100
AcDbEntity
  8
0
100
AcDbLine
 62
7
  6
CONTINUOUS
 10
1776.8756928333
 20
456.8891087546
 11
1776.8756928333
 21
445.8891087546
  0
LINE
  5
3FF
100
AcDbEntity
  8
0
100
AcDbLine
 62
7
  6
CONTINUOUS
 10
1673.8685578054
 20
69.5177666753
 11
1653.8756928333
 21
34.8891087546
  0
LINE
  5
400
100
AcDbEntity
  8
0
100
AcDbLine
 62
9
  6
CONTINUOUS
 10
1699.0472657085
 20
256.8891087546
 11
1698.8756928333
 21
256.8891087546
  0
LINE
  5
401
100
AcDbEntity
  8
0
100
AcDbLine
 62
9
  6
CONTINUOUS
 10
1898.704119958
 20
256.8891087546
 11
1898.8756928333
 21
256.8891087546
  0
LINE
  5
402
100
AcDbEntity
  8
0
100
AcDbLine
 62
9
  6
CONTINUOUS
 10
1644.8756928333
 20
287.6914932766
 11
1614.8756928333
 21
287.6914932766
  0
LINE
  5
403
100
AcDbEntity
  8
0
100
AcDbLine
 62
9
  6
CONTINUOUS
 10
1918.8756928333
 20
287.6914932766
 11
1948.8756928333
 21
287.691493276
  0
LINE
  5
404
100
AcDbEntity
  8
0
100
AcDbLine
 62
7
  6
CONTINUOUS
 10
1943.8756928333
 20
34.8891087546
 11
1911.2868605535
 21
91.3346220225
  0
LINE
  5
405
100
AcDbEntity
  8
0
100
AcDbLine
 62
7
  6
CONTINUOUS
 10
1743.7656822355
 20
474.3714706644
 11
1739.8756928333
 21
488.8891087546
  0
LINE
  5
406
100
AcDbEntity
  8
0
100
AcDbLine
 62
9
  6
CONTINUOUS
 10
1841.8756927876
 20
441.8889141202
 11
1841.8756928333
 21
445.8891087549
  0
LINE
  5
407
100
AcDbEntity
  8
0
100
AcDbLine
 62
7
  6
CONTINUOUS
 10
1858.8756928333
 20
289.0845533276
 11
1858.8756928333
 21
348.8891087546
  0
LINE
  5
408
100
AcDbEntity
  8
0
100
AcDbLine
 62
7
  6
CONTINUOUS
 10
1738.8756928333
 20
348.8891087546
 11
1858.8756928333
 21
348.8891087546
  0
LINE
  5
409
100
AcDbEntity
  8
0
100
AcDbLine
 62
7
  6
CONTINUOUS
 10
1713.017828457
 20
29.8891087546
 11
1703.8756928333
 21
20.7469731309
  0
LINE
  5
40A
100
AcDbEntity
  8
02___PRT_ALL_AXES
100
AcDbLine
 62
7
  6
CONTINUOUS
 10
1893.8756928333
 20
16.8891087546
 11
1893.8756928333
 21
20.7469731309
  0
LINE
  5
40B
100
AcDbEntity
  8
0
100
AcDbLine
 62
7
  6
CONTINUOUS
 10
1898.704119958
 20
256.8891087546
 11
1898.704119958
 21
243.0079742462
  0
LINE
  5
40C
100
AcDbEntity
  8
0
100
AcDbLine
 62
7
  6
CONTINUOUS
 10
1898.704119958
 20
150.7702432631
 11
1898.704119958
 21
136.8891087546
  0
LINE
  5
40D
100
AcDbEntity
  8
0
100
AcDbLine
 62
7
  6
CONTINUOUS
 10
1898.8756928333
 20
136.8891087546
 11
1898.8756928333
 21
151.0844555245
  0
LINE
  5
40E
100
AcDbEntity
  8
0
100
AcDbLine
 62
7
  6
CONTINUOUS
 10
1898.8756928333
 20
242.6937619847
 11
1898.8756928333
 21
256.8891087546
  0
LINE
  5
40F
100
AcDbEntity
  8
0
100
AcDbLine
 62
7
  6
CONTINUOUS
 10
1906.8756928333
 20
456.8891087546
 11
1906.8756928333
 21
399.9412148798
  0
LINE
  5
410
100
AcDbEntity
  8
0
100
AcDbLine
 62
9
  6
CONTINUOUS
 10
1907.8756928333
 20
84.8891087546
 11
1907.8756928333
 21
81.8891087546
  0
LINE
  5
411
100
AcDbEntity
  8
0
100
AcDbLine
 62
7
  6
CONTINUOUS
 10
1908.8756928333
 20
84.8891087546
 11
1908.8756928333
 21
96.8891087546
  0
LINE
  5
412
100
AcDbEntity
  8
0
100
AcDbLine
 62
7
  6
CONTINUOUS
 10
1910.8756928333
 20
78.8891087546
 11
1910.8756928333
 21
22.8891087546
  0
LINE
  5
413
100
AcDbEntity
  8
0
100
AcDbLine
 62
3
  6
CONTINUOUS
 10
1913.8756928333
 20
78.8891087546
 11
1913.8756928333
 21
22.8891087546
  0
LINE
  5
414
100
AcDbEntity
  8
0
100
AcDbLine
 62
9
  6
CONTINUOUS
 10
1916.8756928333
 20
19.8891087546
 11
1916.8756928333
 21
16.8891087546
  0
LINE
  5
415
100
AcDbEntity
  8
0
100
AcDbLine
 62
9
  6
CONTINUOUS
 10
1918.8756928333
 20
241.6106693854
 11
1918.8756928333
 21
247.8384062152
  0
LINE
  5
416
100
AcDbEntity
  8
0
100
AcDbLine
 62
9
  6
CONTINUOUS
 10
1918.8756928333
 20
258.7235416405
 11
1918.8756928333
 21
287.6914932766
  0
LINE
  5
417
100
AcDbEntity
  8
0
100
AcDbLine
 62
9
  6
CONTINUOUS
 10
1928.8756928333
 20
16.8891087546
 11
1928.8756928333
 21
19.8891087546
  0
LINE
  5
418
100
AcDbEntity
  8
0
100
AcDbLine
 62
9
  6
CONTINUOUS
 10
1839.7026192027
 20
411.8891087546
 11
1724.0487698824
 21
411.8891087546
  0
LINE
  5
419
100
AcDbEntity
  8
0
100
AcDbLine
 62
7
  6
CONTINUOUS
 10
1943.8756928333
 20
16.8891087546
 11
1943.8756928333
 21
34.8891087546
  0
LINE
  5
41A
100
AcDbEntity
  8
0
100
AcDbLine
 62
7
  6
CONTINUOUS
 10
1948.8756928333
 20
196.8891087546
 11
1948.8756928333
 21
287.6914932766
  0
LINE
  5
41B
100
AcDbEntity
  8
0
100
AcDbLine
 62
7
  6
CONTINUOUS
 10
1754.8756928333
 20
439.8891087546
 11
1594.8756928333
 21
439.8891087546
  0
LINE
  5
41C
100
AcDbEntity
  8
0
100
AcDbLine
 62
7
  6
CONTINUOUS
 10
1841.8756896399
 20
441.8891087546
 11
1754.8756928333
 21
441.8891087546
  0
LINE
  5
41D
100
AcDbEntity
  8
0
100
AcDbLine
 62
9
  6
CONTINUOUS
 10
1776.8756928333
 20
445.8891087546
 11
1841.8756928333
 21
445.8891087546
  0
LINE
  5
41E
100
AcDbEntity
  8
0
100
AcDbLine
 62
7
  6
CONTINUOUS
 10
1754.8756928333
 20
456.8891087546
 11
1594.8756928333
 21
456.8891087546
  0
LINE
  5
41F
100
AcDbEntity
  8
02___PRT_ALL_AXES
100
AcDbLine
 62
7
  6
CONTINUOUS
 10
1776.8756928333
 20
456.8891087546
 11
1906.8756928333
 21
456.8891087546
  0
LINE
  5
420
100
AcDbEntity
  8
0
100
AcDbLine
 62
9
  6
CONTINUOUS
 10
1594.8756928333
 20
470.8891087546
 11
1754.8756928333
 21
470.8891087546
  0
LINE
  5
421
100
AcDbEntity
  8
0
100
AcDbLine
 62
7
  6
CONTINUOUS
 10
1596.8756928333
 20
472.8891087546
 11
1752.8756928333
 21
472.8891087546
  0
LINE
  5
422
100
AcDbEntity
  8
0
100
AcDbLine
 62
9
  6
CONTINUOUS
 10
1605.985703431
 20
474.3714706644
 11
1743.7656822355
 21
474.3714706644
  0
LINE
  5
423
100
AcDbEntity
  8
0
100
AcDbLine
 62
7
  6
CONTINUOUS
 10
1609.8756928333
 20
488.8891087546
 11
1739.8756928333
 21
488.8891087546
  0
LINE
  5
424
100
AcDbEntity
  8
0
100
AcDbLine
 62
7
  6
CONTINUOUS
 10
613.4476851368
 20
-438.0965746657
 11
613.4476851368
 21
-274.6650785871
  0
LINE
  5
425
100
AcDbEntity
  8
0
100
AcDbLine
 62
9
  6
CONTINUOUS
 10
619.3055480904
 20
-452.2387088671
 11
619.3055480904
 21
-260.5229443861
  0
LINE
  5
426
100
AcDbEntity
  8
0
100
AcDbLine
 62
9
  6
CONTINUOUS
 10
627.589798384
 20
-252.2386924256
 11
627.589798384
 21
-460.5229608276
  0
LINE
  5
427
100
AcDbEntity
  8
0
100
AcDbLine
 62
9
  6
CONTINUOUS
 10
641.7319354305
 20
-246.3808266266
 11
641.7319354305
 21
-466.3808266266
  0
LINE
  5
428
100
AcDbEntity
  8
0
100
AcDbLine
 62
7
  6
CONTINUOUS
 10
619.3055480904
 20
-452.2387088671
 11
627.589798384
 21
-460.5229608276
  0
LINE
  5
429
100
AcDbEntity
  8
0
100
AcDbLine
 62
7
  6
CONTINUOUS
 10
678.4476851368
 20
-246.3808266266
 11
678.4476851368
 21
-466.3808266266
  0
LINE
  5
42A
100
AcDbEntity
  8
0
100
AcDbLine
 62
7
  6
CONTINUOUS
 10
619.3055480904
 20
-260.5229443861
 11
627.589798384
 21
-252.2386924256
  0
LINE
  5
42B
100
AcDbEntity
  8
0
100
AcDbLine
 62
7
  6
CONTINUOUS
 10
678.4476851368
 20
-456.3808266266
 11
688.4476851368
 21
-466.3808266266
  0
LINE
  5
42C
100
AcDbEntity
  8
0
100
AcDbLine
 62
7
  6
CONTINUOUS
 10
688.4476851368
 20
-246.3808266266
 11
688.4476851368
 21
-466.3808266266
  0
LINE
  5
42D
100
AcDbEntity
  8
0
100
AcDbLine
 62
3
  6
CONTINUOUS
 10
706.9476851368
 20
-226.3808266266
 11
706.9476851368
 21
-246.3808266266
  0
LINE
  5
42E
100
AcDbEntity
  8
0
100
AcDbLine
 62
3
  6
CONTINUOUS
 10
706.9476851368
 20
-466.3808266266
 11
706.9476851368
 21
-486.3808266266
  0
LINE
  5
42F
100
AcDbEntity
  8
02___PRT_ALL_AXES
100
AcDbLine
 62
3
  6
CONTINUOUS
 10
723.4476851368
 20
-488.3808266266
 11
723.4476851368
 21
-484.3808266266
  0
LINE
  5
430
100
AcDbEntity
  8
02___PRT_ALL_AXES
100
AcDbLine
 62
3
  6
CONTINUOUS
 10
723.4476851368
 20
-228.3808266266
 11
723.4476851368
 21
-224.3808266266
  0
LINE
  5
431
100
AcDbEntity
  8
02___PRT_ALL_AXES
100
AcDbLine
 62
3
  6
CONTINUOUS
 10
735.4476851368
 20
-224.3808266266
 11
735.4476851368
 21
-228.3808266266
  0
LINE
  5
432
100
AcDbEntity
  8
02___PRT_ALL_AXES
100
AcDbLine
 62
3
  6
CONTINUOUS
 10
735.4476851368
 20
-484.3808266266
 11
735.4476851368
 21
-488.3808266266
  0
LINE
  5
433
100
AcDbEntity
  8
0
100
AcDbLine
 62
7
  6
CONTINUOUS
 10
678.4476851368
 20
-256.3808266266
 11
688.4476851368
 21
-246.3808266266
  0
LINE
  5
434
100
AcDbEntity
  8
0
100
AcDbLine
 62
7
  6
CONTINUOUS
 10
774.4476851368
 20
-296.3808266266
 11
774.4476851368
 21
-416.3808266266
  0
LINE
  5
435
100
AcDbEntity
  8
0
100
AcDbLine
 62
7
  6
CONTINUOUS
 10
1313.4300470466
 20
-410.1464603759
 11
1334.9476851368
 21
-404.3808266266
  0
LINE
  5
436
100
AcDbEntity
  8
0
100
AcDbLine
 62
7
  6
CONTINUOUS
 10
1256.9476851368
 20
-506.3808266266
 11
1066.9476851368
 21
-506.3808266266
  0
LINE
  5
437
100
AcDbEntity
  8
0
100
AcDbLine
 62
3
  6
CONTINUOUS
 10
721.9476851368
 20
-501.3808266266
 11
876.9476851368
 21
-501.3808266266
  0
LINE
  5
438
100
AcDbEntity
  8
0
100
AcDbLine
 62
7
  6
CONTINUOUS
 10
1036.4476851368
 20
-491.3808266266
 11
1027.4476851368
 21
-491.3808266266
  0
LINE
  5
439
100
AcDbEntity
  8
3_ALL_AXES
100
AcDbLine
 62
7
  6
CONTINUOUS
 10
1036.4476851368
 20
-491.3808266266
 11
1036.9476851368
 21
-491.3808266266
  0
LINE
  5
43A
100
AcDbEntity
  8
0
100
AcDbLine
 62
9
  6
CONTINUOUS
 10
706.9476851368
 20
-474.3808266266
 11
891.9476851368
 21
-474.3808266266
  0
LINE
  5
43B
100
AcDbEntity
  8
0
100
AcDbLine
 62
3
  6
CONTINUOUS
 10
706.9476851368
 20
-471.3808266266
 11
891.9476851368
 21
-471.3808266266
  0
LINE
  5
43C
100
AcDbEntity
  8
0
100
AcDbLine
 62
7
  6
CONTINUOUS
 10
641.7319354305
 20
-466.3808266266
 11
678.4476851368
 21
-466.3808266266
  0
LINE
  5
43D
100
AcDbEntity
  8
02___PRT_ALL_AXES
100
AcDbLine
 62
7
  6
CONTINUOUS
 10
641.7319354305
 20
-466.3808266266
 11
678.4476851368
 21
-466.3808266266
  0
LINE
  5
43E
100
AcDbEntity
  8
02___PRT_ALL_AXES
100
AcDbLine
 62
7
  6
CONTINUOUS
 10
688.4476851368
 20
-466.3808266266
 11
919.4476851368
 21
-466.3808266266
  0
LINE
  5
43F
100
AcDbEntity
  8
0
100
AcDbLine
 62
7
  6
CONTINUOUS
 10
688.4476851368
 20
-466.3808266266
 11
919.4476851368
 21
-466.3808266266
  0
LINE
  5
440
100
AcDbEntity
  8
02___PRT_ALL_AXES
100
AcDbLine
 62
3
  6
CONTINUOUS
 10
863.4476851368
 20
-488.3808266266
 11
863.4476851368
 21
-484.3808266266
  0
LINE
  5
441
100
AcDbEntity
  8
02___PRT_ALL_AXES
100
AcDbLine
 62
3
  6
CONTINUOUS
 10
863.4476851368
 20
-228.3808266266
 11
863.4476851368
 21
-224.3808266266
  0
LINE
  5
442
100
AcDbEntity
  8
3_ALL_AXES
100
AcDbLine
 62
7
  6
CONTINUOUS
 10
952.4476851368
 20
-456.3808266266
 11
940.4476851368
 21
-456.3808266266
  0
LINE
  5
443
100
AcDbEntity
  8
0
100
AcDbLine
 62
7
  6
CONTINUOUS
 10
940.4476851368
 20
-456.3808266266
 11
1022.4476851368
 21
-456.3808266266
  0
LINE
  5
444
100
AcDbEntity
  8
0
100
AcDbLine
 62
9
  6
CONTINUOUS
 10
954.4476851368
 20
-454.3808266266
 11
1025.4476851368
 21
-454.3808266266
  0
LINE
  5
445
100
AcDbEntity
  8
0
100
AcDbLine
 62
9
  6
CONTINUOUS
 10
1025.4476851368
 20
-445.2538099728
 11
1022.4476851368
 21
-445.2538099728
  0
LINE
  5
446
100
AcDbEntity
  8
0
100
AcDbLine
 62
9
  6
CONTINUOUS
 10
1022.4476851368
 20
-439.0088119744
 11
1019.4476851368
 21
-439.0088119744
  0
LINE
  5
447
100
AcDbEntity
  8
0
100
AcDbLine
 62
9
  6
CONTINUOUS
 10
1022.4476851368
 20
-433.0997356939
 11
1019.4476851368
 21
-433.0997356939
  0
LINE
  5
448
100
AcDbEntity
  8
02___PRT_ALL_AXES
100
AcDbLine
 62
3
  6
CONTINUOUS
 10
875.4476851368
 20
-224.3808266266
 11
875.4476851368
 21
-228.3808266266
  0
LINE
  5
449
100
AcDbEntity
  8
02___PRT_ALL_AXES
100
AcDbLine
 62
3
  6
CONTINUOUS
 10
875.4476851368
 20
-484.3808266266
 11
875.4476851368
 21
-488.3808266266
  0
LINE
  5
44A
100
AcDbEntity
  8
0
100
AcDbLine
 62
3
  6
CONTINUOUS
 10
891.9476851368
 20
-226.3808266266
 11
891.9476851368
 21
-246.3808266266
  0
LINE
  5
44B
100
AcDbEntity
  8
0
100
AcDbLine
 62
3
  6
CONTINUOUS
 10
891.9476851368
 20
-466.3808266266
 11
891.9476851368
 21
-486.3808266266
  0
LINE
  5
44C
100
AcDbEntity
  8
0
100
AcDbLine
 62
7
  6
CONTINUOUS
 10
894.4476851368
 20
-416.3808266266
 11
894.4476851368
 21
-296.3808266266
  0
LINE
  5
44D
100
AcDbEntity
  8
0
100
AcDbLine
 62
7
  6
CONTINUOUS
 10
1296.9476851368
 20
-429.3808266266
 11
1290.9476851368
 21
-429.3808266266
  0
LINE
  5
44E
100
AcDbEntity
  8
0
100
AcDbLine
 62
9
  6
CONTINUOUS
 10
1022.4476851368
 20
-426.3808175971
 11
1025.4476851368
 21
-426.3808266266
  0
LINE
  5
44F
100
AcDbEntity
  8
0
100
AcDbLine
 62
7
  6
CONTINUOUS
 10
1309.9476851368
 20
-419.3808266266
 11
1279.9707381461
 21
-419.3808266266
  0
LINE
  5
450
100
AcDbEntity
  8
0
100
AcDbLine
 62
7
  6
CONTINUOUS
 10
774.4476851368
 20
-416.3808266266
 11
894.4476851368
 21
-416.3808266266
  0
LINE
  5
451
100
AcDbEntity
  8
0
100
AcDbLine
 62
9
  6
CONTINUOUS
 10
939.4476851368
 20
-416.3808266266
 11
954.4476851368
 21
-416.3808266266
  0
LINE
  5
452
100
AcDbEntity
  8
0
100
AcDbLine
 62
9
  6
CONTINUOUS
 10
1140.6146496514
 20
-407.5440919327
 11
1256.9476851368
 21
-407.5440919327
  0
LINE
  5
453
100
AcDbEntity
  8
0
100
AcDbLine
 62
9
  6
CONTINUOUS
 10
1066.9476851517
 20
-407.5440572212
 11
1073.2807206222
 21
-407.5440919327
  0
LINE
  5
454
100
AcDbEntity
  8
0
100
AcDbLine
 62
7
  6
CONTINUOUS
 10
919.4476851368
 20
-246.3808266266
 11
919.4476851368
 21
-466.3808266266
  0
LINE
  5
455
100
AcDbEntity
  8
0
100
AcDbLine
 62
9
  6
CONTINUOUS
 10
954.4476851368
 20
-402.1874855312
 11
957.4476851368
 21
-402.1874855312
  0
LINE
  5
456
100
AcDbEntity
  8
0
100
AcDbLine
 62
9
  6
CONTINUOUS
 10
1311.9476851368
 20
-401.3808266266
 11
1296.9476851368
 21
-401.3808266266
  0
LINE
  5
457
100
AcDbEntity
  8
0
100
AcDbLine
 62
9
  6
CONTINUOUS
 10
982.7054611977
 20
-401.1720087945
 11
958.4476851368
 21
-401.1720087945
  0
LINE
  5
458
100
AcDbEntity
  8
0
100
AcDbLine
 62
9
  6
CONTINUOUS
 10
1022.4476851368
 20
-400.3808266266
 11
1025.4476851368
 21
-400.3808266266
  0
LINE
  5
459
100
AcDbEntity
  8
0
100
AcDbLine
 62
9
  6
CONTINUOUS
 10
1296.9476851368
 20
-399.3808266266
 11
1136.9476876134
 21
-399.3808266266
  0
LINE
  5
45A
100
AcDbEntity
  8
0
100
AcDbLine
 62
9
  6
CONTINUOUS
 10
954.4476851368
 20
-399.3808266266
 11
952.4476851368
 21
-399.3808266266
  0
LINE
  5
45B
100
AcDbEntity
  8
0
100
AcDbLine
 62
9
  6
CONTINUOUS
 10
1076.9476889403
 20
-399.3808266266
 11
1066.9476851368
 21
-399.3808234333
  0
LINE
  5
45C
100
AcDbEntity
  8
0
100
AcDbLine
 62
9
  6
CONTINUOUS
 10
982.7054611977
 20
-398.2187440362
 11
958.4476851368
 21
-398.2187440362
  0
LINE
  5
45D
100
AcDbEntity
  8
0
100
AcDbLine
 62
7
  6
CONTINUOUS
 10
1021.4476851368
 20
-396.3808266266
 11
957.4476851368
 21
-396.3808266266
  0
LINE
  5
45E
100
AcDbEntity
  8
0
100
AcDbLine
 62
9
  6
CONTINUOUS
 10
957.4476851368
 20
-394.3808266266
 11
1025.4476851368
 21
-394.3808266266
  0
LINE
  5
45F
100
AcDbEntity
  8
0
100
AcDbLine
 62
7
  6
CONTINUOUS
 10
939.4476851368
 20
-256.5523995018
 11
939.4476851368
 21
-456.2092537513
  0
LINE
  5
460
100
AcDbEntity
  8
0
100
AcDbLine
 62
9
  6
CONTINUOUS
 10
940.4476851368
 20
-456.3808266266
 11
940.4476851368
 21
-256.3808266266
  0
LINE
  5
461
100
AcDbEntity
  8
0
100
AcDbLine
 62
9
  6
CONTINUOUS
 10
952.4476851368
 20
-256.3808266266
 11
952.4476851368
 21
-313.3808266266
  0
LINE
  5
462
100
AcDbEntity
  8
0
100
AcDbLine
 62
9
  6
CONTINUOUS
 10
952.4476851368
 20
-399.3808266266
 11
952.4476851368
 21
-456.3808266266
  0
LINE
  5
463
100
AcDbEntity
  8
0
100
AcDbLine
 62
7
  6
CONTINUOUS
 10
954.4476851368
 20
-258.3808266266
 11
954.4476851368
 21
-313.3808266266
  0
LINE
  5
464
100
AcDbEntity
  8
0
100
AcDbLine
 62
7
  6
CONTINUOUS
 10
954.4476851368
 20
-399.3808266266
 11
954.4476851368
 21
-454.3808266266
  0
LINE
  5
465
100
AcDbEntity
  8
0
100
AcDbLine
 62
9
  6
CONTINUOUS
 10
957.4476851368
 20
-396.3808266266
 11
957.4476851371
 21
-394.3808266266
  0
LINE
  5
466
100
AcDbEntity
  8
0
100
AcDbLine
 62
9
  6
CONTINUOUS
 10
957.4476851371
 20
-256.3808266266
 11
957.4476851368
 21
-310.574167722
  0
LINE
  5
467
100
AcDbEntity
  8
0
100
AcDbLine
 62
9
  6
CONTINUOUS
 10
957.4476851368
 20
-316.3808266266
 11
957.4476851368
 21
-318.3808266266
  0
LINE
  5
468
100
AcDbEntity
  8
0
100
AcDbLine
 62
9
  6
CONTINUOUS
 10
957.4476851368
 20
-402.1874855312
 11
957.4476851368
 21
-456.3808266266
  0
LINE
  5
469
100
AcDbEntity
  8
0
100
AcDbLine
 62
9
  6
CONTINUOUS
 10
958.4476851368
 20
-311.5896444587
 11
958.4476851368
 21
-316.3808266266
  0
LINE
  5
46A
100
AcDbEntity
  8
0
100
AcDbLine
 62
9
  6
CONTINUOUS
 10
958.4476851368
 20
-396.3808266266
 11
958.4476851368
 21
-401.1720087945
  0
LINE
  5
46B
100
AcDbEntity
  8
0
100
AcDbLine
 62
9
  6
CONTINUOUS
 10
982.7054611977
 20
-316.3808266266
 11
982.7054611977
 21
-311.5896444587
  0
LINE
  5
46C
100
AcDbEntity
  8
0
100
AcDbLine
 62
9
  6
CONTINUOUS
 10
982.7054611977
 20
-396.3808266266
 11
982.7054611977
 21
-401.1720087945
  0
LINE
  5
46D
100
AcDbEntity
  8
0
100
AcDbLine
 62
9
  6
CONTINUOUS
 10
987.8477620752
 20
-400.0957059535
 11
987.8477620752
 21
-396.3808266266
  0
LINE
  5
46E
100
AcDbEntity
  8
0
100
AcDbLine
 62
9
  6
CONTINUOUS
 10
987.8477620752
 20
-316.3808266266
 11
987.8477620752
 21
-312.6659472997
  0
LINE
  5
46F
100
AcDbEntity
  8
0
100
AcDbLine
 62
9
  6
CONTINUOUS
 10
957.4476851368
 20
-318.3808266266
 11
1025.4476851368
 21
-318.3808266266
  0
LINE
  5
470
100
AcDbEntity
  8
0
100
AcDbLine
 62
7
  6
CONTINUOUS
 10
957.4476851368
 20
-316.3808266266
 11
1021.4476851368
 21
-316.3808266266
  0
LINE
  5
471
100
AcDbEntity
  8
0
100
AcDbLine
 62
9
  6
CONTINUOUS
 10
958.4476851368
 20
-314.542909217
 11
982.7054611977
 21
-314.542909217
  0
LINE
  5
472
100
AcDbEntity
  8
0
100
AcDbLine
 62
9
  6
CONTINUOUS
 10
954.4476851368
 20
-313.3808266266
 11
952.4476851369
 21
-313.3808266264
  0
LINE
  5
473
100
AcDbEntity
  8
0
100
AcDbLine
 62
9
  6
CONTINUOUS
 10
1022.4476851368
 20
-312.3808266266
 11
1025.4476851368
 21
-312.3808266266
  0
LINE
  5
474
100
AcDbEntity
  8
0
100
AcDbLine
 62
7
  6
CONTINUOUS
 10
1044.9476851368
 20
-312.3808266266
 11
1168.9476851368
 21
-312.3808266266
  0
LINE
  5
475
100
AcDbEntity
  8
0
100
AcDbLine
 62
9
  6
CONTINUOUS
 10
958.4476851368
 20
-311.5896444587
 11
982.7054611977
 21
-311.5896444587
  0
LINE
  5
476
100
AcDbEntity
  8
0
100
AcDbLine
 62
9
  6
CONTINUOUS
 10
954.4476851368
 20
-310.574167722
 11
957.4476851368
 21
-310.574167722
  0
LINE
  5
477
100
AcDbEntity
  8
0
100
AcDbLine
 62
9
  6
CONTINUOUS
 10
1044.9476851368
 20
-310.3808266266
 11
1168.9476851368
 21
-310.3808266266
  0
LINE
  5
478
100
AcDbEntity
  8
0
100
AcDbLine
 62
7
  6
CONTINUOUS
 10
939.447691762
 20
-266.3808200019
 11
919.4476932343
 21
-246.3808185297
  0
LINE
  5
479
100
AcDbEntity
  8
0
100
AcDbLine
 62
9
  6
CONTINUOUS
 10
987.8477620701
 20
-312.6659472937
 11
985.9193992462
 21
-310.4018296992
  0
LINE
  5
47A
100
AcDbEntity
  8
0
100
AcDbLine
 62
9
  6
CONTINUOUS
 10
1019.4476851368
 20
-439.0088119744
 11
1019.4476851368
 21
-433.0997356939
  0
LINE
  5
47B
100
AcDbEntity
  8
0
100
AcDbLine
 62
9
  6
CONTINUOUS
 10
1019.4476851368
 20
-279.6619175592
 11
1019.4476851368
 21
-273.7528412788
  0
LINE
  5
47C
100
AcDbEntity
  8
0
100
AcDbLine
 62
9
  6
CONTINUOUS
 10
1019.5899860143
 20
-426.9632441373
 11
1019.5899860143
 21
-396.3808266266
  0
LINE
  5
47D
100
AcDbEntity
  8
0
100
AcDbLine
 62
9
  6
CONTINUOUS
 10
1019.5899860143
 20
-316.3808266266
 11
1019.5899860143
 21
-285.7984091159
  0
LINE
  5
47E
100
AcDbEntity
  8
0
100
AcDbLine
 62
9
  6
CONTINUOUS
 10
1021.4476851368
 20
-316.3808266266
 11
1021.4476851368
 21
-396.3808266266
  0
LINE
  5
47F
100
AcDbEntity
  8
0
100
AcDbLine
 62
7
  6
CONTINUOUS
 10
1022.4476851368
 20
-439.0088119689
 11
1022.4476851368
 21
-396.5081758588
  0
LINE
  5
480
100
AcDbEntity
  8
0
100
AcDbLine
 62
7
  6
CONTINUOUS
 10
1022.4476851368
 20
-316.2534685321
 11
1022.4476851368
 21
-273.7528412842
  0
LINE
  5
481
100
AcDbEntity
  8
0
100
AcDbLine
 62
9
  6
CONTINUOUS
 10
1022.4476851368
 20
-256.3808266266
 11
1022.4476851368
 21
-267.5078432804
  0
LINE
  5
482
100
AcDbEntity
  8
0
100
AcDbLine
 62
9
  6
CONTINUOUS
 10
1022.4476851368
 20
-445.2538099728
 11
1022.4476851368
 21
-456.3808266266
  0
LINE
  5
483
100
AcDbEntity
  8
0
100
AcDbLine
 62
9
  6
CONTINUOUS
 10
1023.9476851354
 20
-426.3808266266
 11
1023.9476755926
 21
-400.3808266266
  0
LINE
  5
484
100
AcDbEntity
  8
0
100
AcDbLine
 62
9
  6
CONTINUOUS
 10
1023.9476755916
 20
-312.3808266266
 11
1023.9476851354
 21
-286.3808266256
  0
LINE
  5
485
100
AcDbEntity
  8
0
100
AcDbLine
 62
7
  6
CONTINUOUS
 10
1025.4476851368
 20
-489.3808266266
 11
1025.4476851368
 21
-223.3808266266
  0
LINE
  5
486
100
AcDbEntity
  8
0
100
AcDbLine
 62
7
  6
CONTINUOUS
 10
1026.9476851368
 20
-170.3808266266
 11
1026.9476851368
 21
-294.3808266266
  0
LINE
  5
487
100
AcDbEntity
  8
0
100
AcDbLine
 62
9
  6
CONTINUOUS
 10
1027.4476851368
 20
-298.580007279
 11
1027.4476851368
 21
-491.3808266266
  0
LINE
  5
488
100
AcDbEntity
  8
0
100
AcDbLine
 62
9
  6
CONTINUOUS
 10
1028.9476851368
 20
-170.3808266266
 11
1028.9476851368
 21
-294.3808266266
  0
LINE
  5
489
100
AcDbEntity
  8
0
100
AcDbLine
 62
9
  6
CONTINUOUS
 10
987.8477600441
 20
-400.0957083384
 11
985.9193992462
 21
-402.3598235539
  0
LINE
  5
48A
100
AcDbEntity
  8
0
100
AcDbLine
 62
7
  6
CONTINUOUS
 10
894.4476851368
 20
-296.3808266266
 11
774.4476851368
 21
-296.3808266266
  0
LINE
  5
48B
100
AcDbEntity
  8
0
100
AcDbLine
 62
9
  6
CONTINUOUS
 10
939.4476851368
 20
-296.3808266266
 11
954.4476851368
 21
-296.3808266266
  0
LINE
  5
48C
100
AcDbEntity
  8
0
100
AcDbLine
 62
9
  6
CONTINUOUS
 10
1028.9476851368
 20
-294.3808266266
 11
1026.9476851368
 21
-294.3808266266
  0
LINE
  5
48D
100
AcDbEntity
  8
0
100
AcDbLine
 62
9
  6
CONTINUOUS
 10
1184.9476851368
 20
-294.3808266266
 11
1186.9476851368
 21
-294.3808266266
  0
LINE
  5
48E
100
AcDbEntity
  8
0
100
AcDbLine
 62
9
  6
CONTINUOUS
 10
1025.4476851368
 20
-286.3808266266
 11
1022.4476851368
 21
-286.3808356191
  0
LINE
  5
48F
100
AcDbEntity
  8
0
100
AcDbLine
 62
9
  6
CONTINUOUS
 10
1022.4476851368
 20
-279.6619175592
 11
1019.4476851368
 21
-279.6619175592
  0
LINE
  5
490
100
AcDbEntity
  8
0
100
AcDbLine
 62
9
  6
CONTINUOUS
 10
1296.9476851368
 20
-279.3808266266
 11
1186.9476851368
 21
-279.3808266266
  0
LINE
  5
491
100
AcDbEntity
  8
0
100
AcDbLine
 62
9
  6
CONTINUOUS
 10
1311.9476851368
 20
-277.3808266266
 11
1296.9476851368
 21
-277.3808266266
  0
LINE
  5
492
100
AcDbEntity
  8
0
100
AcDbLine
 62
9
  6
CONTINUOUS
 10
1022.4476851368
 20
-273.7528412788
 11
1019.4476851368
 21
-273.7528412788
  0
LINE
  5
493
100
AcDbEntity
  8
3_ALL_AXES
100
AcDbLine
 62
7
  6
CONTINUOUS
 10
1036.4476851368
 20
-310.2458692691
 11
1036.4476851368
 21
-491.3808259666
  0
LINE
  5
494
100
AcDbEntity
  8
0
100
AcDbLine
 62
7
  6
CONTINUOUS
 10
1036.4476851368
 20
-310.2458692691
 11
1036.4476851368
 21
-491.3807514958
  0
LINE
  5
495
100
AcDbEntity
  8
0
100
AcDbLine
 62
7
  6
CONTINUOUS
 10
1036.9476851368
 20
-476.3808266266
 11
1036.9476851368
 21
-310.5032409252
  0
LINE
  5
496
100
AcDbEntity
  8
3_ALL_AXES
100
AcDbLine
 62
7
  6
CONTINUOUS
 10
1036.9476851368
 20
-476.3808266266
 11
1036.9476851368
 21
-491.3808259666
  0
LINE
  5
497
100
AcDbEntity
  8
0
100
AcDbLine
 62
9
  6
CONTINUOUS
 10
1044.9476851368
 20
-154.3808266266
 11
1044.9476851368
 21
-152.3808266266
  0
LINE
  5
498
100
AcDbEntity
  8
0
100
AcDbLine
 62
9
  6
CONTINUOUS
 10
1044.9476851368
 20
-310.3808266266
 11
1044.9476851368
 21
-312.3808266266
  0
LINE
  5
499
100
AcDbEntity
  8
0
100
AcDbLine
 62
7
  6
CONTINUOUS
 10
939.4476917622
 20
-446.3808332511
 11
919.4476932345
 21
-466.3808347232
  0
LINE
  5
49A
100
AcDbEntity
  8
0
100
AcDbLine
 62
9
  6
CONTINUOUS
 10
1186.9476851368
 20
-271.2175613205
 11
1256.9476851368
 21
-271.2175613205
  0
LINE
  5
49B
100
AcDbEntity
  8
0
100
AcDbLine
 62
9
  6
CONTINUOUS
 10
1025.4476851368
 20
-267.5078432804
 11
1022.4476851368
 21
-267.5078432804
  0
LINE
  5
49C
100
AcDbEntity
  8
0
100
AcDbLine
 62
7
  6
CONTINUOUS
 10
1279.9707381461
 20
-259.3808266266
 11
1309.9476851368
 21
-259.3808266266
  0
LINE
  5
49D
100
AcDbEntity
  8
0
100
AcDbLine
 62
9
  6
CONTINUOUS
 10
954.4476851368
 20
-258.3808266266
 11
1025.4476851368
 21
-258.3808266266
  0
LINE
  5
49E
100
AcDbEntity
  8
0
100
AcDbLine
 62
7
  6
CONTINUOUS
 10
1022.4476851368
 20
-256.3808266266
 11
940.4476851368
 21
-256.3808266266
  0
LINE
  5
49F
100
AcDbEntity
  8
0
100
AcDbLine
 62
7
  6
CONTINUOUS
 10
1296.9476851368
 20
-249.3808266266
 11
1290.9476851368
 21
-249.3808266266
  0
LINE
  5
4A0
100
AcDbEntity
  8
0
100
AcDbLine
 62
7
  6
CONTINUOUS
 10
641.7319354305
 20
-246.3808266266
 11
678.4476851368
 21
-246.3808266266
  0
LINE
  5
4A1
100
AcDbEntity
  8
02___PRT_ALL_AXES
100
AcDbLine
 62
7
  6
CONTINUOUS
 10
641.7319354305
 20
-246.3808266266
 11
678.4476851368
 21
-246.3808266266
  0
LINE
  5
4A2
100
AcDbEntity
  8
0
100
AcDbLine
 62
7
  6
CONTINUOUS
 10
688.4476851368
 20
-246.3808266266
 11
919.4476851368
 21
-246.3808266266
  0
LINE
  5
4A3
100
AcDbEntity
  8
02___PRT_ALL_AXES
100
AcDbLine
 62
7
  6
CONTINUOUS
 10
688.4476851368
 20
-246.3808266266
 11
919.4476851368
 21
-246.3808266266
  0
LINE
  5
4A4
100
AcDbEntity
  8
0
100
AcDbLine
 62
9
  6
CONTINUOUS
 10
1019.5899838587
 20
-285.7984065624
 11
1017.6616231852
 21
-283.5140023208
  0
LINE
  5
4A5
100
AcDbEntity
  8
0
100
AcDbLine
 62
9
  6
CONTINUOUS
 10
1023.9476851365
 20
-270.6303422798
 11
1022.0726851368
 21
-268.2884680302
  0
LINE
  5
4A6
100
AcDbEntity
  8
0
100
AcDbLine
 62
9
  6
CONTINUOUS
 10
1066.9476851368
 20
-506.3808266266
 11
1066.9476851368
 21
-312.3808266266
  0
LINE
  5
4A7
100
AcDbEntity
  8
0
100
AcDbLine
 62
9
  6
CONTINUOUS
 10
1023.947685137
 20
-442.1313109737
 11
1022.072685137
 21
-444.4731852231
  0
LINE
  5
4A8
100
AcDbEntity
  8
0
100
AcDbLine
 62
9
  6
CONTINUOUS
 10
1019.5899860132
 20
-426.9632441386
 11
1017.6616231852
 21
-429.2476509324
  0
LINE
  5
4A9
100
AcDbEntity
  8
0
100
AcDbLine
 62
3
  6
CONTINUOUS
 10
706.9476851368
 20
-241.3808266266
 11
891.9476851368
 21
-241.3808266266
  0
LINE
  5
4AA
100
AcDbEntity
  8
0
100
AcDbLine
 62
9
  6
CONTINUOUS
 10
706.9476851368
 20
-238.3808266266
 11
891.9476851368
 21
-238.3808266266
  0
LINE
  5
4AB
100
AcDbEntity
  8
0
100
AcDbLine
 62
3
  6
CONTINUOUS
 10
721.9476851368
 20
-211.3808266266
 11
876.9476851368
 21
-211.3808266266
  0
LINE
  5
4AC
100
AcDbEntity
  8
0
100
AcDbLine
 62
7
  6
CONTINUOUS
 10
1186.9476851368
 20
-172.3808266266
 11
1256.9476851368
 21
-172.3808266266
  0
LINE
  5
4AD
100
AcDbEntity
  8
0
100
AcDbLine
 62
9
  6
CONTINUOUS
 10
1028.9476851368
 20
-170.3808266266
 11
1026.9476851368
 21
-170.3808266266
  0
LINE
  5
4AE
100
AcDbEntity
  8
0
100
AcDbLine
 62
9
  6
CONTINUOUS
 10
1184.9476851368
 20
-170.3808266266
 11
1186.9476851368
 21
-170.3808266266
  0
LINE
  5
4AF
100
AcDbEntity
  8
0
100
AcDbLine
 62
7
  6
CONTINUOUS
 10
1313.4300470466
 20
-268.6151928773
 11
1334.9476851368
 21
-274.3808266266
  0
LINE
  5
4B0
100
AcDbEntity
  8
0
100
AcDbLine
 62
9
  6
CONTINUOUS
 10
1168.9476851368
 20
-154.3808266266
 11
1044.9476851368
 21
-154.3808266266
  0
LINE
  5
4B1
100
AcDbEntity
  8
0
100
AcDbLine
 62
7
  6
CONTINUOUS
 10
1168.9476851368
 20
-152.3808266266
 11
1044.9476851368
 21
-152.3808266266
  0
LINE
  5
4B2
100
AcDbEntity
  8
0
100
AcDbLine
 62
9
  6
CONTINUOUS
 10
1168.9476851368
 20
-154.3808266266
 11
1168.9476851368
 21
-152.3808266266
  0
LINE
  5
4B3
100
AcDbEntity
  8
0
100
AcDbLine
 62
9
  6
CONTINUOUS
 10
1168.9476851368
 20
-310.3808266266
 11
1168.9476851368
 21
-312.3808266266
  0
LINE
  5
4B4
100
AcDbEntity
  8
0
100
AcDbLine
 62
9
  6
CONTINUOUS
 10
1184.9476851368
 20
-294.3808266266
 11
1184.9476851368
 21
-170.3808266266
  0
LINE
  5
4B5
100
AcDbEntity
  8
0
100
AcDbLine
 62
7
  6
CONTINUOUS
 10
1186.9476851368
 20
-294.3808266266
 11
1186.9476851368
 21
-170.3808266266
  0
LINE
  5
4B6
100
AcDbEntity
  8
0
100
AcDbLine
 62
9
  6
CONTINUOUS
 10
1256.9476851368
 20
-172.3808266266
 11
1256.9476851368
 21
-271.2175613205
  0
LINE
  5
4B7
100
AcDbEntity
  8
0
100
AcDbLine
 62
9
  6
CONTINUOUS
 10
1256.9476851368
 20
-407.5440919327
 11
1256.9476851368
 21
-506.3808266266
  0
LINE
  5
4B8
100
AcDbEntity
  8
0
100
AcDbLine
 62
7
  6
CONTINUOUS
 10
1286.9476851368
 20
-476.3808266266
 11
1286.9476851368
 21
-419.3808266266
  0
LINE
  5
4B9
100
AcDbEntity
  8
0
100
AcDbLine
 62
7
  6
CONTINUOUS
 10
1286.9476851368
 20
-259.3808266266
 11
1286.9476851368
 21
-202.3808266266
  0
LINE
  5
4BA
100
AcDbEntity
  8
0
100
AcDbLine
 62
9
  6
CONTINUOUS
 10
1290.9476851368
 20
-249.3808266266
 11
1290.9476851368
 21
-259.3808266266
  0
LINE
  5
4BB
100
AcDbEntity
  8
0
100
AcDbLine
 62
9
  6
CONTINUOUS
 10
1290.9476851368
 20
-419.3808266266
 11
1290.9476851368
 21
-429.3808266266
  0
LINE
  5
4BC
100
AcDbEntity
  8
02___PRT_ALL_AXES
100
AcDbLine
 62
7
  6
CONTINUOUS
 10
1296.9476851368
 20
-249.3808266266
 11
1296.9476851368
 21
-259.3808266266
  0
LINE
  5
4BD
100
AcDbEntity
  8
0
100
AcDbLine
 62
7
  6
CONTINUOUS
 10
1296.9476851368
 20
-259.3808266266
 11
1296.9476851368
 21
-419.3808266266
  0
LINE
  5
4BE
100
AcDbEntity
  8
02___PRT_ALL_AXES
100
AcDbLine
 62
7
  6
CONTINUOUS
 10
1296.9476851368
 20
-419.3808266266
 11
1296.9476851368
 21
-429.3808266266
  0
LINE
  5
4BF
100
AcDbEntity
  8
0
100
AcDbLine
 62
9
  6
CONTINUOUS
 10
1309.9476851368
 20
-259.3808266266
 11
1309.9476851368
 21
-419.3808266266
  0
LINE
  5
4C0
100
AcDbEntity
  8
0
100
AcDbLine
 62
7
  6
CONTINUOUS
 10
1311.9476851368
 20
-261.3808266266
 11
1311.9476851368
 21
-417.3808266266
  0
LINE
  5
4C1
100
AcDbEntity
  8
0
100
AcDbLine
 62
9
  6
CONTINUOUS
 10
1313.4300470466
 20
-268.6151928773
 11
1313.4300470466
 21
-410.1464603759
  0
LINE
  5
4C2
100
AcDbEntity
  8
0
100
AcDbLine
 62
7
  6
CONTINUOUS
 10
1334.9476851368
 20
-274.3808266266
 11
1334.9476851368
 21
-404.3808266266
  0
ARC
  5
4C3
100
AcDbEntity
  8
0
100
AcDbCircle
 62
7
  6
CONTINUOUS
 10
633.4476851368
 20
115.1733607151
 40
20.0
100
AcDbArc
 50
179.9999985716
 51
224.9999928613
  0
ARC
  5
4C4
100
AcDbEntity
  8
0
100
AcDbCircle
 62
7
  6
CONTINUOUS
 10
641.7319354305
 20
106.8891087546
 40
20.0
100
AcDbArc
 50
224.9999941405
 51
270.0
  0
ARC
  5
4C5
100
AcDbEntity
  8
0
100
AcDbCircle
 62
9
  6
CONTINUOUS
 10
957.4476851368
 20
188.8891087546
 40
5.0
100
AcDbArc
 50
90.0
 51
180.0
  0
ARC
  5
4C6
100
AcDbEntity
  8
0
100
AcDbCircle
 62
7
  6
CONTINUOUS
 10
957.4484076374
 20
109.8891663918
 40
3.0007225011
100
AcDbArc
 50
180.0011005244
 51
189.001436173
  0
ARC
  5
4C7
100
AcDbEntity
  8
0
100
AcDbCircle
 62
7
  6
CONTINUOUS
 10
957.4476851368
 20
188.8891087546
 40
3.0
100
AcDbArc
 50
90.0
 51
180.0
  0
ARC
  5
4C8
100
AcDbEntity
  8
0
100
AcDbCircle
 62
7
  6
CONTINUOUS
 10
940.4476851368
 20
99.8891087546
 40
3.0
100
AcDbArc
 50
250.5287793655
 51
270.0
  0
ARC
  5
4C9
100
AcDbEntity
  8
0
100
AcDbCircle
 62
7
  6
CONTINUOUS
 10
957.4476845452
 20
109.889108163
 40
2.9999994084
100
AcDbArc
 50
179.9999887013
 51
270.0000112987
  0
ARC
  5
4CA
100
AcDbEntity
  8
0
100
AcDbCircle
 62
7
  6
CONTINUOUS
 10
952.4476851368
 20
98.8891087546
 40
2.0
100
AcDbArc
 50
270.0
 51
360.0
  0
ARC
  5
4CB
100
AcDbEntity
  8
0
100
AcDbCircle
 62
9
  6
CONTINUOUS
 10
1039.4583390455
 20
-7721.1156051158
 40
7925.7788134195
100
AcDbArc
 50
90.1436292879
 51
90.3730976105
  0
ARC
  5
4CC
100
AcDbEntity
  8
0
100
AcDbCircle
 62
7
  6
CONTINUOUS
 10
1066.9476851368
 20
59.8891087546
 40
30.0
100
AcDbArc
 50
179.9999992848
 51
270.0
  0
ARC
  5
4CD
100
AcDbEntity
  8
0
100
AcDbCircle
 62
7
  6
CONTINUOUS
 10
1021.4476851368
 20
108.0161254084
 40
4.0
100
AcDbArc
 50
0.0
 51
51.3178125718
  0
ARC
  5
4CE
100
AcDbEntity
  8
0
100
AcDbCircle
 62
7
  6
CONTINUOUS
 10
1021.4476851368
 20
92.8891087546
 40
4.0
100
AcDbArc
 50
0.0
 51
90.0
  0
ARC
  5
4CF
100
AcDbEntity
  8
0
100
AcDbCircle
 62
7
  6
CONTINUOUS
 10
1019.4476850816
 20
109.8891088064
 40
3.0000000693
100
AcDbArc
 50
270.0000004485
 51
359.9999919412
  0
ARC
  5
4D0
100
AcDbEntity
  8
0
100
AcDbCircle
 62
7
  6
CONTINUOUS
 10
1027.4476851368
 20
63.8891087546
 40
2.0
100
AcDbArc
 50
180.0
 51
270.0
  0
ARC
  5
4D1
100
AcDbEntity
  8
0
100
AcDbCircle
 62
9
  6
CONTINUOUS
 10
993.2102690283
 20
159.7168967781
 40
10.5581979605
100
AcDbArc
 50
227.2368936971
 51
228.6664716416
  0
ARC
  5
4D2
100
AcDbEntity
  8
0
100
AcDbCircle
 62
9
  6
CONTINUOUS
 10
1028.2941629827
 20
120.4052548652
 40
8.8464778462
100
AcDbArc
 50
178.1480263931
 51
180.0004700902
  0
ARC
  5
4D3
100
AcDbEntity
  8
0
100
AcDbCircle
 62
9
  6
CONTINUOUS
 10
1014.3867401309
 20
120.8575307038
 40
8.0609450061
100
AcDbArc
 50
0.0004605272
 51
3.748799154
  0
ARC
  5
4D4
100
AcDbEntity
  8
0
100
AcDbCircle
 62
9
  6
CONTINUOUS
 10
1014.3894923263
 20
120.857639488
 40
8.0581915875
100
AcDbArc
 50
3.7493067779
 51
4.5876920571
  0
ARC
  5
4D5
100
AcDbEntity
  8
0
100
AcDbCircle
 62
9
  6
CONTINUOUS
 10
1012.4729099282
 20
118.6474197737
 40
8.0075042218
100
AcDbArc
 50
47.614387124
 51
49.5483357646
  0
ARC
  5
4D6
100
AcDbEntity
  8
0
100
AcDbCircle
 62
9
  6
CONTINUOUS
 10
1014.4629498959
 20
120.9195126898
 40
7.9597210111
100
AcDbArc
 50
47.9552407642
 51
49.9000778349
  0
ARC
  5
4D7
100
AcDbEntity
  8
0
100
AcDbCircle
 62
7
  6
CONTINUOUS
 10
1026.4476342295
 20
114.2610989517
 40
3.9999490926
100
AcDbArc
 50
180.0
 51
231.3179876942
  0
ARC
  5
4D8
100
AcDbEntity
  8
0
100
AcDbCircle
 62
7
  6
CONTINUOUS
 10
1019.4476851368
 20
188.8891087546
 40
3.0
100
AcDbArc
 50
0.0
 51
90.0
  0
ARC
  5
4D9
100
AcDbEntity
  8
0
100
AcDbCircle
 62
7
  6
CONTINUOUS
 10
1022.4476851368
 20
188.8891087546
 40
3.0
100
AcDbArc
 50
0.0
 51
90.0
  0
ARC
  5
4DA
100
AcDbEntity
  8
0
100
AcDbCircle
 62
9
  6
CONTINUOUS
 10
1022.0564685188
 20
190.6316626899
 40
1.2591502094
100
AcDbArc
 50
73.0336775365
 51
74.2489304774
  0
ARC
  5
4DB
100
AcDbEntity
  8
0
100
AcDbCircle
 62
7
  6
CONTINUOUS
 10
1256.9476851368
 20
59.8891087546
 40
30.0
100
AcDbArc
 50
270.0
 51
307.4479810768
  0
ARC
  5
4DC
100
AcDbEntity
  8
0
100
AcDbCircle
 62
7
  6
CONTINUOUS
 10
1290.9476851368
 20
100.8891170819
 40
4.0000009396
100
AcDbArc
 50
179.9999999148
 51
269.9999999999
  0
ARC
  5
4DD
100
AcDbEntity
  8
0
100
AcDbCircle
 62
7
  6
CONTINUOUS
 10
1153.9476851368
 20
31.8891087546
 40
3.0
100
AcDbArc
 50
0.0
 51
90.0
  0
ARC
  5
4DE
100
AcDbEntity
  8
0
100
AcDbCircle
 62
7
  6
CONTINUOUS
 10
1290.9476851368
 20
132.8891087546
 40
4.0
100
AcDbArc
 50
90.0
 51
180.0
  0
ARC
  5
4DF
100
AcDbEntity
  8
0
100
AcDbCircle
 62
7
  6
CONTINUOUS
 10
633.4476851368
 20
278.6048567942
 40
20.0
100
AcDbArc
 50
135.0000071387
 51
180.0000014284
  0
ARC
  5
4E0
100
AcDbEntity
  8
0
100
AcDbCircle
 62
7
  6
CONTINUOUS
 10
641.7319354305
 20
286.8891087546
 40
20.0
100
AcDbArc
 50
90.0
 51
135.0000058595
  0
ARC
  5
4E1
100
AcDbEntity
  8
0
100
AcDbCircle
 62
9
  6
CONTINUOUS
 10
957.4476851368
 20
204.8891087546
 40
5.0
100
AcDbArc
 50
180.0
 51
270.0
  0
ARC
  5
4E2
100
AcDbEntity
  8
0
100
AcDbCircle
 62
7
  6
CONTINUOUS
 10
957.4484032415
 20
283.8890529834
 40
3.0007181052
100
AcDbArc
 50
170.9985765912
 51
179.9989351027
  0
ARC
  5
4E3
100
AcDbEntity
  8
0
100
AcDbCircle
 62
7
  6
CONTINUOUS
 10
957.4476851368
 20
204.8891087546
 40
3.0
100
AcDbArc
 50
180.0
 51
270.0
  0
ARC
  5
4E4
100
AcDbEntity
  8
0
100
AcDbCircle
 62
7
  6
CONTINUOUS
 10
940.4476851368
 20
293.8891087546
 40
3.0
100
AcDbArc
 50
90.0
 51
109.4712206345
  0
ARC
  5
4E5
100
AcDbEntity
  8
0
100
AcDbCircle
 62
7
  6
CONTINUOUS
 10
957.4476850068
 20
283.8891088846
 40
2.99999987
100
AcDbArc
 50
89.9999975178
 51
180.0000024822
  0
ARC
  5
4E6
100
AcDbEntity
  8
0
100
AcDbCircle
 62
7
  6
CONTINUOUS
 10
957.4475462514
 20
283.8904402258
 40
2.9986621882
100
AcDbArc
 50
93.9123904454
 51
99.5825752563
  0
ARC
  5
4E7
100
AcDbEntity
  8
0
100
AcDbCircle
 62
7
  6
CONTINUOUS
 10
952.4476851368
 20
294.8891087546
 40
2.0
100
AcDbArc
 50
0.0
 51
90.0
  0
ARC
  5
4E8
100
AcDbEntity
  8
0
100
AcDbCircle
 62
9
  6
CONTINUOUS
 10
993.2049012365
 20
234.0672908526
 40
10.5501700184
100
AcDbArc
 50
131.3330523951
 51
132.7636975953
  0
ARC
  5
4E9
100
AcDbEntity
  8
0
100
AcDbCircle
 62
7
  6
CONTINUOUS
 10
1022.4476851368
 20
204.8891087546
 40
3.0
100
AcDbArc
 50
270.0
 51
360.0
  0
ARC
  5
4EA
100
AcDbEntity
  8
0
100
AcDbCircle
 62
7
  6
CONTINUOUS
 10
1019.4476851368
 20
204.8891087546
 40
3.0
100
AcDbArc
 50
270.0
 51
360.0
  0
ARC
  5
4EB
100
AcDbEntity
  8
0
100
AcDbCircle
 62
9
  6
CONTINUOUS
 10
1022.056468518
 20
203.1465548219
 40
1.259150212
100
AcDbArc
 50
285.7510699034
 51
286.9663224511
  0
ARC
  5
4EC
100
AcDbEntity
  8
0
100
AcDbCircle
 62
9
  6
CONTINUOUS
 10
1014.3869036066
 20
272.9206818195
 40
8.0607815305
100
AcDbArc
 50
356.2516062747
 51
359.9995749031
  0
ARC
  5
4ED
100
AcDbEntity
  8
0
100
AcDbCircle
 62
9
  6
CONTINUOUS
 10
1014.3895050889
 20
272.920575844
 40
8.0581786854
100
AcDbArc
 50
355.4184332809
 51
356.251148918
  0
ARC
  5
4EE
100
AcDbEntity
  8
0
100
AcDbCircle
 62
9
  6
CONTINUOUS
 10
1012.4728987026
 20
275.1308104646
 40
8.0075211912
100
AcDbArc
 50
310.4516660214
 51
312.3856108057
  0
ARC
  5
4EF
100
AcDbEntity
  8
0
100
AcDbCircle
 62
9
  6
CONTINUOUS
 10
1014.4629509736
 20
272.8587035828
 40
7.9597193709
100
AcDbArc
 50
310.0999219651
 51
312.0447594365
  0
ARC
  5
4F0
100
AcDbEntity
  8
0
100
AcDbCircle
 62
7
  6
CONTINUOUS
 10
1019.4476886342
 20
283.889109353
 40
2.9999965026
100
AcDbArc
 50
359.9999885715
 51
89.9999993565
  0
ARC
  5
4F1
100
AcDbEntity
  8
0
100
AcDbCircle
 62
9
  6
CONTINUOUS
 10
1028.2798016796
 20
273.3727305823
 40
8.832116548
100
AcDbArc
 50
179.9980237126
 51
181.8534798042
  0
ARC
  5
4F2
100
AcDbEntity
  8
0
100
AcDbCircle
 62
7
  6
CONTINUOUS
 10
1021.4476851368
 20
285.7620921008
 40
4.0
100
AcDbArc
 50
308.6820123058
 51
360.0
  0
ARC
  5
4F3
100
AcDbEntity
  8
0
100
AcDbCircle
 62
7
  6
CONTINUOUS
 10
1021.4476851368
 20
300.8891087546
 40
4.0
100
AcDbArc
 50
270.0
 51
360.0
  0
ARC
  5
4F4
100
AcDbEntity
  8
0
100
AcDbCircle
 62
7
  6
CONTINUOUS
 10
1026.4476342295
 20
279.5171185576
 40
3.9999490926
100
AcDbArc
 50
128.6820123237
 51
180.0
  0
ARC
  5
4F5
100
AcDbEntity
  8
0
100
AcDbCircle
 62
7
  6
CONTINUOUS
 10
1027.4476851368
 20
329.8891087546
 40
2.0
100
AcDbArc
 50
90.0
 51
180.0
  0
ARC
  5
4F6
100
AcDbEntity
  8
0
100
AcDbCircle
 62
7
  6
CONTINUOUS
 10
1066.9476851368
 20
411.8891087546
 40
30.0
100
AcDbArc
 50
89.9922146098
 51
180.0
  0
ARC
  5
4F7
100
AcDbEntity
  8
0
100
AcDbCircle
 62
7
  6
CONTINUOUS
 10
1140.94768801
 20
445.8891087546
 40
4.0000003966
100
AcDbArc
 50
180.0
 51
269.9999588452
  0
ARC
  5
4F8
100
AcDbEntity
  8
0
100
AcDbCircle
 62
7
  6
CONTINUOUS
 10
1072.9477603862
 20
445.8888751926
 40
3.999961073
100
AcDbArc
 50
269.9989220693
 51
0.0033455934
  0
ARC
  5
4F9
100
AcDbEntity
  8
0
100
AcDbCircle
 62
7
  6
CONTINUOUS
 10
1028.9476851368
 20
470.8891087546
 40
2.0
100
AcDbArc
 50
90.0
 51
180.0
  0
ARC
  5
4FA
100
AcDbEntity
  8
0
100
AcDbCircle
 62
7
  6
CONTINUOUS
 10
1036.125844082
 20
474.8891087546
 40
2.0
100
AcDbArc
 50
270.0
 51
345.0
  0
ARC
  5
4FB
100
AcDbEntity
  8
0
100
AcDbCircle
 62
7
  6
CONTINUOUS
 10
1290.9476851368
 20
260.8891087546
 40
4.0
100
AcDbArc
 50
180.0
 51
270.0
  0
ARC
  5
4FC
100
AcDbEntity
  8
0
100
AcDbCircle
 62
7
  6
CONTINUOUS
 10
1309.9476851368
 20
283.8891087546
 40
2.0
100
AcDbArc
 50
270.0
 51
360.0
  0
ARC
  5
4FD
100
AcDbEntity
  8
0
100
AcDbCircle
 62
7
  6
CONTINUOUS
 10
1313.9476851368
 20
289.1916233528
 40
2.0
100
AcDbArc
 50
105.0
 51
180.0
  0
ARC
  5
4FE
100
AcDbEntity
  8
0
100
AcDbCircle
 62
7
  6
CONTINUOUS
 10
1184.9476851368
 20
470.8891087546
 40
2.0
100
AcDbArc
 50
0.0
 51
90.0
  0
ARC
  5
4FF
100
AcDbEntity
  8
0
100
AcDbCircle
 62
7
  6
CONTINUOUS
 10
1177.7695261917
 20
474.8891087546
 40
2.0
100
AcDbArc
 50
195.0
 51
270.0
  0
ARC
  5
500
100
AcDbEntity
  8
0
100
AcDbCircle
 62
7
  6
CONTINUOUS
 10
1309.9476851368
 20
439.8891087546
 40
2.0
100
AcDbArc
 50
0.0
 51
90.0
  0
ARC
  5
501
100
AcDbEntity
  8
0
100
AcDbCircle
 62
7
  6
CONTINUOUS
 10
1313.9476851368
 20
434.5865941565
 40
2.0
100
AcDbArc
 50
180.0
 51
255.0
  0
ARC
  5
502
100
AcDbEntity
  8
0
100
AcDbCircle
 62
9
  6
CONTINUOUS
 10
1039.4583390385
 20
8114.8938210704
 40
7925.7788118649
100
AcDbArc
 50
269.6269023894
 51
269.8563707121
  0
ARC
  5
503
100
AcDbEntity
  8
0
100
AcDbCircle
 62
9
  6
CONTINUOUS
 10
3712.7574183737
 20
-2900.7784134076
 40
4157.7054534114
100
AcDbArc
 50
130.3724238013
 51
130.9435448796
  0
ARC
  5
504
100
AcDbEntity
  8
0
100
AcDbCircle
 62
9
  6
CONTINUOUS
 10
3712.757413056
 20
3294.5566247251
 40
4157.7054452496
100
AcDbArc
 50
229.0564551198
 51
229.6275761992
  0
ARC
  5
505
100
AcDbEntity
  8
0
100
AcDbCircle
 62
7
  6
CONTINUOUS
 10
189.5444385186
 20
196.8891087546
 40
167.0
100
AcDbArc
 50
180.0
 51
360.0
  0
ARC
  5
506
100
AcDbEntity
  8
0
100
AcDbCircle
 62
9
  6
CONTINUOUS
 10
189.5444385186
 20
196.8891087546
 40
137.0
100
AcDbArc
 50
298.8513447926
 51
360.0
  0
ARC
  5
507
100
AcDbEntity
  8
0
100
AcDbCircle
 62
9
  6
CONTINUOUS
 10
189.5444385186
 20
196.8891087546
 40
137.0
100
AcDbArc
 50
180.0
 51
241.1486549695
  0
ARC
  5
508
100
AcDbEntity
  8
0
100
AcDbCircle
 62
9
  6
CONTINUOUS
 10
124.5444385186
 20
231.8891087546
 40
29.0
100
AcDbArc
 50
90.0
 51
180.0
  0
ARC
  5
509
100
AcDbEntity
  8
0
100
AcDbCircle
 62
9
  6
CONTINUOUS
 10
124.5444385186
 20
161.8891087546
 40
29.0
100
AcDbArc
 50
180.0
 51
270.0
  0
ARC
  5
50A
100
AcDbEntity
  8
02___PRT_ALL_AXES
100
AcDbCircle
 62
7
  6
CONTINUOUS
 10
124.5444385186
 20
161.8891087546
 40
25.0
100
AcDbArc
 50
180.0
 51
270.0
  0
ARC
  5
50B
100
AcDbEntity
  8
02___PRT_ALL_AXES
100
AcDbCircle
 62
7
  6
CONTINUOUS
 10
124.5444385186
 20
231.8891087546
 40
25.0
100
AcDbArc
 50
90.0
 51
180.0
  0
ARC
  5
50C
100
AcDbEntity
  8
0
100
AcDbCircle
 62
7
  6
CONTINUOUS
 10
30.5444385186
 20
31.8891087546
 40
3.0
100
AcDbArc
 50
90.0
 51
180.0
  0
ARC
  5
50D
100
AcDbEntity
  8
0
100
AcDbCircle
 62
7
  6
CONTINUOUS
 10
189.5444385186
 20
287.6914932766
 40
167.0
100
AcDbArc
 50
0.0
 51
63.3607017595
  0
ARC
  5
50E
100
AcDbEntity
  8
0
100
AcDbCircle
 62
7
  6
CONTINUOUS
 10
189.5444385186
 20
287.6914932766
 40
167.0
100
AcDbArc
 50
116.3498131349
 51
180.0
  0
ARC
  5
50F
100
AcDbEntity
  8
0
100
AcDbCircle
 62
9
  6
CONTINUOUS
 10
189.5444385186
 20
287.6914932766
 40
137.0
100
AcDbArc
 50
125.7282544584
 51
180.0
  0
ARC
  5
510
100
AcDbEntity
  8
0
100
AcDbCircle
 62
9
  6
CONTINUOUS
 10
189.5444385186
 20
287.6914932766
 40
137.0
100
AcDbArc
 50
0.0
 51
54.2717455416
  0
CIRCLE
  5
511
100
AcDbEntity
  8
0
100
AcDbCircle
 62
9
  6
CONTINUOUS
 10
189.5444385186
 20
361.8891087546
 40
72.6974854019
  0
CIRCLE
  5
512
100
AcDbEntity
  8
0
100
AcDbCircle
 62
9
  6
CONTINUOUS
 10
189.5444385186
 20
361.8891087546
 40
70.7656337493
  0
CIRCLE
  5
513
100
AcDbEntity
  8
0
100
AcDbCircle
 62
7
  6
CONTINUOUS
 10
189.5444385186
 20
361.8891087546
 40
65.0
  0
ARC
  5
514
100
AcDbEntity
  8
0
100
AcDbCircle
 62
2
  6
CONTINUOUS
 10
189.5444385186
 20
361.8891087546
 40
58.5
100
AcDbArc
 50
255.0
 51
195.0
  0
CIRCLE
  5
515
100
AcDbEntity
  8
02___PRT_ALL_AXES
100
AcDbCircle
 62
7
  6
CONTINUOUS
 10
189.5444385186
 20
361.8891087546
 40
57.5
  0
CIRCLE
  5
516
100
AcDbEntity
  8
02___PRT_ALL_AXES
100
AcDbCircle
 62
7
  6
CONTINUOUS
 10
189.5444385186
 20
361.8891087546
 40
55.25
  0
ARC
  5
517
100
AcDbEntity
  8
0
100
AcDbCircle
 62
9
  6
CONTINUOUS
 10
129.5516041573
 20
423.117139933
 40
22.7719699491
100
AcDbArc
 50
90.0180292203
 51
114.7405356774
  0
ARC
  5
518
100
AcDbEntity
  8
0
100
AcDbCircle
 62
7
  6
CONTINUOUS
 10
127.5444385186
 20
299.8891087546
 40
18.0
100
AcDbArc
 50
180.0
 51
270.0
  0
ARC
  5
519
100
AcDbEntity
  8
0
100
AcDbCircle
 62
7
  6
CONTINUOUS
 10
127.5444385186
 20
423.8891087546
 40
18.0
100
AcDbArc
 50
90.0
 51
180.0
  0
ARC
  5
51A
100
AcDbEntity
  8
0
100
AcDbCircle
 62
9
  6
CONTINUOUS
 10
127.5444385186
 20
299.8891087546
 40
16.0
100
AcDbArc
 50
180.0
 51
270.0
  0
ARC
  5
51B
100
AcDbEntity
  8
0
100
AcDbCircle
 62
9
  6
CONTINUOUS
 10
127.5444385186
 20
423.8891087546
 40
16.0
100
AcDbArc
 50
90.0
 51
180.0
  0
ARC
  5
51C
100
AcDbEntity
  8
0
100
AcDbCircle
 62
7
  6
CONTINUOUS
 10
60.5446231101
 20
399.9414424844
 40
3.9999416017
100
AcDbArc
 50
318.967550653
 51
359.9967396538
  0
ARC
  5
51D
100
AcDbEntity
  8
0
100
AcDbCircle
 62
7
  6
CONTINUOUS
 10
198.5442472232
 20
445.8891087546
 40
3.999922558
100
AcDbArc
 50
180.0
 51
270.0027401045
  0
ARC
  5
51E
100
AcDbEntity
  8
0
100
AcDbCircle
 62
9
  6
CONTINUOUS
 10
254.5444385186
 20
161.8891087546
 40
29.0
100
AcDbArc
 50
270.0
 51
360.0
  0
ARC
  5
51F
100
AcDbEntity
  8
0
100
AcDbCircle
 62
9
  6
CONTINUOUS
 10
254.5444385186
 20
231.8891087546
 40
29.0
100
AcDbArc
 50
0.0
 51
90.0
  0
ARC
  5
520
100
AcDbEntity
  8
02___PRT_ALL_AXES
100
AcDbCircle
 62
7
  6
CONTINUOUS
 10
254.5444385186
 20
161.8891087546
 40
25.0
100
AcDbArc
 50
270.0
 51
360.0
  0
ARC
  5
521
100
AcDbEntity
  8
02___PRT_ALL_AXES
100
AcDbCircle
 62
7
  6
CONTINUOUS
 10
254.5444385186
 20
231.8891087546
 40
25.0
100
AcDbArc
 50
0.0
 51
90.0
  0
ARC
  5
522
100
AcDbEntity
  8
0
100
AcDbCircle
 62
7
  6
CONTINUOUS
 10
314.5444385186
 20
31.8891087546
 40
3.0
100
AcDbArc
 50
0.0
 51
90.0
  0
ARC
  5
523
100
AcDbEntity
  8
0
100
AcDbCircle
 62
7
  6
CONTINUOUS
 10
251.5444385186
 20
299.8891087546
 40
18.0
100
AcDbArc
 50
270.0
 51
360.0
  0
ARC
  5
524
100
AcDbEntity
  8
0
100
AcDbCircle
 62
7
  6
CONTINUOUS
 10
251.5444385186
 20
423.8891087546
 40
18.0
100
AcDbArc
 50
0.0
 51
90.0
  0
ARC
  5
525
100
AcDbEntity
  8
0
100
AcDbCircle
 62
9
  6
CONTINUOUS
 10
251.5444385186
 20
299.8891087546
 40
16.0
100
AcDbArc
 50
270.0
 51
360.0
  0
ARC
  5
526
100
AcDbEntity
  8
0
100
AcDbCircle
 62
9
  6
CONTINUOUS
 10
251.5444385186
 20
423.8891087546
 40
16.0
100
AcDbArc
 50
0.0
 51
90.0
  0
ARC
  5
527
100
AcDbEntity
  8
0
100
AcDbCircle
 62
7
  6
CONTINUOUS
 10
374.5444385186
 20
470.8891087546
 40
2.0
100
AcDbArc
 50
0.0
 51
90.0
  0
ARC
  5
528
100
AcDbEntity
  8
0
100
AcDbCircle
 62
7
  6
CONTINUOUS
 10
218.5444385186
 20
470.8891087546
 40
2.0
100
AcDbArc
 50
90.0
 51
180.0
  0
ARC
  5
529
100
AcDbEntity
  8
0
100
AcDbCircle
 62
7
  6
CONTINUOUS
 10
225.7225974638
 20
474.8891087546
 40
2.0
100
AcDbArc
 50
270.0000000002
 51
345.0
  0
ARC
  5
52A
100
AcDbEntity
  8
0
100
AcDbCircle
 62
7
  6
CONTINUOUS
 10
367.3662795735
 20
474.8891087546
 40
2.0
100
AcDbArc
 50
195.0
 51
269.9999999998
  0
ARC
  5
52B
100
AcDbEntity
  8
0
100
AcDbCircle
 62
9
  6
CONTINUOUS
 10
-3334.9908197792
 20
-2900.7784072171
 40
4157.7054452513
100
AcDbArc
 50
49.0564551198
 51
49.6275761992
  0
ARC
  5
52C
100
AcDbEntity
  8
0
100
AcDbCircle
 62
9
  6
CONTINUOUS
 10
-3334.9908250934
 20
3294.5566309142
 40
4157.7054534078
100
AcDbArc
 50
310.3724238013
 51
310.9435448796
  0
ARC
  5
52D
100
AcDbEntity
  8
0
100
AcDbCircle
 62
9
  6
CONTINUOUS
 10
-661.6917457605
 20
-7721.1156035512
 40
7925.7788118549
100
AcDbArc
 50
89.6269023894
 51
89.8563707121
  0
ARC
  5
52E
100
AcDbEntity
  8
0
100
AcDbCircle
 62
7
  6
CONTINUOUS
 10
-879.1810918589
 20
59.8891087546
 40
30.0
100
AcDbArc
 50
232.5520189232
 51
270.0
  0
ARC
  5
52F
100
AcDbEntity
  8
0
100
AcDbCircle
 62
7
  6
CONTINUOUS
 10
-913.1810918589
 20
100.8891170819
 40
4.0000009396
100
AcDbArc
 50
270.0000000001
 51
0.0000000852
  0
ARC
  5
530
100
AcDbEntity
  8
0
100
AcDbCircle
 62
7
  6
CONTINUOUS
 10
-776.1810918589
 20
31.8891087546
 40
3.0
100
AcDbArc
 50
90.0
 51
180.0
  0
ARC
  5
531
100
AcDbEntity
  8
0
100
AcDbCircle
 62
7
  6
CONTINUOUS
 10
-913.1810918589
 20
132.8891087546
 40
4.0
100
AcDbArc
 50
0.0
 51
90.0
  0
ARC
  5
532
100
AcDbEntity
  8
0
100
AcDbCircle
 62
7
  6
CONTINUOUS
 10
-689.1810918589
 20
59.8891087546
 40
30.0
100
AcDbArc
 50
270.0
 51
0.0000007152
  0
ARC
  5
533
100
AcDbEntity
  8
0
100
AcDbCircle
 62
7
  6
CONTINUOUS
 10
-643.6810918589
 20
108.0161254084
 40
4.0
100
AcDbArc
 50
128.6821874282
 51
180.0
  0
ARC
  5
534
100
AcDbEntity
  8
0
100
AcDbCircle
 62
7
  6
CONTINUOUS
 10
-643.6810918589
 20
92.8891087546
 40
4.0
100
AcDbArc
 50
90.0
 51
180.0
  0
ARC
  5
535
100
AcDbEntity
  8
0
100
AcDbCircle
 62
7
  6
CONTINUOUS
 10
-641.6810953563
 20
109.8891081562
 40
2.9999965026
100
AcDbArc
 50
179.9999885715
 51
269.9999993565
  0
ARC
  5
536
100
AcDbEntity
  8
0
100
AcDbCircle
 62
7
  6
CONTINUOUS
 10
-649.6810918589
 20
63.8891087546
 40
2.0
100
AcDbArc
 50
270.0
 51
360.0
  0
ARC
  5
537
100
AcDbEntity
  8
0
100
AcDbCircle
 62
9
  6
CONTINUOUS
 10
-615.4383079587
 20
159.7109266568
 40
10.5501700187
100
AcDbArc
 50
311.3330523951
 51
312.7636975953
  0
ARC
  5
538
100
AcDbEntity
  8
0
100
AcDbCircle
 62
9
  6
CONTINUOUS
 10
-650.5132084023
 20
120.405486927
 40
8.8321165486
100
AcDbArc
 50
359.9980237126
 51
1.8534798041
  0
ARC
  5
539
100
AcDbEntity
  8
0
100
AcDbCircle
 62
9
  6
CONTINUOUS
 10
-636.6203103285
 20
120.8575356897
 40
8.0607815306
100
AcDbArc
 50
176.2516062747
 51
179.9995749031
  0
ARC
  5
53A
100
AcDbEntity
  8
0
100
AcDbCircle
 62
9
  6
CONTINUOUS
 10
-636.622911814
 20
120.8576416656
 40
8.0581786824
100
AcDbArc
 50
175.4184332808
 51
176.2511489182
  0
ARC
  5
53B
100
AcDbEntity
  8
0
100
AcDbCircle
 62
9
  6
CONTINUOUS
 10
-634.7063054246
 20
118.6474070446
 40
8.0075211913
100
AcDbArc
 50
130.4516660215
 51
132.3856108057
  0
ARC
  5
53C
100
AcDbEntity
  8
0
100
AcDbCircle
 62
9
  6
CONTINUOUS
 10
-636.6963576964
 20
120.9195139274
 40
7.9597193698
100
AcDbArc
 50
130.099921965
 51
132.0447594367
  0
ARC
  5
53D
100
AcDbEntity
  8
0
100
AcDbCircle
 62
7
  6
CONTINUOUS
 10
-648.6810409567
 20
114.2610989542
 40
3.9999490979
100
AcDbArc
 50
308.6820123237
 51
360.0
  0
ARC
  5
53E
100
AcDbEntity
  8
0
100
AcDbCircle
 62
7
  6
CONTINUOUS
 10
-641.6810918589
 20
188.8891087546
 40
3.0
100
AcDbArc
 50
90.0
 51
180.0
  0
ARC
  5
53F
100
AcDbEntity
  8
0
100
AcDbCircle
 62
7
  6
CONTINUOUS
 10
-644.6810918589
 20
188.8891087546
 40
3.0
100
AcDbArc
 50
90.0
 51
180.0
  0
ARC
  5
540
100
AcDbEntity
  8
0
100
AcDbCircle
 62
9
  6
CONTINUOUS
 10
-644.2898752402
 20
190.6316626876
 40
1.2591502117
100
AcDbArc
 50
105.7510699032
 51
106.9663224511
  0
ARC
  5
541
100
AcDbEntity
  8
0
100
AcDbCircle
 62
7
  6
CONTINUOUS
 10
-255.6810918589
 20
115.1733607151
 40
20.0
100
AcDbArc
 50
315.0000071387
 51
0.0000014284
  0
ARC
  5
542
100
AcDbEntity
  8
0
100
AcDbCircle
 62
7
  6
CONTINUOUS
 10
-263.9653421525
 20
106.8891087546
 40
20.0
100
AcDbArc
 50
270.0
 51
315.0000058595
  0
ARC
  5
543
100
AcDbEntity
  8
0
100
AcDbCircle
 62
9
  6
CONTINUOUS
 10
-579.6810918589
 20
188.8891087546
 40
5.0
100
AcDbArc
 50
0.0
 51
90.0
  0
ARC
  5
544
100
AcDbEntity
  8
0
100
AcDbCircle
 62
7
  6
CONTINUOUS
 10
-579.6818099636
 20
109.8891645259
 40
3.0007181053
100
AcDbArc
 50
350.9985765912
 51
359.9989351026
  0
ARC
  5
545
100
AcDbEntity
  8
0
100
AcDbCircle
 62
7
  6
CONTINUOUS
 10
-579.6810918589
 20
188.8891087546
 40
3.0
100
AcDbArc
 50
0.0
 51
90.0
  0
ARC
  5
546
100
AcDbEntity
  8
0
100
AcDbCircle
 62
7
  6
CONTINUOUS
 10
-562.6810918589
 20
99.8891087546
 40
3.0
100
AcDbArc
 50
270.0
 51
289.4712206345
  0
ARC
  5
547
100
AcDbEntity
  8
0
100
AcDbCircle
 62
7
  6
CONTINUOUS
 10
-579.6810917289
 20
109.8891086247
 40
2.99999987
100
AcDbArc
 50
269.9999975178
 51
0.0000024822
  0
ARC
  5
548
100
AcDbEntity
  8
0
100
AcDbCircle
 62
7
  6
CONTINUOUS
 10
-579.6809529735
 20
109.8877772835
 40
2.9986621882
100
AcDbArc
 50
273.9123904454
 51
279.5825752563
  0
ARC
  5
549
100
AcDbEntity
  8
0
100
AcDbCircle
 62
7
  6
CONTINUOUS
 10
-574.6810918589
 20
98.8891087546
 40
2.0
100
AcDbArc
 50
180.0
 51
270.0
  0
ARC
  5
54A
100
AcDbEntity
  8
0
100
AcDbCircle
 62
7
  6
CONTINUOUS
 10
-913.1810918589
 20
260.8891087546
 40
4.0
100
AcDbArc
 50
270.0
 51
360.0
  0
ARC
  5
54B
100
AcDbEntity
  8
0
100
AcDbCircle
 62
7
  6
CONTINUOUS
 10
-932.1810918589
 20
283.8891087546
 40
2.0
100
AcDbArc
 50
180.0
 51
270.0
  0
ARC
  5
54C
100
AcDbEntity
  8
0
100
AcDbCircle
 62
7
  6
CONTINUOUS
 10
-936.1810918589
 20
289.1916233528
 40
2.0
100
AcDbArc
 50
0.0
 51
75.0
  0
ARC
  5
54D
100
AcDbEntity
  8
0
100
AcDbCircle
 62
7
  6
CONTINUOUS
 10
-932.1810918589
 20
439.8891087546
 40
2.0
100
AcDbArc
 50
90.0
 51
180.0
  0
ARC
  5
54E
100
AcDbEntity
  8
0
100
AcDbCircle
 62
7
  6
CONTINUOUS
 10
-936.1810918589
 20
434.5865941565
 40
2.0
100
AcDbArc
 50
285.0
 51
360.0
  0
ARC
  5
54F
100
AcDbEntity
  8
0
100
AcDbCircle
 62
7
  6
CONTINUOUS
 10
-807.1810918589
 20
470.8891087546
 40
2.0
100
AcDbArc
 50
90.0
 51
180.0
  0
ARC
  5
550
100
AcDbEntity
  8
0
100
AcDbCircle
 62
7
  6
CONTINUOUS
 10
-800.0029329137
 20
474.8891087546
 40
2.0
100
AcDbArc
 50
270.0
 51
345.0
  0
ARC
  5
551
100
AcDbEntity
  8
0
100
AcDbCircle
 62
7
  6
CONTINUOUS
 10
-644.6810918589
 20
204.8891087546
 40
3.0
100
AcDbArc
 50
180.0
 51
270.0
  0
ARC
  5
552
100
AcDbEntity
  8
0
100
AcDbCircle
 62
7
  6
CONTINUOUS
 10
-641.6810918589
 20
204.8891087546
 40
3.0
100
AcDbArc
 50
180.0
 51
270.0
  0
ARC
  5
553
100
AcDbEntity
  8
0
100
AcDbCircle
 62
9
  6
CONTINUOUS
 10
-644.2898752407
 20
203.14655482
 40
1.25915021
100
AcDbArc
 50
253.0336775366
 51
254.2489304769
  0
ARC
  5
554
100
AcDbEntity
  8
0
100
AcDbCircle
 62
9
  6
CONTINUOUS
 10
-650.5275697047
 20
273.3729626441
 40
8.8464778462
100
AcDbArc
 50
358.1480263931
 51
0.0004700902
  0
ARC
  5
555
100
AcDbEntity
  8
0
100
AcDbCircle
 62
7
  6
CONTINUOUS
 10
-643.6810918589
 20
285.7620921008
 40
4.0
100
AcDbArc
 50
180.0
 51
231.3179876942
  0
ARC
  5
556
100
AcDbEntity
  8
0
100
AcDbCircle
 62
7
  6
CONTINUOUS
 10
-643.6810918589
 20
300.8891087546
 40
4.0
100
AcDbArc
 50
180.0
 51
270.0
  0
ARC
  5
557
100
AcDbEntity
  8
0
100
AcDbCircle
 62
7
  6
CONTINUOUS
 10
-648.6810409515
 20
279.5171185576
 40
3.9999490926
100
AcDbArc
 50
0.0
 51
51.3179876942
  0
ARC
  5
558
100
AcDbEntity
  8
0
100
AcDbCircle
 62
7
  6
CONTINUOUS
 10
-649.6810918589
 20
329.8891087546
 40
2.0
100
AcDbArc
 50
0.0
 51
90.0
  0
ARC
  5
559
100
AcDbEntity
  8
0
100
AcDbCircle
 62
9
  6
CONTINUOUS
 10
-636.6201468793
 20
272.9206868044
 40
8.0609449799
100
AcDbArc
 50
180.0004605196
 51
183.7487991038
  0
ARC
  5
55A
100
AcDbEntity
  8
0
100
AcDbCircle
 62
9
  6
CONTINUOUS
 10
-636.6228990009
 20
272.920578026
 40
8.0581916351
100
AcDbArc
 50
183.7493067345
 51
184.5876603112
  0
ARC
  5
55B
100
AcDbEntity
  8
0
100
AcDbCircle
 62
9
  6
CONTINUOUS
 10
-634.7063127876
 20
275.130802114
 40
8.0075100597
100
AcDbArc
 50
227.614387829
 51
229.5483350595
  0
ARC
  5
55C
100
AcDbEntity
  8
0
100
AcDbCircle
 62
9
  6
CONTINUOUS
 10
-636.696352094
 20
272.8587100105
 40
7.9597278958
100
AcDbArc
 50
227.9552416054
 51
229.9000769937
  0
ARC
  5
55D
100
AcDbEntity
  8
0
100
AcDbCircle
 62
7
  6
CONTINUOUS
 10
-641.6810918037
 20
283.8891087029
 40
3.0000000693
100
AcDbArc
 50
90.0000004485
 51
179.9999919412
  0
ARC
  5
55E
100
AcDbEntity
  8
0
100
AcDbCircle
 62
9
  6
CONTINUOUS
 10
-615.4436507379
 20
234.0613484633
 40
10.5581606178
100
AcDbArc
 50
47.2368911689
 51
48.6664741699
  0
ARC
  5
55F
100
AcDbEntity
  8
0
100
AcDbCircle
 62
7
  6
CONTINUOUS
 10
-689.1810918589
 20
411.8891087546
 40
30.0
100
AcDbArc
 50
0.0
 51
68.9605166274
  0
ARC
  5
560
100
AcDbEntity
  8
0
100
AcDbCircle
 62
7
  6
CONTINUOUS
 10
-651.1810918589
 20
470.8891087546
 40
2.0
100
AcDbArc
 50
0.0
 51
90.0
  0
ARC
  5
561
100
AcDbEntity
  8
0
100
AcDbCircle
 62
7
  6
CONTINUOUS
 10
-658.359250804
 20
474.8891087546
 40
2.0
100
AcDbArc
 50
195.0
 51
270.0
  0
ARC
  5
562
100
AcDbEntity
  8
0
100
AcDbCircle
 62
9
  6
CONTINUOUS
 10
-661.6917457674
 20
8114.8938225852
 40
7925.7788133796
100
AcDbArc
 50
270.1436292879
 51
270.3730976105
  0
ARC
  5
563
100
AcDbEntity
  8
0
100
AcDbCircle
 62
7
  6
CONTINUOUS
 10
-255.6810918589
 20
278.6048567942
 40
20.0
100
AcDbArc
 50
359.9999985716
 51
44.9999928613
  0
ARC
  5
564
100
AcDbEntity
  8
0
100
AcDbCircle
 62
7
  6
CONTINUOUS
 10
-263.9653421525
 20
286.8891087546
 40
20.0
100
AcDbArc
 50
44.9999941405
 51
90.0
  0
ARC
  5
565
100
AcDbEntity
  8
0
100
AcDbCircle
 62
9
  6
CONTINUOUS
 10
-579.6810918589
 20
204.8891087546
 40
5.0
100
AcDbArc
 50
270.0
 51
360.0
  0
ARC
  5
566
100
AcDbEntity
  8
0
100
AcDbCircle
 62
7
  6
CONTINUOUS
 10
-579.6895673719
 20
283.8879450619
 40
3.0085530858
100
AcDbArc
 50
8.9991394982
 51
9.5433290828
  0
ARC
  5
567
100
AcDbEntity
  8
0
100
AcDbCircle
 62
7
  6
CONTINUOUS
 10
-579.6818143595
 20
283.8890511174
 40
3.0007225012
100
AcDbArc
 50
0.0011005245
 51
9.0014361727
  0
ARC
  5
568
100
AcDbEntity
  8
0
100
AcDbCircle
 62
7
  6
CONTINUOUS
 10
-579.6811672576
 20
283.888611349
 40
3.0005013524
100
AcDbArc
 50
80.4122201983
 51
86.0859102689
  0
ARC
  5
569
100
AcDbEntity
  8
0
100
AcDbCircle
 62
7
  6
CONTINUOUS
 10
-579.6810918589
 20
204.8891087546
 40
3.0
100
AcDbArc
 50
270.0
 51
360.0
  0
ARC
  5
56A
100
AcDbEntity
  8
0
100
AcDbCircle
 62
7
  6
CONTINUOUS
 10
-562.6810918589
 20
293.8891087546
 40
3.0
100
AcDbArc
 50
70.5287793655
 51
90.0
  0
ARC
  5
56B
100
AcDbEntity
  8
0
100
AcDbCircle
 62
7
  6
CONTINUOUS
 10
-579.6810912673
 20
283.8891093462
 40
2.9999994084
100
AcDbArc
 50
359.9999887013
 51
90.0000112987
  0
ARC
  5
56C
100
AcDbEntity
  8
0
100
AcDbCircle
 62
7
  6
CONTINUOUS
 10
-574.6810918589
 20
294.8891087546
 40
2.0
100
AcDbArc
 50
90.0
 51
180.0
  0
ARC
  5
56D
100
AcDbEntity
  8
0
100
AcDbCircle
 62
7
  6
CONTINUOUS
 10
1738.8756928333
 20
136.8891087546
 40
40.0
100
AcDbArc
 50
180.0
 51
270.0
  0
ARC
  5
56E
100
AcDbEntity
  8
0
100
AcDbCircle
 62
7
  6
CONTINUOUS
 10
1738.8756928333
 20
136.8891087546
 40
39.8284271247
100
AcDbArc
 50
180.0
 51
270.0
  0
ARC
  5
56F
100
AcDbEntity
  8
3_ALL_AXES
100
AcDbCircle
 62
7
  6
CONTINUOUS
 10
1722.8617138557
 20
120.8751297771
 40
7.0
100
AcDbArc
 50
153.5232149207
 51
296.476785051
  0
ARC
  5
570
100
AcDbEntity
  8
0
100
AcDbCircle
 62
7
  6
CONTINUOUS
 10
1680.8756928333
 20
22.8891087546
 40
6.0
100
AcDbArc
 50
270.0
 51
360.0
  0
ARC
  5
571
100
AcDbEntity
  8
0
100
AcDbCircle
 62
3
  6
CONTINUOUS
 10
1689.8756928333
 20
78.8891087546
 40
6.0
100
AcDbArc
 50
90.0
 51
180.0
  0
CIRCLE
  5
572
100
AcDbEntity
  8
3_ALL_AXES
100
AcDbCircle
 62
7
  6
CONTINUOUS
 10
1683.3907512694
 20
149.053679709
 40
5.5
  0
ARC
  5
573
100
AcDbEntity
  8
3_ALL_AXES
100
AcDbCircle
 62
7
  6
CONTINUOUS
 10
1751.0402637876
 20
81.4041671907
 40
5.5
100
AcDbArc
 50
174.9288001459
 51
5.0660094032
  0
CIRCLE
  5
574
100
AcDbEntity
  8
3_ALL_AXES
100
AcDbCircle
 62
7
  6
CONTINUOUS
 10
1683.3907512694
 20
244.7245378003
 40
5.5
  0
ARC
  5
575
100
AcDbEntity
  8
0
100
AcDbCircle
 62
7
  6
CONTINUOUS
 10
1689.8756928333
 20
78.8891087546
 40
3.0
100
AcDbArc
 50
90.0
 51
180.0
  0
ARC
  5
576
100
AcDbEntity
  8
0
100
AcDbCircle
 62
3
  6
CONTINUOUS
 10
1680.8756928333
 20
22.8891087546
 40
3.0
100
AcDbArc
 50
270.0
 51
360.0
  0
ARC
  5
577
100
AcDbEntity
  8
0
100
AcDbCircle
 62
7
  6
CONTINUOUS
 10
1738.8756928333
 20
256.8891087546
 40
40.0
100
AcDbArc
 50
90.0
 51
180.0
  0
ARC
  5
578
100
AcDbEntity
  8
0
100
AcDbCircle
 62
7
  6
CONTINUOUS
 10
1738.8756928333
 20
256.8891087546
 40
39.8284271247
100
AcDbArc
 50
90.0
 51
180.0
  0
ARC
  5
579
100
AcDbEntity
  8
0
100
AcDbCircle
 62
7
  6
CONTINUOUS
 10
1722.0190542637
 20
421.2503370616
 40
18.9258713017
100
AcDbArc
 50
99.9925546454
 51
114.1130891598
  0
ARC
  5
57A
100
AcDbEntity
  8
3_ALL_AXES
100
AcDbCircle
 62
7
  6
CONTINUOUS
 10
1722.8617138557
 20
272.9030877322
 40
7.0
100
AcDbArc
 50
63.523214949
 51
206.4767850793
  0
ARC
  5
57B
100
AcDbEntity
  8
0
100
AcDbCircle
 62
7
  6
CONTINUOUS
 10
1596.8756928333
 20
470.8891087546
 40
2.0
100
AcDbArc
 50
90.0
 51
180.0
  0
ARC
  5
57C
100
AcDbEntity
  8
0
100
AcDbCircle
 62
7
  6
CONTINUOUS
 10
1752.8756928333
 20
470.8891087546
 40
2.0
100
AcDbArc
 50
0.0
 51
90.0
  0
ARC
  5
57D
100
AcDbEntity
  8
0
100
AcDbCircle
 62
7
  6
CONTINUOUS
 10
1745.6975338881
 20
474.8891087546
 40
2.0
100
AcDbArc
 50
195.0
 51
269.9999999998
  0
ARC
  5
57E
100
AcDbEntity
  8
0
100
AcDbCircle
 62
7
  6
CONTINUOUS
 10
1604.0538517784
 20
474.8891087546
 40
2.0
100
AcDbArc
 50
270.0000000002
 51
345.0
  0
ARC
  5
57F
100
AcDbEntity
  8
3_ALL_AXES
100
AcDbCircle
 62
7
  6
CONTINUOUS
 10
1846.7111218789
 20
81.4041671907
 40
5.5
100
AcDbArc
 50
174.9184146751
 51
5.0815853249
  0
ARC
  5
580
100
AcDbEntity
  8
0
100
AcDbCircle
 62
7
  6
CONTINUOUS
 10
1781.8756928333
 20
196.8891087546
 40
167.0
100
AcDbArc
 50
235.16584815
 51
316.5010241878
  0
ARC
  5
581
100
AcDbEntity
  8
0
100
AcDbCircle
 62
7
  6
CONTINUOUS
 10
1781.8756928333
 20
196.8891087546
 40
167.0
100
AcDbArc
 50
319.5434687662
 51
360.0
  0
ARC
  5
582
100
AcDbEntity
  8
0
100
AcDbCircle
 62
7
  6
CONTINUOUS
 10
1781.8756928333
 20
196.8891087546
 40
167.0
100
AcDbArc
 50
180.0
 51
233.9643584744
  0
ARC
  5
583
100
AcDbEntity
  8
0
100
AcDbCircle
 62
9
  6
CONTINUOUS
 10
1781.8756928333
 20
196.8891087546
 40
136.9999995294
100
AcDbArc
 50
180.0
 51
227.1454408481
  0
ARC
  5
584
100
AcDbEntity
  8
0
100
AcDbCircle
 62
9
  6
CONTINUOUS
 10
1781.8756928333
 20
196.8891087546
 40
136.9999995294
100
AcDbArc
 50
237.1067797761
 51
279.805768578
  0
ARC
  5
585
100
AcDbEntity
  8
0
100
AcDbCircle
 62
9
  6
CONTINUOUS
 10
1781.8756928333
 20
196.8891087546
 40
136.9999995294
100
AcDbArc
 50
297.9332631753
 51
300.7312046616
  0
ARC
  5
586
100
AcDbEntity
  8
0
100
AcDbCircle
 62
9
  6
CONTINUOUS
 10
1781.8756928333
 20
196.8891087546
 40
136.9999995294
100
AcDbArc
 50
338.5786498914
 51
341.7346950868
  0
ARC
  5
587
100
AcDbEntity
  8
3_ALL_AXES
100
AcDbCircle
 62
7
  6
CONTINUOUS
 10
1798.8756928333
 20
196.8891087546
 40
135.0
100
AcDbArc
 50
238.4171596822
 51
270.0
  0
ARC
  5
588
100
AcDbEntity
  8
3_ALL_AXES
100
AcDbCircle
 62
7
  6
CONTINUOUS
 10
1798.8756928333
 20
196.8891087546
 40
135.0
100
AcDbArc
 50
116.389405867
 51
227.7981429293
  0
ARC
  5
589
100
AcDbEntity
  8
0
100
AcDbCircle
 62
7
  6
CONTINUOUS
 10
1798.8756928333
 20
196.8891087546
 40
135.0
100
AcDbArc
 50
116.4042623498
 51
227.8328747746
  0
ARC
  5
58A
100
AcDbEntity
  8
0
100
AcDbCircle
 62
7
  6
CONTINUOUS
 10
1798.8756928333
 20
196.8891087546
 40
135.0
100
AcDbArc
 50
238.4359668253
 51
301.5640331747
  0
ARC
  5
58B
100
AcDbEntity
  8
0
100
AcDbCircle
 62
7
  6
CONTINUOUS
 10
1798.8756928333
 20
196.8891087546
 40
135.0
100
AcDbArc
 50
312.1671252254
 51
63.5957376502
  0
ARC
  5
58C
100
AcDbEntity
  8
0
100
AcDbCircle
 62
9
  6
CONTINUOUS
 10
1798.8756928333
 20
196.8891087546
 40
133.0
100
AcDbArc
 50
116.8306578277
 51
228.7871708827
  0
ARC
  5
58D
100
AcDbEntity
  8
0
100
AcDbCircle
 62
9
  6
CONTINUOUS
 10
1798.8756928333
 20
196.8891087546
 40
133.0
100
AcDbArc
 50
311.2128291038
 51
63.1693421659
  0
ARC
  5
58E
100
AcDbEntity
  8
0
100
AcDbCircle
 62
9
  6
CONTINUOUS
 10
1798.8756928333
 20
196.8891087546
 40
133.0
100
AcDbArc
 50
239.90411907
 51
300.0958809334
  0
CIRCLE
  5
58F
100
AcDbEntity
  8
0
100
AcDbCircle
 62
7
  6
CONTINUOUS
 10
1798.8756928333
 20
196.8891087546
 40
110.0
  0
CIRCLE
  5
590
100
AcDbEntity
  8
0
100
AcDbCircle
 62
9
  6
CONTINUOUS
 10
1798.8756928333
 20
196.8891087546
 40
104.1421341824
  0
CIRCLE
  5
591
100
AcDbEntity
  8
0
100
AcDbCircle
 62
9
  6
CONTINUOUS
 10
1798.8756928333
 20
196.8891087546
 40
95.8578819024
  0
CIRCLE
  5
592
100
AcDbEntity
  8
0
100
AcDbCircle
 62
9
  6
CONTINUOUS
 10
1798.8756928333
 20
196.8891087546
 40
81.7157475513
  0
ARC
  5
593
100
AcDbEntity
  8
3_ALL_AXES
100
AcDbCircle
 62
7
  6
CONTINUOUS
 10
1874.8896718108
 20
120.8751297771
 40
7.0
100
AcDbArc
 50
243.523214949
 51
26.4767850793
  0
ARC
  5
594
100
AcDbEntity
  8
0
100
AcDbCircle
 62
7
  6
CONTINUOUS
 10
1916.8756928333
 20
22.8891087546
 40
6.0
100
AcDbArc
 50
180.0
 51
270.0
  0
ARC
  5
595
100
AcDbEntity
  8
0
100
AcDbCircle
 62
3
  6
CONTINUOUS
 10
1907.8756928333
 20
78.8891087546
 40
6.0
100
AcDbArc
 50
0.0
 51
90.0
  0
ARC
  5
596
100
AcDbEntity
  8
0
100
AcDbCircle
 62
7
  6
CONTINUOUS
 10
1907.8756928333
 20
78.8891087546
 40
3.0
100
AcDbArc
 50
0.0
 51
90.0
  0
ARC
  5
597
100
AcDbEntity
  8
0
100
AcDbCircle
 62
3
  6
CONTINUOUS
 10
1916.8756928333
 20
22.8891087546
 40
3.0
100
AcDbArc
 50
180.0
 51
270.0
  0
ARC
  5
598
100
AcDbEntity
  8
0
100
AcDbCircle
 62
7
  6
CONTINUOUS
 10
1858.8756928333
 20
136.8891087546
 40
40.0
100
AcDbArc
 50
270.0
 51
360.0
  0
ARC
  5
599
100
AcDbEntity
  8
0
100
AcDbCircle
 62
7
  6
CONTINUOUS
 10
1858.8756928333
 20
136.8891087546
 40
39.8284271247
100
AcDbArc
 50
270.0
 51
360.0
  0
CIRCLE
  5
59A
100
AcDbEntity
  8
3_ALL_AXES
100
AcDbCircle
 62
7
  6
CONTINUOUS
 10
1914.3606343972
 20
149.053679709
 40
5.5
  0
CIRCLE
  5
59B
100
AcDbEntity
  8
3_ALL_AXES
100
AcDbCircle
 62
7
  6
CONTINUOUS
 10
1914.3606343972
 20
244.7245378003
 40
5.5
  0
ARC
  5
59C
100
AcDbEntity
  8
0
100
AcDbCircle
 62
7
  6
CONTINUOUS
 10
1781.8756928333
 20
287.6914932766
 40
167.0
100
AcDbArc
 50
0.0
 51
65.9105069335
  0
ARC
  5
59D
100
AcDbEntity
  8
0
100
AcDbCircle
 62
7
  6
CONTINUOUS
 10
1781.8756928333
 20
287.6914932766
 40
167.0
100
AcDbArc
 50
157.5292684807
 51
180.0
  0
ARC
  5
59E
100
AcDbEntity
  8
0
100
AcDbCircle
 62
7
  6
CONTINUOUS
 10
1781.8756928333
 20
287.6914932766
 40
165.2842712475
100
AcDbArc
 50
114.1372180175
 51
145.9833459452
  0
ARC
  5
59F
100
AcDbEntity
  8
0
100
AcDbCircle
 62
9
  6
CONTINUOUS
 10
1781.8756928333
 20
287.6914932766
 40
137.0
100
AcDbArc
 50
114.9668814511
 51
180.0
  0
ARC
  5
5A0
100
AcDbEntity
  8
0
100
AcDbCircle
 62
9
  6
CONTINUOUS
 10
1781.8756928333
 20
287.6914932766
 40
137.0
100
AcDbArc
 50
0.0
 51
65.0331172528
  0
ARC
  5
5A1
100
AcDbEntity
  8
0
100
AcDbCircle
 62
9
  6
CONTINUOUS
 10
1841.8685387583
 20
423.1171926185
 40
22.7719172599
100
AcDbArc
 50
65.2594352692
 51
89.9819998331
  0
ARC
  5
5A2
100
AcDbEntity
  8
0
100
AcDbCircle
 62
7
  6
CONTINUOUS
 10
1841.8756928333
 20
421.8891087546
 40
20.0
100
AcDbArc
 50
65.910602816
 51
90.0000091482
  0
ARC
  5
5A3
100
AcDbEntity
  8
0
100
AcDbCircle
 62
7
  6
CONTINUOUS
 10
1772.8758841286
 20
445.8891087546
 40
3.999922558
100
AcDbArc
 50
269.9972598955
 51
360.0
  0
ARC
  5
5A4
100
AcDbEntity
  8
0
100
AcDbCircle
 62
7
  6
CONTINUOUS
 10
1858.8756928333
 20
256.8891087546
 40
40.0
100
AcDbArc
 50
0.0
 51
90.0
  0
ARC
  5
5A5
100
AcDbEntity
  8
0
100
AcDbCircle
 62
7
  6
CONTINUOUS
 10
1858.8756928333
 20
256.8891087546
 40
39.8284271247
100
AcDbArc
 50
0.0
 51
90.0
  0
ARC
  5
5A6
100
AcDbEntity
  8
3_ALL_AXES
100
AcDbCircle
 62
7
  6
CONTINUOUS
 10
1874.8896718108
 20
272.9030877322
 40
7.0
100
AcDbArc
 50
333.5232149207
 51
116.476785051
  0
ARC
  5
5A7
100
AcDbEntity
  8
0
100
AcDbCircle
 62
7
  6
CONTINUOUS
 10
1910.8755082418
 20
399.9414424844
 40
3.9999416017
100
AcDbArc
 50
180.0032603462
 51
221.032449347
  0
ARC
  5
5A8
100
AcDbEntity
  8
0
100
AcDbCircle
 62
7
  6
CONTINUOUS
 10
641.7319354305
 20
-446.3808266266
 40
20.0
100
AcDbArc
 50
224.9999942359
 51
270.0
  0
ARC
  5
5A9
100
AcDbEntity
  8
0
100
AcDbCircle
 62
3
  6
CONTINUOUS
 10
876.9476851368
 20
-486.3808266266
 40
15.0
100
AcDbArc
 50
270.0
 51
360.0
  0
ARC
  5
5AA
100
AcDbEntity
  8
0
100
AcDbCircle
 62
3
  6
CONTINUOUS
 10
721.9476851368
 20
-486.3808266266
 40
15.0
100
AcDbArc
 50
180.0
 51
270.0
  0
ARC
  5
5AB
100
AcDbEntity
  8
02___PRT_ALL_AXES
100
AcDbCircle
 62
3
  6
CONTINUOUS
 10
869.4476851368
 20
-488.3808266266
 40
6.0
100
AcDbArc
 50
180.0
 51
360.0
  0
ARC
  5
5AC
100
AcDbEntity
  8
02___PRT_ALL_AXES
100
AcDbCircle
 62
3
  6
CONTINUOUS
 10
869.4476851368
 20
-484.3808266266
 40
6.0
100
AcDbArc
 50
0.0
 51
180.0
  0
ARC
  5
5AD
100
AcDbEntity
  8
02___PRT_ALL_AXES
100
AcDbCircle
 62
3
  6
CONTINUOUS
 10
729.4476851368
 20
-488.3808266266
 40
6.0
100
AcDbArc
 50
180.0
 51
360.0
  0
ARC
  5
5AE
100
AcDbEntity
  8
02___PRT_ALL_AXES
100
AcDbCircle
 62
3
  6
CONTINUOUS
 10
729.4476851368
 20
-484.3808266266
 40
6.0
100
AcDbArc
 50
0.0
 51
180.0
  0
ARC
  5
5AF
100
AcDbEntity
  8
0
100
AcDbCircle
 62
7
  6
CONTINUOUS
 10
940.4476851368
 20
-453.3808266266
 40
3.0
100
AcDbArc
 50
250.5287793655
 51
270.0
  0
ARC
  5
5B0
100
AcDbEntity
  8
0
100
AcDbCircle
 62
7
  6
CONTINUOUS
 10
952.4476851368
 20
-454.3808266266
 40
2.0
100
AcDbArc
 50
270.0
 51
360.0
  0
ARC
  5
5B1
100
AcDbEntity
  8
0
100
AcDbCircle
 62
7
  6
CONTINUOUS
 10
633.4476851368
 20
-438.0965746661
 40
20.0
100
AcDbArc
 50
180.0
 51
224.9999942359
  0
ARC
  5
5B2
100
AcDbEntity
  8
0
100
AcDbCircle
 62
9
  6
CONTINUOUS
 10
957.4476851368
 20
-399.3808266266
 40
5.0
100
AcDbArc
 50
90.0
 51
180.0
  0
ARC
  5
5B3
100
AcDbEntity
  8
0
100
AcDbCircle
 62
7
  6
CONTINUOUS
 10
957.4476851368
 20
-399.3808266266
 40
3.0
100
AcDbArc
 50
90.0
 51
180.0
  0
ARC
  5
5B4
100
AcDbEntity
  8
0
100
AcDbCircle
 62
7
  6
CONTINUOUS
 10
1256.9476851368
 20
-476.3808266266
 40
30.0
100
AcDbArc
 50
270.0
 51
360.0
  0
ARC
  5
5B5
100
AcDbEntity
  8
0
100
AcDbCircle
 62
7
  6
CONTINUOUS
 10
1066.9476851368
 20
-476.3808266266
 40
30.0
100
AcDbArc
 50
180.0
 51
270.0
  0
ARC
  5
5B6
100
AcDbEntity
  8
0
100
AcDbCircle
 62
7
  6
CONTINUOUS
 10
1021.4476851368
 20
-445.2538099728
 40
4.0
100
AcDbArc
 50
0.0
 51
51.3178125465
  0
ARC
  5
5B7
100
AcDbEntity
  8
0
100
AcDbCircle
 62
7
  6
CONTINUOUS
 10
1022.4476851368
 20
-459.3808266266
 40
3.0
100
AcDbArc
 50
0.0
 51
90.0
  0
ARC
  5
5B8
100
AcDbEntity
  8
0
100
AcDbCircle
 62
7
  6
CONTINUOUS
 10
1027.4476851368
 20
-489.3808266266
 40
2.0
100
AcDbArc
 50
180.0
 51
270.0
  0
ARC
  5
5B9
100
AcDbEntity
  8
0
100
AcDbCircle
 62
9
  6
CONTINUOUS
 10
1021.4476851368
 20
-445.2538099728
 40
1.0
100
AcDbArc
 50
0.0
 51
51.3178125465
  0
ARC
  5
5BA
100
AcDbEntity
  8
0
100
AcDbCircle
 62
9
  6
CONTINUOUS
 10
1173.292678528
 20
-399.3754933399
 40
100.344993533
100
AcDbArc
 50
180.0030452423
 51
184.6693379925
  0
ARC
  5
5BB
100
AcDbEntity
  8
0
100
AcDbCircle
 62
9
  6
CONTINUOUS
 10
1041.1184510499
 20
-399.3965346933
 40
99.8292353227
100
AcDbArc
 50
355.3186013107
 51
0.0090154545
  0
ARC
  5
5BC
100
AcDbEntity
  8
0
100
AcDbCircle
 62
9
  6
CONTINUOUS
 10
1014.4141481981
 20
-433.1006141905
 40
8.0335369867
100
AcDbArc
 50
0.0062655027
 51
8.5826575895
  0
ARC
  5
5BD
100
AcDbEntity
  8
0
100
AcDbCircle
 62
9
  6
CONTINUOUS
 10
1014.4344806128
 20
-433.0973176869
 40
8.0129054238
100
AcDbArc
 50
8.5810468988
 51
49.9539524809
  0
ARC
  5
5BE
100
AcDbEntity
  8
0
100
AcDbCircle
 62
9
  6
CONTINUOUS
 10
982.7041540662
 20
-406.2046162819
 40
7.9859094114
100
AcDbArc
 50
49.9031399537
 51
89.9906217986
  0
ARC
  5
5BF
100
AcDbEntity
  8
0
100
AcDbCircle
 62
9
  6
CONTINUOUS
 10
1026.4476851368
 20
-439.0088119744
 40
7.0
100
AcDbArc
 50
180.0
 51
231.3178125465
  0
ARC
  5
5C0
100
AcDbEntity
  8
0
100
AcDbCircle
 62
7
  6
CONTINUOUS
 10
1021.4476851368
 20
-400.3808266266
 40
4.0
100
AcDbArc
 50
0.0
 51
90.0
  0
ARC
  5
5C1
100
AcDbEntity
  8
0
100
AcDbCircle
 62
7
  6
CONTINUOUS
 10
1026.4476851368
 20
-439.0088119649
 40
4.0
100
AcDbArc
 50
180.0000000571
 51
231.3178126055
  0
ARC
  5
5C2
100
AcDbEntity
  8
0
100
AcDbCircle
 62
7
  6
CONTINUOUS
 10
1290.9476851368
 20
-433.3808266266
 40
4.0
100
AcDbArc
 50
90.0
 51
180.0
  0
ARC
  5
5C3
100
AcDbEntity
  8
0
100
AcDbCircle
 62
9
  6
CONTINUOUS
 10
1025.102877687
 20
-394.9887763759
 40
2.6692627896
100
AcDbArc
 50
229.5005707199
 51
238.4838985372
  0
ARC
  5
5C4
100
AcDbEntity
  8
0
100
AcDbCircle
 62
9
  6
CONTINUOUS
 10
1025.0845380036
 20
-395.0112998002
 40
2.640225253
100
AcDbArc
 50
228.7788664414
 51
229.4857727431
  0
ARC
  5
5C5
100
AcDbEntity
  8
0
100
AcDbCircle
 62
9
  6
CONTINUOUS
 10
1025.0817890258
 20
-395.0145274283
 40
2.6359860371
100
AcDbArc
 50
221.4000896358
 51
228.777579749
  0
ARC
  5
5C6
100
AcDbEntity
  8
0
100
AcDbCircle
 62
9
  6
CONTINUOUS
 10
1025.0735763965
 20
-395.0221637958
 40
2.6247756488
100
AcDbArc
 50
220.8356643317
 51
221.3936065367
  0
ARC
  5
5C7
100
AcDbEntity
  8
0
100
AcDbCircle
 62
7
  6
CONTINUOUS
 10
1309.9476851368
 20
-417.3808266266
 40
2.0
100
AcDbArc
 50
270.0
 51
360.0
  0
ARC
  5
5C8
100
AcDbEntity
  8
0
100
AcDbCircle
 62
7
  6
CONTINUOUS
 10
1313.9476851368
 20
-412.0783120285
 40
2.0
100
AcDbArc
 50
105.0
 51
179.9999999998
  0
ARC
  5
5C9
100
AcDbEntity
  8
0
100
AcDbCircle
 62
9
  6
CONTINUOUS
 10
1023.1783917479
 20
-397.4177143452
 40
0.5674494641
100
AcDbArc
 50
47.7642369322
 51
51.2454361046
  0
ARC
  5
5CA
100
AcDbEntity
  8
0
100
AcDbCircle
 62
7
  6
CONTINUOUS
 10
641.7319354305
 20
-266.3808266266
 40
20.0
100
AcDbArc
 50
90.0
 51
135.0000057641
  0
ARC
  5
5CB
100
AcDbEntity
  8
0
100
AcDbCircle
 62
7
  6
CONTINUOUS
 10
633.4476851368
 20
-274.6650785871
 40
20.0
100
AcDbArc
 50
135.0000057641
 51
180.0
  0
ARC
  5
5CC
100
AcDbEntity
  8
0
100
AcDbCircle
 62
2
  6
CONTINUOUS
 10
962.9476851368
 20
-356.3808266266
 40
6.6
100
AcDbArc
 50
255.0
 51
195.0
  0
CIRCLE
  5
5CD
100
AcDbEntity
  8
3_ALL_AXES
100
AcDbCircle
 62
7
  6
CONTINUOUS
 10
962.9476851368
 20
-356.3808266266
 40
5.875
  0
ARC
  5
5CE
100
AcDbEntity
  8
0
100
AcDbCircle
 62
9
  6
CONTINUOUS
 10
957.4476851368
 20
-313.3808266266
 40
5.0
100
AcDbArc
 50
180.0
 51
270.0
  0
CIRCLE
  5
5CF
100
AcDbEntity
  8
3_ALL_AXES
100
AcDbCircle
 62
7
  6
CONTINUOUS
 10
962.9476851368
 20
-356.3808266266
 40
3.0
  0
ARC
  5
5D0
100
AcDbEntity
  8
0
100
AcDbCircle
 62
7
  6
CONTINUOUS
 10
957.4476851368
 20
-313.3808266266
 40
3.0
100
AcDbArc
 50
180.0
 51
270.0
  0
ARC
  5
5D1
100
AcDbEntity
  8
0
100
AcDbCircle
 62
3
  6
CONTINUOUS
 10
876.9476851368
 20
-226.3808266266
 40
15.0
100
AcDbArc
 50
0.0
 51
90.0
  0
ARC
  5
5D2
100
AcDbEntity
  8
0
100
AcDbCircle
 62
3
  6
CONTINUOUS
 10
721.9476851368
 20
-226.3808266266
 40
15.0
100
AcDbArc
 50
90.0
 51
180.0
  0
ARC
  5
5D3
100
AcDbEntity
  8
02___PRT_ALL_AXES
100
AcDbCircle
 62
3
  6
CONTINUOUS
 10
729.4476851368
 20
-224.3808266266
 40
6.0
100
AcDbArc
 50
0.0
 51
180.0
  0
ARC
  5
5D4
100
AcDbEntity
  8
02___PRT_ALL_AXES
100
AcDbCircle
 62
3
  6
CONTINUOUS
 10
729.4476851368
 20
-228.3808266266
 40
6.0
100
AcDbArc
 50
180.0
 51
360.0
  0
ARC
  5
5D5
100
AcDbEntity
  8
02___PRT_ALL_AXES
100
AcDbCircle
 62
3
  6
CONTINUOUS
 10
869.4476851368
 20
-224.3808266266
 40
6.0
100
AcDbArc
 50
0.0
 51
180.0
  0
ARC
  5
5D6
100
AcDbEntity
  8
02___PRT_ALL_AXES
100
AcDbCircle
 62
3
  6
CONTINUOUS
 10
869.4476851368
 20
-228.3808266266
 40
6.0
100
AcDbArc
 50
180.0
 51
360.0
  0
ARC
  5
5D7
100
AcDbEntity
  8
0
100
AcDbCircle
 62
7
  6
CONTINUOUS
 10
940.4476851368
 20
-259.3808266266
 40
3.0
100
AcDbArc
 50
90.0
 51
109.4712206345
  0
ARC
  5
5D8
100
AcDbEntity
  8
0
100
AcDbCircle
 62
7
  6
CONTINUOUS
 10
952.4476851368
 20
-258.3808266266
 40
2.0
100
AcDbArc
 50
0.0
 51
90.0
  0
ARC
  5
5D9
100
AcDbEntity
  8
0
100
AcDbCircle
 62
7
  6
CONTINUOUS
 10
1168.9476851368
 20
-294.3808266266
 40
18.0
100
AcDbArc
 50
270.0
 51
360.0
  0
ARC
  5
5DA
100
AcDbEntity
  8
0
100
AcDbCircle
 62
7
  6
CONTINUOUS
 10
1044.9476851368
 20
-294.3808266266
 40
18.0
100
AcDbArc
 50
180.0
 51
270.0
  0
ARC
  5
5DB
100
AcDbEntity
  8
0
100
AcDbCircle
 62
9
  6
CONTINUOUS
 10
1168.9476851368
 20
-294.3808266266
 40
16.0
100
AcDbArc
 50
270.0
 51
360.0
  0
ARC
  5
5DC
100
AcDbEntity
  8
0
100
AcDbCircle
 62
9
  6
CONTINUOUS
 10
1044.9476851368
 20
-294.3808266266
 40
16.0
100
AcDbArc
 50
180.0
 51
270.0
  0
ARC
  5
5DD
100
AcDbEntity
  8
0
100
AcDbCircle
 62
9
  6
CONTINUOUS
 10
1014.4141490752
 20
-279.6610391781
 40
8.0335361096
100
AcDbArc
 50
351.4177941741
 51
359.9937353204
  0
ARC
  5
5DE
100
AcDbEntity
  8
0
100
AcDbCircle
 62
9
  6
CONTINUOUS
 10
1014.4344805358
 20
-279.6643355117
 40
8.0129055162
100
AcDbArc
 50
310.0460476901
 51
351.4194058421
  0
ARC
  5
5DF
100
AcDbEntity
  8
0
100
AcDbCircle
 62
9
  6
CONTINUOUS
 10
982.704154096
 20
-306.5570370524
 40
7.9859094111
100
AcDbArc
 50
270.0093779881
 51
310.096860258
  0
ARC
  5
5E0
100
AcDbEntity
  8
0
100
AcDbCircle
 62
9
  6
CONTINUOUS
 10
1026.4476851368
 20
-273.7528412788
 40
7.0
100
AcDbArc
 50
128.6821874535
 51
180.0
  0
ARC
  5
5E1
100
AcDbEntity
  8
0
100
AcDbCircle
 62
7
  6
CONTINUOUS
 10
1021.4476851368
 20
-267.5078432804
 40
4.0
100
AcDbArc
 50
308.6821874281
 51
360.0
  0
ARC
  5
5E2
100
AcDbEntity
  8
0
100
AcDbCircle
 62
7
  6
CONTINUOUS
 10
1021.4476851368
 20
-312.3808266266
 40
4.0
100
AcDbArc
 50
270.0
 51
360.0
  0
ARC
  5
5E3
100
AcDbEntity
  8
0
100
AcDbCircle
 62
7
  6
CONTINUOUS
 10
1026.4476851368
 20
-273.7528412788
 40
4.0
100
AcDbArc
 50
128.6821874788
 51
180.0000000771
  0
ARC
  5
5E4
100
AcDbEntity
  8
0
100
AcDbCircle
 62
9
  6
CONTINUOUS
 10
1025.0960066908
 20
-317.7667606986
 40
2.6604583961
100
AcDbArc
 50
121.4588113029
 51
130.4699096225
  0
ARC
  5
5E5
100
AcDbEntity
  8
0
100
AcDbCircle
 62
9
  6
CONTINUOUS
 10
1025.0783436537
 20
-317.7450386243
 40
2.6324693081
100
AcDbArc
 50
130.4843089497
 51
131.1883229153
  0
ARC
  5
5E6
100
AcDbEntity
  8
0
100
AcDbCircle
 62
9
  6
CONTINUOUS
 10
1025.0762884786
 20
-317.7425676237
 40
2.6292563529
100
AcDbArc
 50
131.1900798186
 51
138.6155755876
  0
ARC
  5
5E7
100
AcDbEntity
  8
0
100
AcDbCircle
 62
9
  6
CONTINUOUS
 10
1025.0687706148
 20
-317.735568013
 40
2.6189882858
100
AcDbArc
 50
138.6217367004
 51
139.1821758004
  0
ARC
  5
5E8
100
AcDbEntity
  8
0
100
AcDbCircle
 62
7
  6
CONTINUOUS
 10
1313.9476851368
 20
-266.6833412247
 40
2.0
100
AcDbArc
 50
180.0000000002
 51
255.0
  0
ARC
  5
5E9
100
AcDbEntity
  8
0
100
AcDbCircle
 62
9
  6
CONTINUOUS
 10
1021.4476851368
 20
-267.5078432804
 40
1.0
100
AcDbArc
 50
308.6821874535
 51
360.0
  0
ARC
  5
5EA
100
AcDbEntity
  8
0
100
AcDbCircle
 62
9
  6
CONTINUOUS
 10
1023.1829510399
 20
-315.3489193638
 40
0.5607645242
100
AcDbArc
 50
309.017142593
 51
312.293993813
  0
CIRCLE
  5
5EB
100
AcDbEntity
  8
0
100
AcDbCircle
 62
9
  6
CONTINUOUS
 10
1106.9476851368
 20
-232.3808266266
 40
70.8218410548
  0
CIRCLE
  5
5EC
100
AcDbEntity
  8
0
100
AcDbCircle
 62
9
  6
CONTINUOUS
 10
1106.9476851368
 20
-232.3808266266
 40
68.8899894023
  0
CIRCLE
  5
5ED
100
AcDbEntity
  8
0
100
AcDbCircle
 62
7
  6
CONTINUOUS
 10
1106.9476851368
 20
-232.3808266266
 40
65.0
  0
ARC
  5
5EE
100
AcDbEntity
  8
0
100
AcDbCircle
 62
2
  6
CONTINUOUS
 10
1106.9476851368
 20
-232.3808266266
 40
58.5
100
AcDbArc
 50
255.0
 51
195.0
  0
CIRCLE
  5
5EF
100
AcDbEntity
  8
02___PRT_ALL_AXES
100
AcDbCircle
 62
7
  6
CONTINUOUS
 10
1106.9476851368
 20
-232.3808266266
 40
57.5
  0
CIRCLE
  5
5F0
100
AcDbEntity
  8
02___PRT_ALL_AXES
100
AcDbCircle
 62
7
  6
CONTINUOUS
 10
1106.9476851368
 20
-232.3808266266
 40
55.25
  0
ARC
  5
5F1
100
AcDbEntity
  8
0
100
AcDbCircle
 62
7
  6
CONTINUOUS
 10
1256.9476851368
 20
-202.3808266266
 40
30.0
100
AcDbArc
 50
0.0
 51
90.0
  0
ARC
  5
5F2
100
AcDbEntity
  8
0
100
AcDbCircle
 62
7
  6
CONTINUOUS
 10
1168.9476851368
 20
-170.3808266266
 40
18.0
100
AcDbArc
 50
0.0
 51
90.0
  0
ARC
  5
5F3
100
AcDbEntity
  8
0
100
AcDbCircle
 62
7
  6
CONTINUOUS
 10
1044.9476851368
 20
-170.3808266266
 40
18.0
100
AcDbArc
 50
90.0
 51
180.0
  0
ARC
  5
5F4
100
AcDbEntity
  8
0
100
AcDbCircle
 62
9
  6
CONTINUOUS
 10
1168.9476851368
 20
-170.3808266266
 40
16.0
100
AcDbArc
 50
0.0
 51
90.0
  0
ARC
  5
5F5
100
AcDbEntity
  8
0
100
AcDbCircle
 62
9
  6
CONTINUOUS
 10
1044.9476851368
 20
-170.3808266266
 40
16.0
100
AcDbArc
 50
90.0
 51
180.0
  0
ARC
  5
5F6
100
AcDbEntity
  8
0
100
AcDbCircle
 62
7
  6
CONTINUOUS
 10
1290.9476851368
 20
-245.3808266266
 40
4.0
100
AcDbArc
 50
180.0
 51
270.0
  0
ARC
  5
5F7
100
AcDbEntity
  8
0
100
AcDbCircle
 62
7
  6
CONTINUOUS
 10
1022.4476851368
 20
-253.3808266266
 40
3.0
100
AcDbArc
 50
270.0
 51
360.0
  0
ARC
  5
5F8
100
AcDbEntity
  8
0
100
AcDbCircle
 62
7
  6
CONTINUOUS
 10
1309.9476851368
 20
-261.3808266266
 40
2.0
100
AcDbArc
 50
0.0
 51
90.0
  0
ARC
  5
5F9
100
AcDbEntity
  8
0
100
AcDbCircle
 62
7
  6
CONTINUOUS
 10
1027.4476851368
 20
-223.3808266266
 40
2.0
100
AcDbArc
 50
104.5429454401
 51
180.0
  0
ARC
  5
5FA
100
AcDbEntity
  8
0
100
AcDbCircle
 62
9
  6
CONTINUOUS
 10
8284.3153293387
 20
-8900.7765963503
 40
11269.1651634212
100
AcDbArc
 50
130.1398246213
 51
130.3512626273
  0
ARC
  5
5FB
100
AcDbEntity
  8
0
100
AcDbCircle
 62
9
  6
CONTINUOUS
 10
7436.26327272
 20
-7893.1267120568
 40
9955.1319794157
100
AcDbArc
 50
130.1471621004
 51
130.3865844811
  0
ARC
  5
5FC
100
AcDbEntity
  8
0
100
AcDbCircle
 62
9
  6
CONTINUOUS
 10
8284.3153307018
 20
8188.0149447076
 40
11269.165165531
100
AcDbArc
 50
229.6487373727
 51
229.8601753787
  0
ARC
  5
5FD
100
AcDbEntity
  8
0
100
AcDbCircle
 62
9
  6
CONTINUOUS
 10
7436.2632739894
 20
7180.3650603022
 40
9955.1319813797
100
AcDbArc
 50
229.6134155189
 51
229.8528378996
  0
SPLINE
  5
5FE
100
AcDbEntity
  8
0
100
AcDbSpline
 62
9
  6
CONTINUOUS
 70
0
 71
3
 72
13
 73
9
 74
0
 42
0.0000001
 43
0.0000001
 44
0.0000000001
 40
0.0
 40
0.0
 40
0.0
 40
0.0
 40
0.2962096918
 40
0.564508425
 40
0.685058441
 40
0.7963874635
 40
0.9002904343
 40
1.0
 40
1.0
 40
1.0
 40
1.0
 10
987.8477600441
 20
204.4951697187
 30
0.0
 10
987.8179846236
 20
204.1484898114
 30
0.0
 10
987.6865188345
 20
203.4915526024
 30
0.0
 10
987.3257796123
 20
202.7572361314
 30
0.0
 10
986.9364963328
 20
202.3128006806
 30
0.0
 10
986.6195360213
 20
202.0726122521
 30
0.0
 10
986.276910182
 20
201.9232524833
 30
0.0
 10
986.036527635
 20
201.8891089022
 30
0.0
 10
985.9193992462
 20
201.8891087546
 30
0.0
  0
SPLINE
  5
5FF
100
AcDbEntity
  8
0
100
AcDbSpline
 62
9
  6
CONTINUOUS
 70
0
 71
3
 72
11
 73
7
 74
0
 42
0.0000001
 43
0.0000001
 44
0.0000000001
 40
0.0
 40
0.0
 40
0.0
 40
0.0
 40
0.2499922568
 40
0.4999916916
 40
0.7499953028
 40
1.0
 40
1.0
 40
1.0
 40
1.0
 10
1017.8709041569
 20
269.2162578406
 30
0.0
 10
1018.1306379055
 20
269.4630573981
 30
0.0
 10
1018.5985954329
 20
270.0141722
 30
0.0
 10
1019.1101065529
 20
270.9683036746
 30
0.0
 10
1019.4115296424
 20
272.0080352771
 30
0.0
 10
1019.4639076327
 20
272.7289475591
 30
0.0
 10
1019.4523060401
 20
273.0870674014
 30
0.0
  0
SPLINE
  5
600
100
AcDbEntity
  8
0
100
AcDbSpline
 62
9
  6
CONTINUOUS
 70
0
 71
3
 72
10
 73
6
 74
0
 42
0.0000001
 43
0.0000001
 44
0.0000000001
 40
0.0
 40
0.0
 40
0.0
 40
0.0
 40
0.2499999497
 40
0.5000000093
 40
1.0
 40
1.0
 40
1.0
 40
1.0
 10
986.2372003101
 20
241.9892370289
 30
0.0
 10
988.8400383148
 20
244.2622149639
 30
0.0
 10
994.0585407134
 20
248.7934911504
 30
0.0
 10
1004.5295435036
 20
257.8166684841
 30
0.0
 10
1012.4090948788
 20
264.553453772
 30
0.0
 10
1017.6682292887
 20
269.0374586999
 30
0.0
  0
SPLINE
  5
601
100
AcDbEntity
  8
0
100
AcDbSpline
 62
9
  6
CONTINUOUS
 70
0
 71
3
 72
11
 73
7
 74
0
 42
0.0000001
 43
0.0000001
 44
0.0000000001
 40
0.0
 40
0.0
 40
0.0
 40
0.0
 40
0.249986353
 40
0.4999790986
 40
0.7499828792
 40
1.0
 40
1.0
 40
1.0
 40
1.0
 10
982.7054611977
 20
240.4924343159
 30
0.0
 10
983.0110668846
 20
240.4924342061
 30
0.0
 10
983.6238616284
 20
240.5509502362
 30
0.0
 10
984.508722032
 20
240.810388923
 30
0.0
 10
985.3297710594
 20
241.2298574589
 30
0.0
 10
985.8171995346
 20
241.6052763176
 30
0.0
 10
986.0415860519
 20
241.8128058765
 30
0.0
  0
SPLINE
  5
602
100
AcDbEntity
  8
0
100
AcDbSpline
 62
9
  6
CONTINUOUS
 70
0
 71
3
 72
15
 73
11
 74
0
 42
0.0000001
 43
0.0000001
 44
0.0000000001
 40
0.0
 40
0.0
 40
0.0
 40
0.0
 40
0.125006382
 40
0.2500346131
 40
0.3750465783
 40
0.5000554918
 40
0.6250754523
 40
0.7500595886
 40
0.875032936
 40
1.0
 40
1.0
 40
1.0
 40
1.0
 10
957.3988245043
 20
242.0741741267
 30
0.0
 10
957.3656527111
 20
241.9877885533
 30
0.0
 10
957.3194459408
 20
241.8064412151
 30
0.0
 10
957.316744044
 20
241.5262453647
 30
0.0
 10
957.3799580471
 20
241.253366211
 30
0.0
 10
957.5029868755
 20
241.0016536225
 30
0.0
 10
957.6830565337
 20
240.7867864679
 30
0.0
 10
957.909202426
 20
240.6210480934
 30
0.0
 10
958.1693095691
 20
240.5163634245
 30
0.0
 10
958.3551786532
 20
240.4924347437
 30
0.0
 10
958.4476851368
 20
240.4924343159
 30
0.0
  0
SPLINE
  5
603
100
AcDbEntity
  8
0
100
AcDbSpline
 62
9
  6
CONTINUOUS
 70
0
 71
3
 72
9
 73
5
 74
0
 42
0.0000001
 43
0.0000001
 44
0.0000000001
 40
0.0
 40
0.0
 40
0.0
 40
0.0
 40
0.4996362299
 40
1.0
 40
1.0
 40
1.0
 40
1.0
 10
957.4476851368
 20
242.3011115733
 30
0.0
 10
957.4476856501
 20
242.2622794309
 30
0.0
 10
957.4376485167
 20
242.1843641268
 30
0.0
 10
957.412749773
 20
242.1104841377
 30
0.0
 10
957.3988245043
 20
242.0741741267
 30
0.0
  0
LINE
  5
604
100
AcDbEntity
  8
0
100
AcDbLine
 62
9
  6
CONTINUOUS
 10
987.8477620752
 20
239.504809851
 11
988.1503600106
 21
239.7678790142
  0
SPLINE
  5
605
100
AcDbEntity
  8
0
100
AcDbSpline
 62
9
  6
CONTINUOUS
 70
0
 71
3
 72
11
 73
7
 74
0
 42
0.0000001
 43
0.0000001
 44
0.0000000001
 40
0.0
 40
0.0
 40
0.0
 40
0.0
 40
0.2518297471
 40
0.5014044018
 40
0.7501893398
 40
1.0
 40
1.0
 40
1.0
 40
1.0
 10
1021.4476851368
 20
105.1954915146
 30
0.0
 10
1021.7137999216
 20
105.3300004203
 30
0.0
 10
1022.2020928793
 20
105.685358643
 30
0.0
 10
1022.7666350557
 20
106.3800772961
 30
0.0
 10
1023.1800457246
 20
107.1687619644
 30
0.0
 10
1023.3690708026
 20
107.730385425
 30
0.0
 10
1023.4455064266
 20
108.0161254084
 30
0.0
  0
SPLINE
  5
606
100
AcDbEntity
  8
0
100
AcDbSpline
 62
9
  6
CONTINUOUS
 70
0
 71
3
 72
11
 73
7
 74
0
 42
0.0000001
 43
0.0000001
 44
0.0000000001
 40
0.0
 40
0.0
 40
0.0
 40
0.0
 40
0.2498447431
 40
0.4986303534
 40
0.7481823148
 40
1.0
 40
1.0
 40
1.0
 40
1.0
 10
1023.4455065737
 20
285.7620921008
 30
0.0
 10
1023.3696663092
 20
286.0481448444
 30
0.0
 10
1023.1816343372
 20
286.6103987687
 30
0.0
 10
1022.7688188042
 20
287.3998494852
 30
0.0
 10
1022.2036300243
 20
288.0945757892
 30
0.0
 10
1021.7142592054
 20
288.448917441
 30
0.0
 10
1021.4476851368
 20
288.5827262343
 30
0.0
  0
SPLINE
  5
607
100
AcDbEntity
  8
0
100
AcDbSpline
 62
9
  6
CONTINUOUS
 70
0
 71
3
 72
26
 73
22
 74
0
 42
0.0000001
 43
0.0000001
 44
0.0000000001
 40
0.0
 40
0.0
 40
0.0
 40
0.0
 40
0.000262404
 40
0.0010504725
 40
0.0023654235
 40
0.0042082119
 40
0.0094803035
 40
0.0168706783
 40
0.0263800533
 40
0.0380059255
 40
0.0517425554
 40
0.0675809665
 40
0.1055109984
 40
0.1516598511
 40
0.20584038
 40
0.2678153495
 40
0.3372984684
 40
0.4139554088
 40
0.5872180932
 40
0.7840043199
 40
1.0
 40
1.0
 40
1.0
 40
1.0
 10
1023.9476755926
 20
282.6395854602
 30
0.0
 10
1023.9474996809
 20
282.6396206501
 30
0.0
 10
1023.9476986418
 20
282.6406671395
 30
0.0
 10
1023.9470518783
 20
282.6419218407
 30
0.0
 10
1023.9467168899
 20
282.644756215
 30
0.0
 10
1023.9455016825
 20
282.65029879
 30
0.0
 10
1023.9437313118
 20
282.6601257797
 30
0.0
 10
1023.940923167
 20
282.6749880769
 30
0.0
 10
1023.9374660029
 20
282.6941944918
 30
0.0
 10
1023.9333169044
 20
282.7176667055
 30
0.0
 10
1023.9285409869
 20
282.7454283073
 30
0.0
 10
1023.9208987579
 20
282.7909415653
 30
0.0
 10
1023.9100121158
 20
282.8583798547
 30
0.0
 10
1023.8956435179
 20
282.9518054215
 30
0.0
 10
1023.8795660696
 20
283.0615976603
 30
0.0
 10
1023.8620563585
 20
283.1873000012
 30
0.0
 10
1023.8433988134
 20
283.3283539826
 30
0.0
 10
1023.8162572007
 20
283.5450272379
 30
0.0
 10
1023.7815743509
 20
283.8484611007
 30
0.0
 10
1023.7418913213
 20
284.2471646223
 30
0.0
 10
1023.7184868417
 20
284.5284150241
 30
0.0
 10
1023.7075521784
 20
284.6756787504
 30
0.0
  0
SPLINE
  5
608
100
AcDbEntity
  8
0
100
AcDbSpline
 62
9
  6
CONTINUOUS
 70
0
 71
3
 72
9
 73
5
 74
0
 42
0.0000001
 43
0.0000001
 44
0.0000000001
 40
0.0
 40
0.0
 40
0.0
 40
0.0
 40
0.2457070417
 40
1.0
 40
1.0
 40
1.0
 40
1.0
 10
1023.7075521784
 20
284.6756787504
 30
0.0
 10
1023.7007572769
 20
284.7671920713
 30
0.0
 10
1023.6595480238
 20
285.1383512178
 30
0.0
 10
1023.5588819665
 20
285.5042046515
 30
0.0
 10
1023.4455065643
 20
285.7620921232
 30
0.0
  0
SPLINE
  5
609
100
AcDbEntity
  8
0
100
AcDbSpline
 62
9
  6
CONTINUOUS
 70
0
 71
3
 72
26
 73
22
 74
0
 42
0.0000001
 43
0.0000001
 44
0.0000000001
 40
0.0
 40
0.0
 40
0.0
 40
0.0
 40
0.2158186368
 40
0.4124940168
 40
0.5857231352
 40
0.6623897961
 40
0.7318971924
 40
0.7939078478
 40
0.8481319189
 40
0.8943283627
 40
0.9323060897
 40
0.9481671377
 40
0.9619249371
 40
0.9735700186
 40
0.9830961566
 40
0.9905003691
 40
0.9957829041
 40
0.9976294971
 40
0.998947234
 40
0.9997370134
 40
1.0
 40
1.0
 40
1.0
 40
1.0
 10
1023.70755207
 20
109.1025388265
 30
0.0
 10
1023.7189370772
 20
109.24963952
 30
0.0
 10
1023.7430085528
 20
109.5306191639
 30
0.0
 10
1023.7831425555
 20
109.92903418
 30
0.0
 10
1023.81784551
 20
110.2323558764
 30
0.0
 10
1023.8448450319
 20
110.4490358365
 30
0.0
 10
1023.8633508997
 20
110.5901504188
 30
0.0
 10
1023.880673657
 20
110.7159434715
 30
0.0
 10
1023.8965443069
 20
110.8258475958
 30
0.0
 10
1023.9107008241
 20
110.9193965911
 30
0.0
 10
1023.9214081938
 20
110.9869415997
 30
0.0
 10
1023.9289154574
 20
111.0325383478
 30
0.0
 10
1023.9336039038
 20
111.0603570426
 30
0.0
 10
1023.9376743804
 20
111.0838815583
 30
0.0
 10
1023.9410633772
 20
111.1031333358
 30
0.0
 10
1023.9438156079
 20
111.1180347124
 30
0.0
 10
1023.945547155
 20
111.1278858152
 30
0.0
 10
1023.9467391299
 20
111.133447384
 30
0.0
 10
1023.9470624552
 20
111.1362848219
 30
0.0
 10
1023.9477030365
 20
111.1375527402
 30
0.0
 10
1023.9475001539
 20
111.1385927478
 30
0.0
 10
1023.9476755916
 20
111.1386320499
 30
0.0
  0
SPLINE
  5
60A
100
AcDbEntity
  8
0
100
AcDbSpline
 62
9
  6
CONTINUOUS
 70
0
 71
3
 72
9
 73
5
 74
0
 42
0.0000001
 43
0.0000001
 44
0.0000000001
 40
0.0
 40
0.0
 40
0.0
 40
0.0
 40
0.2545525327
 40
1.0
 40
1.0
 40
1.0
 40
1.0
 10
1023.44550642
 20
108.0161253928
 30
0.0
 10
1023.4840699179
 20
108.1030583342
 30
0.0
 10
1023.6178229623
 20
108.4524265871
 30
0.0
 10
1023.6860617793
 20
108.8248652097
 30
0.0
 10
1023.70755207
 20
109.1025388265
 30
0.0
  0
LINE
  5
60B
100
AcDbEntity
  8
0
100
AcDbLine
 62
9
  6
CONTINUOUS
 10
988.1503600106
 20
154.010338495
 11
987.8477620752
 21
154.2734076701
  0
SPLINE
  5
60C
100
AcDbEntity
  8
0
100
AcDbSpline
 62
9
  6
CONTINUOUS
 70
0
 71
3
 72
13
 73
9
 74
0
 42
0.0000001
 43
0.0000001
 44
0.0000000001
 40
0.0
 40
0.0
 40
0.0
 40
0.0
 40
0.1325627091
 40
0.2266627795
 40
0.3419355428
 40
0.4782948565
 40
0.634644537
 40
1.0
 40
1.0
 40
1.0
 40
1.0
 10
1022.4476851368
 20
109.8891087546
 30
0.0
 10
1022.4476851368
 20
109.8212814864
 30
0.0
 10
1022.5152074562
 20
109.71148896
 30
0.0
 10
1022.6436131148
 20
109.5960155975
 30
0.0
 10
1022.7902382365
 20
109.4948713785
 30
0.0
 10
1022.9728315029
 20
109.3938031439
 30
0.0
 10
1023.2784133273
 20
109.2516821305
 30
0.0
 10
1023.5297679721
 20
109.160321058
 30
0.0
 10
1023.70755207
 20
109.1025388265
 30
0.0
  0
SPLINE
  5
60D
100
AcDbEntity
  8
0
100
AcDbSpline
 62
9
  6
CONTINUOUS
 70
0
 71
3
 72
9
 73
5
 74
0
 42
0.0000001
 43
0.0000001
 44
0.0000000001
 40
0.0
 40
0.0
 40
0.0
 40
0.0
 40
0.5003743843
 40
1.0
 40
1.0
 40
1.0
 40
1.0
 10
957.3988245043
 20
151.7040433826
 30
0.0
 10
957.4127590418
 20
151.6677359038
 30
0.0
 10
957.4376526504
 20
151.5938525907
 30
0.0
 10
957.4476851219
 20
151.5159373841
 30
0.0
 10
957.4476851368
 20
151.477105936
 30
0.0
  0
SPLINE
  5
60E
100
AcDbEntity
  8
0
100
AcDbSpline
 62
9
  6
CONTINUOUS
 70
0
 71
3
 72
15
 73
11
 74
0
 42
0.0000001
 43
0.0000001
 44
0.0000000001
 40
0.0
 40
0.0
 40
0.0
 40
0.0
 40
0.1249672695
 40
0.2499407784
 40
0.374924957
 40
0.4999450458
 40
0.6249539309
 40
0.749965811
 40
0.874993857
 40
1.0
 40
1.0
 40
1.0
 40
1.0
 10
958.4476851368
 20
153.2857831934
 30
0.0
 10
958.3551784871
 20
153.2857827989
 30
0.0
 10
958.1693091221
 20
153.2618539447
 30
0.0
 10
957.9092016154
 20
153.1571691453
 30
0.0
 10
957.6830558317
 20
152.9914302651
 30
0.0
 10
957.5029850739
 20
152.7765638944
 30
0.0
 10
957.3799585078
 20
152.5248491516
 30
0.0
 10
957.316745393
 20
152.2519732829
 30
0.0
 10
957.3194314548
 20
151.9717697728
 30
0.0
 10
957.3656872691
 20
151.7904420438
 30
0.0
 10
957.3988245043
 20
151.7040433826
 30
0.0
  0
SPLINE
  5
60F
100
AcDbEntity
  8
0
100
AcDbSpline
 62
9
  6
CONTINUOUS
 70
0
 71
3
 72
11
 73
7
 74
0
 42
0.0000001
 43
0.0000001
 44
0.0000000001
 40
0.0
 40
0.0
 40
0.0
 40
0.0
 40
0.2500171156
 40
0.5000209093
 40
0.7500136561
 40
1.0
 40
1.0
 40
1.0
 40
1.0
 10
986.0415830565
 20
151.9654139774
 30
0.0
 10
985.8171985522
 20
152.1729452438
 30
0.0
 10
985.3297687767
 20
152.54836218
 30
0.0
 10
984.508720015
 20
152.9678283745
 30
0.0
 10
983.6238607197
 20
153.2272675289
 30
0.0
 10
983.0110665615
 20
153.285783299
 30
0.0
 10
982.7054611977
 20
153.2857831934
 30
0.0
  0
SPLINE
  5
610
100
AcDbEntity
  8
0
100
AcDbSpline
 62
9
  6
CONTINUOUS
 70
0
 71
3
 72
10
 73
6
 74
0
 42
0.0000001
 43
0.0000001
 44
0.0000000001
 40
0.0
 40
0.0
 40
0.0
 40
0.0
 40
0.4999999908
 40
0.7500000501
 40
1.0
 40
1.0
 40
1.0
 40
1.0
 10
1017.6682293145
 20
124.7407587875
 30
0.0
 10
1012.4090951138
 20
129.2247639717
 30
0.0
 10
1004.529543475
 20
135.96154896
 30
0.0
 10
994.0585407263
 20
144.9847263598
 30
0.0
 10
988.8400383044
 20
149.5160025258
 30
0.0
 10
986.2372003101
 20
151.7889804804
 30
0.0
  0
SPLINE
  5
611
100
AcDbEntity
  8
0
100
AcDbSpline
 62
9
  6
CONTINUOUS
 70
0
 71
3
 72
13
 73
9
 74
0
 42
0.0000001
 43
0.0000001
 44
0.0000000001
 40
0.0
 40
0.0
 40
0.0
 40
0.0
 40
0.2962097236
 40
0.5645084469
 40
0.6850584478
 40
0.7963874562
 40
0.9002904222
 40
1.0
 40
1.0
 40
1.0
 40
1.0
 10
987.8477620701
 20
189.2830482045
 30
0.0
 10
987.8179866063
 20
189.6297282948
 30
0.0
 10
987.6865206404
 20
190.2866657999
 30
0.0
 10
987.3257809319
 20
191.0209824618
 30
0.0
 10
986.9364971941
 20
191.4654177947
 30
0.0
 10
986.6195365536
 20
191.7056060137
 30
0.0
 10
986.2769104026
 20
191.854965461
 30
0.0
 10
986.0365276993
 20
191.8891087552
 30
0.0
 10
985.9193992462
 20
191.8891087557
 30
0.0
  0
SPLINE
  5
612
100
AcDbEntity
  8
0
100
AcDbSpline
 62
9
  6
CONTINUOUS
 70
0
 71
3
 72
13
 73
9
 74
0
 42
0.0000001
 43
0.0000001
 44
0.0000000001
 40
0.0
 40
0.0
 40
0.0
 40
0.0
 40
0.2966487467
 40
0.5661206587
 40
0.6869145348
 40
0.7980339789
 40
0.901263824
 40
1.0
 40
1.0
 40
1.0
 40
1.0
 10
1019.5899838587
 20
189.1399119714
 30
0.0
 10
1019.5704278626
 20
189.5012840769
 30
0.0
 10
1019.4532374149
 20
190.1893414765
 30
0.0
 10
1019.0983336314
 20
190.9641027837
 30
0.0
 10
1018.7045729584
 20
191.4367125908
 30
0.0
 10
1018.381328323
 20
191.6927522865
 30
0.0
 10
1018.0297873331
 20
191.8524851783
 30
0.0
 10
1017.7820777897
 20
191.889108591
 30
0.0
 10
1017.6616231852
 20
191.8891087546
 30
0.0
  0
SPLINE
  5
613
100
AcDbEntity
  8
0
100
AcDbSpline
 62
9
  6
CONTINUOUS
 70
0
 71
3
 72
13
 73
9
 74
0
 42
0.0000001
 43
0.0000001
 44
0.0000000001
 40
0.0
 40
0.0
 40
0.0
 40
0.0
 40
0.2907347026
 40
0.5612889991
 40
0.6844884193
 40
0.7982183271
 40
0.9028324914
 40
1.0
 40
1.0
 40
1.0
 40
1.0
 10
1023.9476851365
 20
188.8891087546
 30
0.0
 10
1023.9476851365
 20
189.2298734441
 30
0.0
 10
1023.8784891725
 20
189.889701693
 30
0.0
 10
1023.6160392381
 20
190.657764849
 30
0.0
 10
1023.3062984586
 20
191.1681160801
 30
0.0
 10
1023.0435499982
 20
191.473067658
 30
0.0
 10
1022.7503046908
 20
191.7026335309
 30
0.0
 10
1022.5328326668
 20
191.8027788084
 30
0.0
 10
1022.4239005795
 20
191.8360102023
 30
0.0
  0
SPLINE
  5
614
100
AcDbEntity
  8
0
100
AcDbSpline
 62
9
  6
CONTINUOUS
 70
0
 71
3
 72
9
 73
5
 74
0
 42
0.0000001
 43
0.0000001
 44
0.0000000001
 40
0.0
 40
0.0
 40
0.0
 40
0.0
 40
0.2529322865
 40
1.0
 40
1.0
 40
1.0
 40
1.0
 10
1022.3982754397
 20
191.8435320222
 30
0.0
 10
1022.3715504758
 20
191.8510691604
 30
0.0
 10
1022.2649369931
 20
191.8773620631
 30
0.0
 10
1022.1546998821
 20
191.8891087546
 30
0.0
 10
1022.0726851368
 20
191.8891087546
 30
0.0
  0
SPLINE
  5
615
100
AcDbEntity
  8
0
100
AcDbSpline
 62
9
  6
CONTINUOUS
 70
0
 71
3
 72
11
 73
7
 74
0
 42
0.0000001
 43
0.0000001
 44
0.0000000001
 40
0.0
 40
0.0
 40
0.0
 40
0.0
 40
0.2500047086
 40
0.5000083309
 40
0.7500077669
 40
1.0
 40
1.0
 40
1.0
 40
1.0
 10
1019.4523060401
 20
120.6911501079
 30
0.0
 10
1019.4639063085
 20
121.0492700345
 30
0.0
 10
1019.4115314964
 20
121.7701823866
 30
0.0
 10
1019.1101073436
 20
122.809914283
 30
0.0
 10
1018.5985949063
 20
123.7640448907
 30
0.0
 10
1018.1306378745
 20
124.3151600915
 30
0.0
 10
1017.8709041569
 20
124.5619596687
 30
0.0
  0
SPLINE
  5
616
100
AcDbEntity
  8
0
100
AcDbSpline
 62
9
  6
CONTINUOUS
 70
0
 71
3
 72
13
 73
9
 74
0
 42
0.0000001
 43
0.0000001
 44
0.0000000001
 40
0.0
 40
0.0
 40
0.0
 40
0.0
 40
0.2907347026
 40
0.5612889992
 40
0.6844884193
 40
0.7982183271
 40
0.9028324914
 40
1.0
 40
1.0
 40
1.0
 40
1.0
 10
1023.947685137
 20
204.8891087546
 30
0.0
 10
1023.947685137
 20
204.548344065
 30
0.0
 10
1023.8784891723
 20
203.8885158161
 30
0.0
 10
1023.616039238
 20
203.1204526601
 30
0.0
 10
1023.3062984584
 20
202.610101429
 30
0.0
 10
1023.043549998
 20
202.3051498512
 30
0.0
 10
1022.7503046906
 20
202.0755839782
 30
0.0
 10
1022.5328326666
 20
201.9754387008
 30
0.0
 10
1022.4239005792
 20
201.9422073069
 30
0.0
  0
SPLINE
  5
617
100
AcDbEntity
  8
0
100
AcDbSpline
 62
9
  6
CONTINUOUS
 70
0
 71
3
 72
9
 73
5
 74
0
 42
0.0000001
 43
0.0000001
 44
0.0000000001
 40
0.0
 40
0.0
 40
0.0
 40
0.0
 40
0.2529322867
 40
1.0
 40
1.0
 40
1.0
 40
1.0
 10
1022.3982754477
 20
201.9346854893
 30
0.0
 10
1022.3715504832
 20
201.9271483508
 30
0.0
 10
1022.264936998
 20
201.9008554467
 30
0.0
 10
1022.1546998843
 20
201.8891087546
 30
0.0
 10
1022.072685137
 20
201.8891087546
 30
0.0
  0
SPLINE
  5
618
100
AcDbEntity
  8
0
100
AcDbSpline
 62
9
  6
CONTINUOUS
 70
0
 71
3
 72
13
 73
9
 74
0
 42
0.0000001
 43
0.0000001
 44
0.0000000001
 40
0.0
 40
0.0
 40
0.0
 40
0.0
 40
0.2966487855
 40
0.5661206922
 40
0.6869145523
 40
0.7980339794
 40
0.9012638156
 40
1.0
 40
1.0
 40
1.0
 40
1.0
 10
1019.5899860132
 20
204.6383052577
 30
0.0
 10
1019.5704299819
 20
204.2769329357
 30
0.0
 10
1019.4532393587
 20
203.5888751767
 30
0.0
 10
1019.0983350627
 20
202.8141136051
 30
0.0
 10
1018.7045738915
 20
202.3415038863
 30
0.0
 10
1018.3813288984
 20
202.0854644
 30
0.0
 10
1018.0297875687
 20
201.9257318506
 30
0.0
 10
1017.7820778567
 20
201.8891087546
 30
0.0
 10
1017.6616231852
 20
201.8891087544
 30
0.0
  0
SPLINE
  5
619
100
AcDbEntity
  8
0
100
AcDbSpline
 62
9
  6
CONTINUOUS
 70
0
 71
3
 72
17
 73
13
 74
0
 42
0.0000001
 43
0.0000001
 44
0.0000000001
 40
0.0
 40
0.0
 40
0.0
 40
0.0
 40
0.069366526
 40
0.1375361153
 40
0.2040343917
 40
0.2689775419
 40
0.3951913977
 40
0.5184692822
 40
0.6400027041
 40
0.7604906685
 40
0.88038269
 40
1.0
 40
1.0
 40
1.0
 40
1.0
 10
957.4476851368
 20
288.8891087546
 30
0.0
 10
957.3002785265
 20
288.8891162849
 30
0.0
 10
957.0068289283
 20
288.8524580958
 30
0.0
 10
956.5976046316
 20
288.6998486819
 30
0.0
 10
956.2346572417
 20
288.4759735888
 30
0.0
 10
955.8187452496
 20
288.1172288343
 30
0.0
 10
955.4008868482
 20
287.5883653514
 30
0.0
 10
955.0286085828
 20
286.8902298618
 30
0.0
 10
954.7596151775
 20
286.1598852603
 30
0.0
 10
954.577043678
 20
285.411327708
 30
0.0
 10
954.4709145129
 20
284.6525795409
 30
0.0
 10
954.4476970709
 20
284.1433002676
 30
0.0
 10
954.4476851368
 20
283.8891087546
 30
0.0
  0
SPLINE
  5
61A
100
AcDbEntity
  8
0
100
AcDbSpline
 62
9
  6
CONTINUOUS
 70
0
 71
3
 72
15
 73
11
 74
0
 42
0.0000001
 43
0.0000001
 44
0.0000000001
 40
0.0
 40
0.0
 40
0.0
 40
0.0
 40
0.0314452609
 40
0.0566793922
 40
0.0891336618
 40
0.1761052156
 40
0.2919615575
 40
0.43499023
 40
0.6027193643
 40
1.0
 40
1.0
 40
1.0
 40
1.0
 10
1022.2770363081
 20
108.8917262055
 30
0.0
 10
1022.2718838711
 20
108.8771098943
 30
0.0
 10
1022.2840658989
 20
108.8470658314
 30
0.0
 10
1022.3087043126
 20
108.8122186072
 30
0.0
 10
1022.3564181483
 20
108.7583010649
 30
0.0
 10
1022.4427094951
 20
108.6810584653
 30
0.0
 10
1022.5770984288
 20
108.5758687397
 30
0.0
 10
1022.7484976117
 20
108.4540759192
 30
0.0
 10
1023.0392331777
 20
108.2609845772
 30
0.0
 10
1023.276945603
 20
108.115750641
 30
0.0
 10
1023.4455064266
 20
108.0161254084
 30
0.0
  0
SPLINE
  5
61B
100
AcDbEntity
  8
0
100
AcDbSpline
 62
9
  6
CONTINUOUS
 70
0
 71
3
 72
15
 73
11
 74
0
 42
0.0000001
 43
0.0000001
 44
0.0000000001
 40
0.0
 40
0.0
 40
0.0
 40
0.0
 40
0.1264284906
 40
0.2526386529
 40
0.3784454449
 40
0.503725861
 40
0.6284362689
 40
0.7526238941
 40
0.876414318
 40
1.0
 40
1.0
 40
1.0
 40
1.0
 10
958.4476851368
 20
156.1607277359
 30
0.0
 10
958.1860402324
 20
156.1607278583
 30
0.0
 10
957.6618049473
 20
156.1101951631
 30
0.0
 10
956.9066261326
 20
155.8856682525
 30
0.0
 10
956.2104983811
 20
155.5211407249
 30
0.0
 10
955.6005507296
 20
155.0306853151
 30
0.0
 10
955.1000473659
 20
154.4332458022
 30
0.0
 10
954.7282054541
 20
153.7516529433
 30
0.0
 10
954.4992329146
 20
153.0124614673
 30
0.0
 10
954.4476860656
 20
152.4990419683
 30
0.0
 10
954.4476851368
 20
152.2432802821
 30
0.0
  0
SPLINE
  5
61C
100
AcDbEntity
  8
0
100
AcDbSpline
 62
9
  6
CONTINUOUS
 70
0
 71
3
 72
17
 73
13
 74
0
 42
0.0000001
 43
0.0000001
 44
0.0000000001
 40
0.0
 40
0.0
 40
0.0
 40
0.0
 40
0.0310016494
 40
0.0572432913
 40
0.0916106178
 40
0.1341244559
 40
0.184564568
 40
0.2425531017
 40
0.3076036255
 40
0.4565145226
 40
0.6258725101
 40
1.0
 40
1.0
 40
1.0
 40
1.0
 10
954.4476851368
 20
188.8891087546
 30
0.0
 10
954.4476944036
 20
188.9314211616
 30
0.0
 10
954.519804324
 20
188.9938331351
 30
0.0
 10
954.6279696054
 20
189.0454956636
 30
0.0
 10
954.7623764545
 20
189.0937430336
 30
0.0
 10
954.9296069826
 20
189.1388758764
 30
0.0
 10
955.1312091503
 20
189.1826711387
 30
0.0
 10
955.3643612305
 20
189.2237633178
 30
0.0
 10
955.7317538251
 20
189.2770827028
 30
0.0
 10
956.2521701283
 20
189.3323514128
 30
0.0
 10
957.1949921783
 20
189.3983593795
 30
0.0
 10
957.9370595648
 20
189.4165865076
 30
0.0
 10
958.4476851368
 20
189.4165812821
 30
0.0
  0
SPLINE
  5
61D
100
AcDbEntity
  8
0
100
AcDbSpline
 62
9
  6
CONTINUOUS
 70
0
 71
3
 72
15
 73
11
 74
0
 42
0.0000001
 43
0.0000001
 44
0.0000000001
 40
0.0
 40
0.0
 40
0.0
 40
0.0
 40
0.1235858319
 40
0.2473764065
 40
0.3715641129
 40
0.4962744733
 40
0.62155484
 40
0.7473615942
 40
0.8735716456
 40
1.0
 40
1.0
 40
1.0
 40
1.0
 10
954.4476851368
 20
241.5349372272
 30
0.0
 10
954.4476842346
 20
241.2791752321
 30
0.0
 10
954.4992338438
 20
240.7657550979
 30
0.0
 10
954.7282059051
 20
240.0265629741
 30
0.0
 10
955.1000485488
 20
239.3449699086
 30
0.0
 10
955.6005523075
 20
238.7475308401
 30
0.0
 10
956.2104999323
 20
238.2570758533
 30
0.0
 10
956.9066274566
 20
237.8925487933
 30
0.0
 10
957.6618057489
 20
237.668022252
 30
0.0
 10
958.1860405156
 20
237.6174896564
 30
0.0
 10
958.4476851368
 20
237.6174897734
 30
0.0
  0
SPLINE
  5
61E
100
AcDbEntity
  8
0
100
AcDbSpline
 62
9
  6
CONTINUOUS
 70
0
 71
3
 72
9
 73
5
 74
0
 42
0.0000001
 43
0.0000001
 44
0.0000000001
 40
0.0
 40
0.0
 40
0.0
 40
0.0
 40
0.4999371973
 40
1.0
 40
1.0
 40
1.0
 40
1.0
 10
1021.4476851368
 20
288.5827262343
 30
0.0
 10
1021.1263807471
 20
288.6884459434
 30
0.0
 10
1020.4636837489
 20
288.8425144961
 30
0.0
 10
1019.7860202751
 20
288.8891331249
 30
0.0
 10
1019.4476851368
 20
288.8891332549
 30
0.0
  0
LINE
  5
61F
100
AcDbEntity
  8
0
100
AcDbLine
 62
9
  6
CONTINUOUS
 10
1019.4476851368
 20
288.8891332549
 11
957.4476851368
 21
288.8891087546
  0
SPLINE
  5
620
100
AcDbEntity
  8
0
100
AcDbSpline
 62
9
  6
CONTINUOUS
 70
0
 71
3
 72
17
 73
13
 74
0
 42
0.0000001
 43
0.0000001
 44
0.0000000001
 40
0.0
 40
0.0
 40
0.0
 40
0.0
 40
0.3741274899
 40
0.5434854774
 40
0.6923963745
 40
0.7574468983
 40
0.815435432
 40
0.8658755442
 40
0.9083893822
 40
0.9427567087
 40
0.9689983507
 40
1.0
 40
1.0
 40
1.0
 40
1.0
 10
958.4476851368
 20
204.3616362272
 30
0.0
 10
957.9370595648
 20
204.3616310016
 30
0.0
 10
957.1949921783
 20
204.3798581299
 30
0.0
 10
956.2521701283
 20
204.4458660964
 30
0.0
 10
955.7317538251
 20
204.5011348066
 30
0.0
 10
955.3643612305
 20
204.5544541913
 30
0.0
 10
955.1312091502
 20
204.5955463706
 30
0.0
 10
954.9296069827
 20
204.6393416332
 30
0.0
 10
954.7623764545
 20
204.6844744754
 30
0.0
 10
954.6279696051
 20
204.7327218451
 30
0.0
 10
954.5198043244
 20
204.784384375
 30
0.0
 10
954.447694404
 20
204.8467963479
 30
0.0
 10
954.4476851368
 20
204.8891087546
 30
0.0
  0
SPLINE
  5
621
100
AcDbEntity
  8
0
100
AcDbSpline
 62
9
  6
CONTINUOUS
 70
0
 71
3
 72
19
 73
15
 74
0
 42
0.0000001
 43
0.0000001
 44
0.0000000001
 40
0.0
 40
0.0
 40
0.0
 40
0.0
 40
0.0090305996
 40
0.0159561434
 40
0.0249171024
 40
0.0493289352
 40
0.0825321479
 40
0.1243939994
 40
0.1745789897
 40
0.2980882706
 40
0.4485028555
 40
0.6201073757
 40
0.8063261773
 40
1.0
 40
1.0
 40
1.0
 40
1.0
 10
1020.6237027043
 20
107.12922059
 30
0.0
 10
1020.629571559
 20
107.1317213712
 30
0.0
 10
1020.6422530925
 20
107.1277137242
 30
0.0
 10
1020.6556317529
 20
107.1168715813
 30
0.0
 10
1020.6756230197
 20
107.0962579493
 30
0.0
 10
1020.7029490482
 20
107.057921628
 30
0.0
 10
1020.7393290956
 20
106.9977357004
 30
0.0
 10
1020.7809813228
 20
106.9196453458
 30
0.0
 10
1020.8480079995
 20
106.782892864
 30
0.0
 10
1020.9405618315
 20
106.5733934802
 30
0.0
 10
1021.0590709941
 20
106.2817994893
 30
0.0
 10
1021.1866092823
 20
105.9461525211
 30
0.0
 10
1021.3182147175
 20
105.5794436523
 30
0.0
 10
1021.4046563679
 20
105.3253652733
 30
0.0
 10
1021.4476851368
 20
105.1954915146
 30
0.0
  0
SPLINE
  5
622
100
AcDbEntity
  8
0
100
AcDbSpline
 62
9
  6
CONTINUOUS
 70
0
 71
3
 72
19
 73
15
 74
0
 42
0.0000001
 43
0.0000001
 44
0.0000000001
 40
0.0
 40
0.0
 40
0.0
 40
0.0
 40
0.0091889145
 40
0.0161570263
 40
0.0251457512
 40
0.0495863898
 40
0.0827986511
 40
0.1246579078
 40
0.1748326683
 40
0.2983065553
 40
0.4486739301
 40
0.6202244766
 40
0.8063855634
 40
1.0
 40
1.0
 40
1.0
 40
1.0
 10
1020.6237026534
 20
286.6489969409
 30
0.0
 10
1020.6296765015
 20
286.6464514211
 30
0.0
 10
1020.6425328985
 20
286.6502802038
 30
0.0
 10
1020.6561821024
 20
286.6610970685
 30
0.0
 10
1020.6763900464
 20
286.6815970484
 30
0.0
 10
1020.7039694558
 20
286.7198491739
 30
0.0
 10
1020.7405768109
 20
286.7799512009
 30
0.0
 10
1020.7824134353
 20
286.8579792142
 30
0.0
 10
1020.8496267169
 20
286.9946620218
 30
0.0
 10
1020.9422576425
 20
287.2041486364
 30
0.0
 10
1021.06065108
 20
287.495806321
 30
0.0
 10
1021.1878649995
 20
287.8315933476
 30
0.0
 10
1021.3189469086
 20
288.1985081524
 30
0.0
 10
1021.4049211431
 20
288.4527584217
 30
0.0
 10
1021.4476851368
 20
288.5827262343
 30
0.0
  0
LINE
  5
623
100
AcDbEntity
  8
0
100
AcDbLine
 62
9
  6
CONTINUOUS
 10
957.4476851368
 20
104.8891087546
 11
1019.4476851368
 21
104.8890842583
  0
SPLINE
  5
624
100
AcDbEntity
  8
0
100
AcDbSpline
 62
9
  6
CONTINUOUS
 70
0
 71
3
 72
9
 73
5
 74
0
 42
0.0000001
 43
0.0000001
 44
0.0000000001
 40
0.0
 40
0.0
 40
0.0
 40
0.0
 40
0.500072959
 40
1.0
 40
1.0
 40
1.0
 40
1.0
 10
1019.4476851368
 20
104.8890842583
 30
0.0
 10
1019.7860411984
 20
104.8890843849
 30
0.0
 10
1020.4637415598
 20
104.9349916174
 30
0.0
 10
1021.1265916149
 20
105.0891102544
 30
0.0
 10
1021.4476851368
 20
105.1954915146
 30
0.0
  0
SPLINE
  5
625
100
AcDbEntity
  8
0
100
AcDbSpline
 62
9
  6
CONTINUOUS
 70
0
 71
3
 72
11
 73
7
 74
0
 42
0.0000001
 43
0.0000001
 44
0.0000000001
 40
0.0
 40
0.0
 40
0.0
 40
0.0
 40
0.2497151642
 40
0.4996562495
 40
0.7497779283
 40
1.0
 40
1.0
 40
1.0
 40
1.0
 10
987.8477620752
 20
154.2734076701
 30
0.0
 10
987.4928979083
 20
154.5737005934
 30
0.0
 10
986.7287621957
 20
155.1137932753
 30
0.0
 10
985.4596778725
 20
155.71132887
 30
0.0
 10
984.1047828828
 20
156.0782819575
 30
0.0
 10
983.1712751804
 20
156.1607275066
 30
0.0
 10
982.7054611977
 20
156.1607277359
 30
0.0
  0
SPLINE
  5
626
100
AcDbEntity
  8
0
100
AcDbSpline
 62
9
  6
CONTINUOUS
 70
0
 71
3
 72
15
 73
11
 74
0
 42
0.0000001
 43
0.0000001
 44
0.0000000001
 40
0.0
 40
0.0
 40
0.0
 40
0.0
 40
0.0320784689
 40
0.0574739942
 40
0.0900243171
 40
0.1770538395
 40
0.2928471668
 40
0.4357274718
 40
0.6032469669
 40
1.0
 40
1.0
 40
1.0
 40
1.0
 10
1022.2770363353
 20
284.8864912268
 30
0.0
 10
1022.2717762082
 20
284.9014130318
 30
0.0
 10
1022.2834735688
 20
284.9319920747
 30
0.0
 10
1022.308125125
 20
284.9675049463
 30
0.0
 10
1022.3555879429
 20
285.0218761712
 30
0.0
 10
1022.4417766889
 20
285.0995009351
 30
0.0
 10
1022.5761195539
 20
285.2048149001
 30
0.0
 10
1022.7475939233
 20
285.3264326649
 30
0.0
 10
1023.0385741881
 20
285.5188367937
 30
0.0
 10
1023.2766537842
 20
285.6631870522
 30
0.0
 10
1023.4455065737
 20
285.7620921008
 30
0.0
  0
SPLINE
  5
627
100
AcDbEntity
  8
0
100
AcDbSpline
 62
9
  6
CONTINUOUS
 70
0
 71
3
 72
9
 73
5
 74
0
 42
0.0000001
 43
0.0000001
 44
0.0000000001
 40
0.0
 40
0.0
 40
0.0
 40
0.0
 40
0.5321958061
 40
1.0
 40
1.0
 40
1.0
 40
1.0
 10
982.7054611977
 20
189.4165812821
 30
0.0
 10
983.6180952834
 20
189.4165841856
 30
0.0
 10
985.3329873024
 20
189.3954253889
 30
0.0
 10
987.0469130366
 20
189.3297973787
 30
0.0
 10
987.8477620752
 20
189.2830482056
 30
0.0
  0
SPLINE
  5
628
100
AcDbEntity
  8
0
100
AcDbSpline
 62
9
  6
CONTINUOUS
 70
0
 71
3
 72
11
 73
7
 74
0
 42
0.0000001
 43
0.0000001
 44
0.0000000001
 40
0.0
 40
0.0
 40
0.0
 40
0.0
 40
0.2502221255
 40
0.5003438214
 40
0.7502849025
 40
1.0
 40
1.0
 40
1.0
 40
1.0
 10
982.7054611977
 20
237.6174897734
 30
0.0
 10
983.171275278
 20
237.61748996
 30
0.0
 10
984.1047829893
 20
237.6999358925
 30
0.0
 10
985.4596785665
 20
238.0668882541
 30
0.0
 10
986.7287611589
 20
238.6644259493
 30
0.0
 10
987.492900394
 20
239.2045141866
 30
0.0
 10
987.8477620752
 20
239.504809851
 30
0.0
  0
SPLINE
  5
629
100
AcDbEntity
  8
0
100
AcDbSpline
 62
9
  6
CONTINUOUS
 70
0
 71
3
 72
9
 73
5
 74
0
 42
0.0000001
 43
0.0000001
 44
0.0000000001
 40
0.0
 40
0.0
 40
0.0
 40
0.0
 40
0.4678041939
 40
1.0
 40
1.0
 40
1.0
 40
1.0
 10
987.8477620752
 20
204.4951693037
 30
0.0
 10
987.0469130361
 20
204.4484201387
 30
0.0
 10
985.3329873027
 20
204.3827921154
 30
0.0
 10
983.6180952834
 20
204.3616333239
 30
0.0
 10
982.7054611977
 20
204.3616362272
 30
0.0
  0
SPLINE
  5
62A
100
AcDbEntity
  8
0
100
AcDbSpline
 62
9
  6
CONTINUOUS
 70
0
 71
3
 72
13
 73
9
 74
0
 42
0.0000001
 43
0.0000001
 44
0.0000000001
 40
0.0
 40
0.0
 40
0.0
 40
0.0
 40
0.1335070145
 40
0.2277281045
 40
0.3429602201
 40
0.4791619811
 40
0.6352712054
 40
1.0
 40
1.0
 40
1.0
 40
1.0
 10
1022.4476851368
 20
283.8891087546
 30
0.0
 10
1022.4476851368
 20
283.9574694409
 30
0.0
 10
1022.5147764909
 20
284.0681773347
 30
0.0
 10
1022.6435033746
 20
284.1844169851
 30
0.0
 10
1022.7901185551
 20
284.2857017468
 30
0.0
 10
1022.9727367961
 20
284.3866140898
 30
0.0
 10
1023.2783167208
 20
284.5280831968
 30
0.0
 10
1023.5297355191
 20
284.6185938256
 30
0.0
 10
1023.7075521784
 20
284.6756787504
 30
0.0
  0
SPLINE
  5
62B
100
AcDbEntity
  8
0
100
AcDbSpline
 62
9
  6
CONTINUOUS
 70
0
 71
3
 72
17
 73
13
 74
0
 42
0.0000001
 43
0.0000001
 44
0.0000000001
 40
0.0
 40
0.0
 40
0.0
 40
0.0
 40
0.1196168409
 40
0.2395081303
 40
0.3599957248
 40
0.4815289086
 40
0.6048071179
 40
0.7310216175
 40
0.795965457
 40
0.8624655729
 40
0.9306353425
 40
1.0
 40
1.0
 40
1.0
 40
1.0
 10
954.4476851368
 20
109.8891087546
 30
0.0
 10
954.4476964341
 20
109.6349182274
 30
0.0
 10
954.470914268
 20
109.1256414424
 30
0.0
 10
954.5770429984
 20
108.3668966777
 30
0.0
 10
954.7596111745
 20
107.6183411875
 30
0.0
 10
955.0286043184
 20
106.8879970742
 30
0.0
 10
955.4008816979
 20
106.1898593492
 30
0.0
 10
955.8187414575
 20
105.6609923959
 30
0.0
 10
956.2346578346
 20
105.3022422593
 30
0.0
 10
956.5976110742
 20
105.0783652863
 30
0.0
 10
957.0068365342
 20
104.9257579486
 30
0.0
 10
957.3002824909
 20
104.889101225
 30
0.0
 10
957.4476851368
 20
104.8891087546
 30
0.0
  0
SPLINE
  5
62C
100
AcDbEntity
  8
0
100
AcDbSpline
 62
9
  6
CONTINUOUS
 70
0
 71
3
 72
18
 73
14
 74
0
 42
0.0000001
 43
0.0000001
 44
0.0000000001
 40
0.0
 40
0.0
 40
0.0
 40
0.0
 40
0.0072017908
 40
0.0131442752
 40
0.0209370462
 40
0.042336297
 40
0.0716396177
 40
0.1539371094
 40
0.267217597
 40
0.4102684702
 40
0.5814528646
 40
0.7788108047
 40
1.0
 40
1.0
 40
1.0
 40
1.0
 10
1022.4476851368
 20
204.8891087546
 30
0.0
 10
1022.447682308
 20
204.882189855
 30
0.0
 10
1022.4368034461
 20
204.8716557765
 30
0.0
 10
1022.4196370569
 20
204.8625744804
 30
0.0
 10
1022.3879601148
 20
204.8498343513
 30
0.0
 10
1022.3337386716
 20
204.8354402023
 30
0.0
 10
1022.2082965166
 20
204.8103571923
 30
0.0
 10
1021.9940315229
 20
204.7819985943
 30
0.0
 10
1021.6702515138
 20
204.7500324294
 30
0.0
 10
1021.2606628046
 20
204.7191497569
 30
0.0
 10
1020.7700459009
 20
204.6895590978
 30
0.0
 10
1020.2041423879
 20
204.661945363
 30
0.0
 10
1019.8023481242
 20
204.6459801275
 30
0.0
 10
1019.5899860143
 20
204.6383052575
 30
0.0
  0
SPLINE
  5
62D
100
AcDbEntity
  8
0
100
AcDbSpline
 62
9
  6
CONTINUOUS
 70
0
 71
3
 72
11
 73
7
 74
0
 42
0.0000001
 43
0.0000001
 44
0.0000000001
 40
0.0
 40
0.0
 40
0.0
 40
0.0
 40
0.2501037163
 40
0.5001191153
 40
0.7500729848
 40
1.0
 40
1.0
 40
1.0
 40
1.0
 10
1019.7936621676
 20
266.947641865
 30
0.0
 10
1020.1699944739
 20
267.286872571
 30
0.0
 10
1020.8597114747
 20
268.0387824461
 30
0.0
 10
1021.66164086
 20
269.3397713146
 30
0.0
 10
1022.2047210634
 20
270.767894949
 30
0.0
 10
1022.381492301
 20
271.7722194134
 30
0.0
 10
1022.4219349005
 20
272.2769027529
 30
0.0
  0
SPLINE
  5
62E
100
AcDbEntity
  8
0
100
AcDbSpline
 62
9
  6
CONTINUOUS
 70
0
 71
3
 72
18
 73
14
 74
0
 42
0.0000001
 43
0.0000001
 44
0.0000000001
 40
0.0
 40
0.0
 40
0.0
 40
0.0
 40
0.2211891953
 40
0.4185471354
 40
0.5897315298
 40
0.732782403
 40
0.8460628906
 40
0.9283603823
 40
0.957663703
 40
0.9790629538
 40
0.9868557248
 40
0.9927982091
 40
1.0
 40
1.0
 40
1.0
 40
1.0
 10
1019.5899860143
 20
189.1399122518
 30
0.0
 10
1019.8023481241
 20
189.1322373812
 30
0.0
 10
1020.2041423879
 20
189.1162721469
 30
0.0
 10
1020.7700459009
 20
189.0886584113
 30
0.0
 10
1021.2606628046
 20
189.0590677523
 30
0.0
 10
1021.6702515138
 20
189.02818508
 30
0.0
 10
1021.9940315229
 20
188.9962189148
 30
0.0
 10
1022.2082965166
 20
188.9678603171
 30
0.0
 10
1022.3337386716
 20
188.9427773069
 30
0.0
 10
1022.3879601148
 20
188.9283831579
 30
0.0
 10
1022.4196370569
 20
188.9156430288
 30
0.0
 10
1022.4368034461
 20
188.9065617329
 30
0.0
 10
1022.4476823079
 20
188.8960276543
 30
0.0
 10
1022.4476851368
 20
188.8891087546
 30
0.0
  0
SPLINE
  5
62F
100
AcDbEntity
  8
0
100
AcDbSpline
 62
9
  6
CONTINUOUS
 70
0
 71
3
 72
11
 73
7
 74
0
 42
0.0000001
 43
0.0000001
 44
0.0000000001
 40
0.0
 40
0.0
 40
0.0
 40
0.0
 40
0.2499269923
 40
0.4998808695
 40
0.7498962811
 40
1.0
 40
1.0
 40
1.0
 40
1.0
 10
1022.4218661393
 20
121.5021723329
 30
0.0
 10
1022.3813753063
 20
122.0067801757
 30
0.0
 10
1022.2045355449
 20
123.0109445723
 30
0.0
 10
1021.6614373285
 20
124.4388283402
 30
0.0
 10
1020.8595699409
 20
125.7395995286
 30
0.0
 10
1020.1699414693
 20
126.491392774
 30
0.0
 10
1019.7936621676
 20
126.8305756442
 30
0.0
  0
LINE
  5
630
100
AcDbEntity
  8
0
100
AcDbLine
 62
9
  6
CONTINUOUS
 10
1023.9476851402
 20
266.8891087554
 11
1023.9476851401
 21
282.6395930937
  0
LINE
  5
631
100
AcDbEntity
  8
0
100
AcDbLine
 62
9
  6
CONTINUOUS
 10
1023.9476851402
 20
111.1386244159
 11
1023.9476851401
 21
126.8891087546
  0
SPLINE
  5
632
100
AcDbEntity
  8
0
100
AcDbSpline
 62
9
  6
CONTINUOUS
 70
0
 71
3
 72
20
 73
16
 74
0
 42
0.0000001
 43
0.0000001
 44
0.0000000001
 40
0.0
 40
0.0
 40
0.0
 40
0.0
 40
0.0828140299
 40
0.1773256082
 40
0.2834390954
 40
0.4010019921
 40
0.5300256126
 40
0.5989791903
 40
0.6710694276
 40
0.7465727618
 40
0.8259750655
 40
0.8674300195
 40
0.9102501551
 40
0.954550693
 40
1.0
 40
1.0
 40
1.0
 40
1.0
 10
1077.2714077644
 20
443.7989235266
 30
0.0
 10
1077.4967968879
 20
442.2817227437
 30
0.0
 10
1078.1828282848
 20
439.0627386194
 30
0.0
 10
1079.7176337779
 20
434.0377825617
 30
0.0
 10
1081.8371890177
 20
428.5337021046
 30
0.0
 10
1084.5819899773
 20
422.600945006
 30
0.0
 10
1087.4015177761
 20
417.474262524
 30
0.0
 10
1090.0895483775
 20
413.2538705391
 30
0.0
 10
1092.4238123112
 20
409.9890330969
 30
0.0
 10
1095.1032209348
 20
406.7444774462
 30
0.0
 10
1097.6927248803
 20
404.1741383311
 30
0.0
 10
1100.0927256242
 20
402.3146058943
 30
0.0
 10
1102.1385204475
 20
401.0809499497
 30
0.0
 10
1104.4366739889
 20
400.173171801
 30
0.0
 10
1106.1058901992
 20
399.9419656532
 30
0.0
 10
1106.9476851368
 20
399.9412148798
 30
0.0
  0
SPLINE
  5
633
100
AcDbEntity
  8
0
100
AcDbSpline
 62
9
  6
CONTINUOUS
 70
0
 71
3
 72
14
 73
10
 74
0
 42
0.0000001
 43
0.0000001
 44
0.0000000001
 40
0.0
 40
0.0
 40
0.0
 40
0.0
 40
0.0160396166
 40
0.0637787211
 40
0.1430621021
 40
0.2537346868
 40
0.3955204255
 40
0.5677032919
 40
1.0
 40
1.0
 40
1.0
 40
1.0
 10
1076.9476851368
 20
445.8891087546
 30
0.0
 10
1076.9476864154
 20
445.8778001955
 30
0.0
 10
1076.9591923084
 20
445.833754664
 30
0.0
 10
1076.9710449454
 20
445.7338382948
 30
0.0
 10
1076.9998456127
 20
445.5685406039
 30
0.0
 10
1077.035435755
 20
445.3374530087
 30
0.0
 10
1077.0823485467
 20
445.0417310624
 30
0.0
 10
1077.1628373875
 20
444.521791918
 30
0.0
 10
1077.2266293777
 20
444.1004023651
 30
0.0
 10
1077.2714077644
 20
443.7989235266
 30
0.0
  0
SPLINE
  5
634
100
AcDbEntity
  8
0
100
AcDbSpline
 62
9
  6
CONTINUOUS
 70
0
 71
3
 72
9
 73
5
 74
0
 42
0.0000001
 43
0.0000001
 44
0.0000000001
 40
0.0
 40
0.0
 40
0.0
 40
0.0
 40
0.4804808582
 40
1.0
 40
1.0
 40
1.0
 40
1.0
 10
1286.9476851368
 20
76.8942872452
 30
0.0
 10
1286.9476865021
 20
75.4413425577
 30
0.0
 10
1286.6527337644
 20
72.4166173638
 30
0.0
 10
1285.9814240487
 20
69.4634303321
 30
0.0
 10
1285.5723006722
 20
67.9466441179
 30
0.0
  0
SPLINE
  5
635
100
AcDbEntity
  8
0
100
AcDbSpline
 62
9
  6
CONTINUOUS
 70
0
 71
3
 72
19
 73
15
 74
0
 42
0.0000001
 43
0.0000001
 44
0.0000000001
 40
0.0
 40
0.0
 40
0.0
 40
0.0
 40
0.0815653363
 40
0.1752458015
 40
0.2808553099
 40
0.3981174954
 40
0.5269422861
 40
0.5958551152
 40
0.6680030459
 40
0.7437965973
 40
0.8239501077
 40
0.9094037283
 40
0.9542779817
 40
1.0
 40
1.0
 40
1.0
 40
1.0
 10
1073.2807206222
 20
440.1472877312
 30
0.0
 10
1073.5238576833
 20
438.5941066292
 30
0.0
 10
1074.2763371986
 20
435.2925630755
 30
0.0
 10
1075.9715524146
 20
430.1460129938
 30
0.0
 10
1078.3298939498
 20
424.5123678647
 30
0.0
 10
1081.4089425983
 20
418.4666689535
 30
0.0
 10
1084.60933097
 20
413.2950521468
 30
0.0
 10
1087.7022635
 20
409.1088336071
 30
0.0
 10
1090.4196487526
 20
405.9273300336
 30
0.0
 10
1093.5792793005
 20
402.8578267568
 30
0.0
 10
1097.3201856601
 20
400.063782481
 30
0.0
 10
1101.0121070741
 20
398.2819393789
 30
0.0
 10
1104.3169177013
 20
397.4624314065
 30
0.0
 10
1106.0664362017
 20
397.3165878593
 30
0.0
 10
1106.9476851368
 20
397.3154903978
 30
0.0
  0
SPLINE
  5
636
100
AcDbEntity
  8
0
100
AcDbSpline
 62
9
  6
CONTINUOUS
 70
0
 71
3
 72
19
 73
15
 74
0
 42
0.0000001
 43
0.0000001
 44
0.0000000001
 40
0.0
 40
0.0
 40
0.0
 40
0.0
 40
0.0457103568
 40
0.090586081
 40
0.1760816463
 40
0.2562582939
 40
0.3320582164
 40
0.4042051297
 40
0.4731123094
 40
0.6019218491
 40
0.7191690322
 40
0.8247668631
 40
0.9184393376
 40
1.0
 40
1.0
 40
1.0
 40
1.0
 10
1106.9476851368
 20
397.3154903978
 30
0.0
 10
1107.828710641
 20
397.3165009933
 30
0.0
 10
1109.5780400317
 20
397.4623466321
 30
0.0
 10
1112.8834678868
 20
398.281899788
 30
0.0
 10
1116.5765695436
 20
400.0643781132
 30
0.0
 10
1120.3184007741
 20
402.8595116952
 30
0.0
 10
1123.4781567509
 20
405.9296864858
 30
0.0
 10
1126.1952796148
 20
409.111409878
 30
0.0
 10
1129.2877464157
 20
413.2974558164
 30
0.0
 10
1132.4874734694
 20
418.4686685851
 30
0.0
 10
1135.5661556837
 20
424.513653288
 30
0.0
 10
1137.9240859498
 20
430.1467587157
 30
0.0
 10
1139.6190877345
 20
435.2928861853
 30
0.0
 10
1140.3715463332
 20
438.5941903067
 30
0.0
 10
1140.6146496514
 20
440.1472877312
 30
0.0
  0
SPLINE
  5
637
100
AcDbEntity
  8
0
100
AcDbSpline
 62
9
  6
CONTINUOUS
 70
0
 71
3
 72
13
 73
9
 74
0
 42
0.0000001
 43
0.0000001
 44
0.0000000001
 40
0.0
 40
0.0
 40
0.0
 40
0.0
 40
0.0835314113
 40
0.1755066794
 40
0.2808605627
 40
0.4013911264
 40
0.683507464
 40
1.0
 40
1.0
 40
1.0
 40
1.0
 10
1286.9476755967
 20
76.8942872452
 30
0.0
 10
1286.9476747053
 20
76.758922005
 30
0.0
 10
1287.0065898632
 20
76.4725937973
 30
0.0
 10
1287.2492788452
 20
76.079421967
 30
0.0
 10
1287.6309731821
 20
75.7265030535
 30
0.0
 10
1288.3378588312
 20
75.296906768
 30
0.0
 10
1289.4628210783
 20
74.9399486568
 30
0.0
 10
1290.4347991758
 20
74.8463191364
 30
0.0
 10
1290.9476851369
 20
74.8463191397
 30
0.0
  0
SPLINE
  5
638
100
AcDbEntity
  8
0
100
AcDbSpline
 62
9
  6
CONTINUOUS
 70
0
 71
3
 72
29
 73
25
 74
0
 42
0.0000001
 43
0.0000001
 44
0.0000000001
 40
0.0
 40
0.0
 40
0.0
 40
0.0
 40
0.1501476089
 40
0.28947204
 40
0.5199104885
 40
0.6114964416
 40
0.6895431311
 40
0.7558337429
 40
0.8119190012
 40
0.8590731598
 40
0.8983067925
 40
0.9304056438
 40
0.9559739235
 40
0.9664491087
 40
0.9754497323
 40
0.9830092682
 40
0.9891538025
 40
0.9939090698
 40
0.9957731812
 40
0.9972968273
 40
0.9984806707
 40
0.9993253732
 40
0.9998315957
 40
1.0
 40
1.0
 40
1.0
 40
1.0
 10
1289.388916077
 20
66.8891087546
 30
0.0
 10
1288.8446811712
 20
65.3653398061
 30
0.0
 10
1287.6151972245
 20
62.4932372076
 30
0.0
 10
1285.1847855201
 20
57.4463344092
 30
0.0
 10
1283.0131042738
 20
52.9725595797
 30
0.0
 10
1281.2881138801
 20
49.0207416101
 30
0.0
 10
1280.3397392547
 20
46.6614241178
 30
0.0
 10
1279.5989612624
 20
44.6321956054
 30
0.0
 10
1279.0291800022
 20
42.8960624598
 30
0.0
 10
1278.5974111948
 20
41.4224257929
 30
0.0
 10
1278.2752314223
 20
40.1867048569
 30
0.0
 10
1278.0392766772
 20
39.1693652074
 30
0.0
 10
1277.8897264851
 20
38.4503715146
 30
0.0
 10
1277.7983238597
 20
37.9736343263
 30
0.0
 10
1277.7457347266
 20
37.6870842544
 30
0.0
 10
1277.7032336788
 20
37.4461012822
 30
0.0
 10
1277.6700374554
 20
37.2500386071
 30
0.0
 10
1277.6476077329
 20
37.114164596
 30
0.0
 10
1277.633787497
 20
37.0277598341
 30
0.0
 10
1277.6254744794
 20
36.9786710568
 30
0.0
 10
1277.6206624032
 20
36.9420330446
 30
0.0
 10
1277.6136024215
 20
36.9124308253
 30
0.0
 10
1277.6159364388
 20
36.900850417
 30
0.0
 10
1277.6097923791
 20
36.88891667
 30
0.0
 10
1277.611600853
 20
36.8890678727
 30
0.0
  0
SPLINE
  5
639
100
AcDbEntity
  8
0
100
AcDbSpline
 62
9
  6
CONTINUOUS
 70
0
 71
3
 72
9
 73
5
 74
0
 42
0.0000001
 43
0.0000001
 44
0.0000000001
 40
0.0
 40
0.0
 40
0.0
 40
0.0
 40
0.4802428506
 40
1.0
 40
1.0
 40
1.0
 40
1.0
 10
1290.9476851368
 20
74.8463262664
 30
0.0
 10
1290.9476947387
 20
73.5434708886
 30
0.0
 10
1290.6384124873
 20
70.8267014732
 30
0.0
 10
1289.8631765104
 20
68.2170129631
 30
0.0
 10
1289.388916077
 20
66.8891087546
 30
0.0
  0
SPLINE
  5
63A
100
AcDbEntity
  8
0
100
AcDbSpline
 62
9
  6
CONTINUOUS
 70
0
 71
3
 72
29
 73
25
 74
0
 42
0.0000001
 43
0.0000001
 44
0.0000000001
 40
0.0
 40
0.0
 40
0.0
 40
0.0
 40
0.1497886273
 40
0.2875531233
 40
0.5154249679
 40
0.6066477642
 40
0.6848173567
 40
0.7515469764
 40
0.8082475613
 40
0.8560904877
 40
0.8960159451
 40
0.9287624165
 40
0.9548962319
 40
0.9656166593
 40
0.9748326393
 40
0.9825780668
 40
0.9888770894
 40
0.9937532405
 40
0.9956647802
 40
0.9972273442
 40
0.9984415413
 40
0.9993079786
 40
0.9998272625
 40
1.0
 40
1.0
 40
1.0
 40
1.0
 10
1285.5723006722
 20
67.9466441179
 30
0.0
 10
1285.1355506376
 20
66.3272396268
 30
0.0
 10
1284.1629428626
 20
63.2545305834
 30
0.0
 10
1282.1630687185
 20
57.8400967034
 30
0.0
 10
1280.2552902453
 20
53.0929736573
 30
0.0
 10
1278.67622841
 20
48.9340908876
 30
0.0
 10
1277.7887337505
 20
46.4432390028
 30
0.0
 10
1277.0860208876
 20
44.2976780046
 30
0.0
 10
1276.5408917181
 20
42.4586655239
 30
0.0
 10
1276.1259039704
 20
40.8948760592
 30
0.0
 10
1275.8158378704
 20
39.5813448816
 30
0.0
 10
1275.5889001995
 20
38.4983835581
 30
0.0
 10
1275.445566889
 20
37.7322654756
 30
0.0
 10
1275.3581543671
 20
37.2238416149
 30
0.0
 10
1275.3080046041
 20
36.9179643096
 30
0.0
 10
1275.2675096139
 20
36.6606398356
 30
0.0
 10
1275.2359382802
 20
36.4512218355
 30
0.0
 10
1275.2146403812
 20
36.3060520395
 30
0.0
 10
1275.2015737059
 20
36.2137495121
 30
0.0
 10
1275.1936556208
 20
36.1612592724
 30
0.0
 10
1275.1892143231
 20
36.122207957
 30
0.0
 10
1275.1822683452
 20
36.0903508252
 30
0.0
 10
1275.1849365676
 20
36.0783681755
 30
0.0
 10
1275.178645858
 20
36.0652106247
 30
0.0
 10
1275.1805519574
 20
36.0655393506
 30
0.0
  0
SPLINE
  5
63B
100
AcDbEntity
  8
0
100
AcDbSpline
 62
7
  6
CONTINUOUS
 70
0
 71
3
 72
11
 73
7
 74
0
 42
0.0000001
 43
0.0000001
 44
0.0000000001
 40
0.0
 40
0.0
 40
0.0
 40
0.0
 40
0.2266824605
 40
0.4698338521
 40
0.7290530727
 40
1.0
 40
1.0
 40
1.0
 40
1.0
 10
1256.9476851368
 20
440.1472877312
 30
0.0
 10
1259.0684495393
 20
439.3939663754
 30
0.0
 10
1263.3177262533
 20
437.4028785582
 30
0.0
 10
1269.322889821
 20
433.3174918922
 30
0.0
 10
1275.015566449
 20
428.1311887069
 30
0.0
 10
1278.4024053591
 20
424.0746864658
 30
0.0
 10
1279.9707381461
 20
421.8891087546
 30
0.0
  0
SPLINE
  5
63C
100
AcDbEntity
  8
0
100
AcDbSpline
 62
7
  6
CONTINUOUS
 70
0
 71
3
 72
10
 73
6
 74
0
 42
0.0000001
 43
0.0000001
 44
0.0000000001
 40
0.0
 40
0.0
 40
0.0
 40
0.0
 40
0.2502500077
 40
0.5005386487
 40
1.0
 40
1.0
 40
1.0
 40
1.0
 10
1279.9707381461
 20
421.8891087546
 30
0.0
 10
1281.1550093588
 20
420.2387467983
 30
0.0
 10
1283.2259085158
 20
416.7129896792
 30
0.0
 10
1286.1234601534
 20
409.1038790979
 30
0.0
 10
1286.9476851368
 20
402.9616748829
 30
0.0
 10
1286.9476851368
 20
398.9074993189
 30
0.0
  0
SPLINE
  5
63D
100
AcDbEntity
  8
0
100
AcDbSpline
 62
9
  6
CONTINUOUS
 70
0
 71
3
 72
16
 73
12
 74
0
 42
0.0000001
 43
0.0000001
 44
0.0000000001
 40
0.0
 40
0.0
 40
0.0
 40
0.0
 40
0.0040172211
 40
0.0159758625
 40
0.0358567266
 40
0.0636405953
 40
0.1428404971
 40
0.2534219603
 40
0.3951229867
 40
0.5672849788
 40
1.0
 40
1.0
 40
1.0
 40
1.0
 10
1072.9476851368
 20
441.8891087546
 30
0.0
 10
1072.9492513038
 20
441.8873237301
 30
0.0
 10
1072.9485169341
 20
441.8767622774
 30
0.0
 10
1072.9551813067
 20
441.8572325432
 30
0.0
 10
1072.960647154
 20
441.8219575207
 30
0.0
 10
1072.976077518
 20
441.7488229126
 30
0.0
 10
1073.0002777697
 20
441.6223159926
 30
0.0
 10
1073.0381793229
 20
441.4301605046
 30
0.0
 10
1073.0858633408
 20
441.1837952772
 30
0.0
 10
1073.1689642057
 20
440.7503826079
 30
0.0
 10
1073.2345669689
 20
440.3988800554
 30
0.0
 10
1073.2807206222
 20
440.1472877312
 30
0.0
  0
SPLINE
  5
63E
100
AcDbEntity
  8
0
100
AcDbSpline
 62
9
  6
CONTINUOUS
 70
0
 71
3
 72
11
 73
7
 74
0
 42
0.0000001
 43
0.0000001
 44
0.0000000001
 40
0.0
 40
0.0
 40
0.0
 40
0.0
 40
0.259016616
 40
0.5140724744
 40
0.7609772801
 40
1.0
 40
1.0
 40
1.0
 40
1.0
 10
1140.6146496514
 20
440.1472810911
 30
0.0
 10
1140.103807234
 20
440.1602927503
 30
0.0
 10
1139.0856948041
 20
440.3665419885
 30
0.0
 10
1137.7811766263
 20
441.1717379332
 30
0.0
 10
1136.8772831977
 20
442.3655213193
 30
0.0
 10
1136.6383009329
 20
443.3275789468
 30
0.0
 10
1136.6239634794
 20
443.7989235266
 30
0.0
  0
SPLINE
  5
63F
100
AcDbEntity
  8
0
100
AcDbSpline
 62
9
  6
CONTINUOUS
 70
0
 71
3
 72
16
 73
12
 74
0
 42
0.0000001
 43
0.0000001
 44
0.0000000001
 40
0.0
 40
0.0
 40
0.0
 40
0.0
 40
0.4327159135
 40
0.6048775171
 40
0.7465783975
 40
0.8571601147
 40
0.9363602145
 40
0.9641440803
 40
0.9840248304
 40
0.995983214
 40
1.0
 40
1.0
 40
1.0
 40
1.0
 10
1140.6146496514
 20
440.1472877312
 30
0.0
 10
1140.660805528
 20
440.3988801825
 30
0.0
 10
1140.7264088355
 20
440.7503829312
 30
0.0
 10
1140.8095076315
 20
441.18379619
 30
0.0
 10
1140.8571902
 20
441.43016157
 30
0.0
 10
1140.8950920416
 20
441.6223170788
 30
0.0
 10
1140.9192924099
 20
441.7488244672
 30
0.0
 10
1140.9347239049
 20
441.8219586031
 30
0.0
 10
1140.9401888236
 20
441.8572340685
 30
0.0
 10
1140.9468549893
 20
441.8767621193
 30
0.0
 10
1140.946118608
 20
441.8873243899
 30
0.0
 10
1140.9476851368
 20
441.8891087546
 30
0.0
  0
SPLINE
  5
640
100
AcDbEntity
  8
0
100
AcDbSpline
 62
9
  6
CONTINUOUS
 70
0
 71
3
 72
15
 73
11
 74
0
 42
0.0000001
 43
0.0000001
 44
0.0000000001
 40
0.0
 40
0.0
 40
0.0
 40
0.0
 40
0.1288705029
 40
0.2571967392
 40
0.3845010672
 40
0.5104285095
 40
0.6348028297
 40
0.7576518349
 40
0.8792358758
 40
1.0
 40
1.0
 40
1.0
 40
1.0
 10
1066.9521811819
 20
440.1473019418
 30
0.0
 10
1064.9898164829
 20
440.1473505599
 30
0.0
 10
1061.0635265003
 20
439.7829704344
 30
0.0
 10
1055.4037470018
 20
438.1606300684
 30
0.0
 10
1050.1851041648
 20
435.5271143561
 30
0.0
 10
1045.6099852804
 20
431.9853696932
 30
0.0
 10
1041.8532345131
 20
427.6731465462
 30
0.0
 10
1039.0593221244
 20
422.756849681
 30
0.0
 10
1037.3365985899
 20
417.4297051398
 30
0.0
 10
1036.9483727774
 20
413.72803414
 30
0.0
 10
1036.9476851368
 20
411.8891087655
 30
0.0
  0
SPLINE
  5
641
100
AcDbEntity
  8
0
100
AcDbSpline
 62
9
  6
CONTINUOUS
 70
0
 71
3
 72
11
 73
7
 74
0
 42
0.0000001
 43
0.0000001
 44
0.0000000001
 40
0.0
 40
0.0
 40
0.0
 40
0.0
 40
0.2590166086
 40
0.5140724655
 40
0.7609772787
 40
1.0
 40
1.0
 40
1.0
 40
1.0
 10
1073.2807206222
 20
440.1472844184
 30
0.0
 10
1073.7915626738
 20
440.1602962984
 30
0.0
 10
1074.8096742896
 20
440.3665456425
 30
0.0
 10
1076.1141916449
 20
441.171740786
 30
0.0
 10
1077.0180851999
 20
442.3655226907
 30
0.0
 10
1077.2570685193
 20
443.3275792852
 30
0.0
 10
1077.2714067025
 20
443.7989235266
 30
0.0
  0
SPLINE
  5
642
100
AcDbEntity
  8
0
100
AcDbSpline
 62
9
  6
CONTINUOUS
 70
0
 71
3
 72
14
 73
10
 74
0
 42
0.0000001
 43
0.0000001
 44
0.0000000001
 40
0.0
 40
0.0
 40
0.0
 40
0.0
 40
0.4322978578
 40
0.6044798622
 40
0.7462651812
 40
0.85693823
 40
0.9362222207
 40
0.9839614309
 40
1.0
 40
1.0
 40
1.0
 40
1.0
 10
1136.6239625092
 20
443.7989235266
 30
0.0
 10
1136.6687408469
 20
444.1004031918
 30
0.0
 10
1136.7325327247
 20
444.5217929465
 30
0.0
 10
1136.8130220735
 20
445.0417319665
 30
0.0
 10
1136.8599343968
 20
445.3374533006
 30
0.0
 10
1136.8955260035
 20
445.5685413968
 30
0.0
 10
1136.9243231415
 20
445.7338398852
 30
0.0
 10
1136.9361814599
 20
445.8337561852
 30
0.0
 10
1136.9476809564
 20
445.8778009347
 30
0.0
 10
1136.9476851368
 20
445.8891087546
 30
0.0
  0
SPLINE
  5
643
100
AcDbEntity
  8
0
100
AcDbSpline
 62
9
  6
CONTINUOUS
 70
0
 71
3
 72
20
 73
16
 74
0
 42
0.0000001
 43
0.0000001
 44
0.0000000001
 40
0.0
 40
0.0
 40
0.0
 40
0.0
 40
0.0454381076
 40
0.0897522953
 40
0.1325913556
 40
0.1740656704
 40
0.2534813166
 40
0.3289859599
 40
0.4010724018
 40
0.4700198396
 40
0.5990298338
 40
0.7165801597
 40
0.8226839845
 40
0.9171897675
 40
1.0
 40
1.0
 40
1.0
 40
1.0
 10
1106.9476851368
 20
399.9412148798
 30
0.0
 10
1107.7892741684
 20
399.9419191961
 30
0.0
 10
1109.4585405939
 20
400.173122
 30
0.0
 10
1111.7570821042
 20
401.0810116111
 30
0.0
 10
1113.8037557598
 20
402.3150793368
 30
0.0
 10
1116.2045808012
 20
404.1751463077
 30
0.0
 10
1118.7939901162
 20
406.7465084792
 30
0.0
 10
1121.4733594227
 20
409.9913391365
 30
0.0
 10
1123.8073729635
 20
413.2561728756
 30
0.0
 10
1126.4950727286
 20
417.476265056
 30
0.0
 10
1129.3142010448
 20
422.6024953906
 30
0.0
 10
1132.0586311729
 20
428.5347031579
 30
0.0
 10
1134.1779224571
 20
434.038340213
 30
0.0
 10
1135.7125720199
 20
439.0629774004
 30
0.0
 10
1136.3985935184
 20
442.2817881211
 30
0.0
 10
1136.6239625092
 20
443.7989235266
 30
0.0
  0
SPLINE
  5
644
100
AcDbEntity
  8
0
100
AcDbSpline
 62
9
  6
CONTINUOUS
 70
0
 71
3
 72
9
 73
5
 74
0
 42
0.0000001
 43
0.0000001
 44
0.0000000001
 40
0.0
 40
0.0
 40
0.0
 40
0.0
 40
0.4232744624
 40
1.0
 40
1.0
 40
1.0
 40
1.0
 10
121.2738257036
 20
440.6945259737
 30
0.0
 10
121.1279269992
 20
441.1438582887
 30
0.0
 10
120.7204181517
 20
442.184178022
 30
0.0
 10
120.2830265936
 20
443.2108332317
 30
0.0
 10
120.0213132902
 20
443.7989235266
 30
0.0
  0
SPLINE
  5
645
100
AcDbEntity
  8
0
100
AcDbSpline
 62
9
  6
CONTINUOUS
 70
0
 71
3
 72
9
 73
5
 74
0
 42
0.0000001
 43
0.0000001
 44
0.0000000001
 40
0.0
 40
0.0
 40
0.0
 40
0.0
 40
0.5049628038
 40
1.0
 40
1.0
 40
1.0
 40
1.0
 10
123.4366264923
 20
76.8942872452
 30
0.0
 10
122.6246273232
 20
75.5458809852
 30
0.0
 10
121.3553419891
 20
72.6457286215
 30
0.0
 10
121.0286526184
 20
69.4877989645
 30
0.0
 10
121.1057457499
 20
67.9466441179
 30
0.0
  0
SPLINE
  5
646
100
AcDbEntity
  8
0
100
AcDbSpline
 62
9
  6
CONTINUOUS
 70
0
 71
3
 72
29
 73
25
 74
0
 42
0.0000001
 43
0.0000001
 44
0.0000000001
 40
0.0
 40
0.0
 40
0.0
 40
0.0
 40
0.0302606889
 40
0.0603775432
 40
0.0907144844
 40
0.1213924777
 40
0.1523893248
 40
0.1836346662
 40
0.2465592739
 40
0.3098084904
 40
0.3731767992
 40
0.4365849342
 40
0.5000047387
 40
0.5634246111
 40
0.6268327557
 40
0.6902011945
 40
0.7534495319
 40
0.8163734968
 40
0.8476180818
 40
0.8786137754
 40
0.9092907768
 40
0.939626455
 40
0.9697415634
 40
1.0
 40
1.0
 40
1.0
 40
1.0
 10
121.1057457499
 20
67.9466441179
 30
0.0
 10
121.1876051771
 20
66.3126961175
 30
0.0
 10
121.8864382467
 20
63.0633686652
 30
0.0
 10
124.1911253918
 20
58.6859138945
 30
0.0
 10
127.3495993627
 20
54.8696837373
 30
0.0
 10
131.0918623133
 20
51.5695692582
 30
0.0
 10
135.238720639
 20
48.7172429907
 30
0.0
 10
141.1608317674
 20
45.4272157789
 30
0.0
 10
149.0549589684
 20
42.1723734192
 30
0.0
 10
158.9210959284
 20
39.3481238381
 30
0.0
 10
169.0260296179
 20
37.4271555413
 30
0.0
 10
179.2574860543
 20
36.3100257459
 30
0.0
 10
189.5452128876
 20
35.9432556339
 30
0.0
 10
199.8329395854
 20
36.3101430319
 30
0.0
 10
210.0643811211
 20
37.4274683786
 30
0.0
 10
220.1692848597
 20
39.3484011629
 30
0.0
 10
230.0352682485
 20
42.1729129719
 30
0.0
 10
237.9292701439
 20
45.4277300907
 30
0.0
 10
243.8511855857
 20
48.7178343315
 30
0.0
 10
247.9978119259
 20
51.5702207826
 30
0.0
 10
251.7398526009
 20
54.8703002145
 30
0.0
 10
254.8981165164
 20
58.6864350927
 30
0.0
 10
257.2024838629
 20
63.0637125613
 30
0.0
 10
257.9013424026
 20
66.3128145037
 30
0.0
 10
257.9831312874
 20
67.9466441179
 30
0.0
  0
SPLINE
  5
647
100
AcDbEntity
  8
0
100
AcDbSpline
 62
9
  6
CONTINUOUS
 70
0
 71
3
 72
9
 73
5
 74
0
 42
0.0000001
 43
0.0000001
 44
0.0000000001
 40
0.0
 40
0.0
 40
0.0
 40
0.0
 40
0.4950298702
 40
1.0
 40
1.0
 40
1.0
 40
1.0
 10
257.9831312874
 20
67.9466441179
 30
0.0
 10
258.0597028354
 20
69.4877972091
 30
0.0
 10
257.7338092967
 20
72.6457585778
 30
0.0
 10
256.4638647497
 20
75.5456284051
 30
0.0
 10
255.652250545
 20
76.8942872452
 30
0.0
  0
SPLINE
  5
648
100
AcDbEntity
  8
0
100
AcDbSpline
 62
9
  6
CONTINUOUS
 70
0
 71
3
 72
23
 73
19
 74
0
 42
0.0000001
 43
0.0000001
 44
0.0000000001
 40
0.0
 40
0.0
 40
0.0
 40
0.0
 40
0.0623278469
 40
0.0935940316
 40
0.1248637246
 40
0.1873725935
 40
0.2499001976
 40
0.3124358975
 40
0.374976101
 40
0.4999989337
 40
0.6250224134
 40
0.687562861
 40
0.7500987088
 40
0.8126266608
 40
0.8751359174
 40
0.9064059415
 40
0.937672309
 40
1.0
 40
1.0
 40
1.0
 40
1.0
 10
255.652247158
 20
76.8942922034
 30
0.0
 10
254.1027916314
 20
79.4941587917
 30
0.0
 10
251.0148017429
 20
82.9587495404
 30
0.0
 10
246.2293750268
 20
86.6821513301
 30
0.0
 10
241.0897178837
 20
89.9342799521
 30
0.0
 10
234.2162339614
 20
93.2121509415
 30
0.0
 10
225.5883802931
 20
96.1743939996
 30
0.0
 10
216.7296571337
 20
98.3442441848
 30
0.0
 10
204.7383477147
 20
100.3241347605
 30
0.0
 10
189.5445596548
 20
101.2657056624
 30
0.0
 10
174.3507584672
 20
100.324157581
 30
0.0
 10
162.3593952064
 20
98.3442809388
 30
0.0
 10
153.5006361284
 20
96.1744281332
 30
0.0
 10
144.8727320826
 20
93.2121984889
 30
0.0
 10
137.9992017071
 20
89.9343032161
 30
0.0
 10
132.8595038129
 20
86.6821573746
 30
0.0
 10
128.0740648907
 20
82.9587410386
 30
0.0
 10
124.9860852127
 20
79.4941431833
 30
0.0
 10
123.4366265235
 20
76.8942872909
 30
0.0
  0
SPLINE
  5
649
100
AcDbEntity
  8
0
100
AcDbSpline
 62
9
  6
CONTINUOUS
 70
0
 71
3
 72
31
 73
27
 74
0
 42
0.0000001
 43
0.0000001
 44
0.0000000001
 40
0.0
 40
0.0
 40
0.0
 40
0.0
 40
0.0003756735
 40
0.001464075
 40
0.0032288574
 40
0.0056335774
 40
0.0086335801
 40
0.0121700293
 40
0.0206114614
 40
0.0305126256
 40
0.0415708639
 40
0.0535223881
 40
0.0661756929
 40
0.0931117499
 40
0.1216272677
 40
0.1512898524
 40
0.1818220371
 40
0.2447968563
 40
0.3096230971
 40
0.375784507
 40
0.4429633959
 40
0.5109475763
 40
0.5795855949
 40
0.7183790406
 40
0.8586882354
 40
1.0
 40
1.0
 40
1.0
 40
1.0
 10
64.5444385186
 20
399.9412148798
 30
0.0
 10
64.5465922252
 20
399.949904684
 30
0.0
 10
64.5726379239
 20
399.9759867668
 30
0.0
 10
64.6095944381
 20
400.0424053015
 30
0.0
 10
64.6834935206
 20
400.1445101483
 30
0.0
 10
64.7784641803
 20
400.2861936294
 30
0.0
 10
64.8996843674
 20
400.4615670679
 30
0.0
 10
65.102582282
 20
400.7551703812
 30
0.0
 10
65.4021074678
 20
401.1820023697
 30
0.0
 10
65.8100707227
 20
401.7516351917
 30
0.0
 10
66.2731872985
 20
402.3846316623
 30
0.0
 10
66.7825265799
 20
403.0650120363
 30
0.0
 10
67.5297179181
 20
404.0399082034
 30
0.0
 10
68.5387027074
 20
405.311365357
 30
0.0
 10
69.8343539612
 20
406.8721897866
 30
0.0
 10
71.2187308088
 20
408.4701370562
 30
0.0
 10
73.1856097551
 20
410.6491675435
 30
0.0
 10
75.7963951611
 20
413.3747512732
 30
0.0
 10
79.1145189023
 20
416.5941989744
 30
0.0
 10
82.6173941552
 20
419.7629549358
 30
0.0
 10
86.2827381532
 20
422.8601165671
 30
0.0
 10
90.094557064
 20
425.8713285801
 30
0.0
 10
95.3748301756
 20
429.7713268386
 30
0.0
 10
102.2753462487
 20
434.3713829467
 30
0.0
 10
110.950606526
 20
439.3954375502
 30
0.0
 10
116.9620329578
 20
442.3912150379
 30
0.0
 10
120.0213133565
 20
443.7989235266
 30
0.0
  0
SPLINE
  5
64A
100
AcDbEntity
  8
0
100
AcDbSpline
 62
9
  6
CONTINUOUS
 70
0
 71
3
 72
11
 73
7
 74
0
 42
0.0000001
 43
0.0000001
 44
0.0000000001
 40
0.0
 40
0.0
 40
0.0
 40
0.0
 40
0.2500047083
 40
0.5000083304
 40
0.7500077661
 40
1.0
 40
1.0
 40
1.0
 40
1.0
 10
-641.6857127622
 20
273.0870674014
 30
0.0
 10
-641.6973130305
 20
272.7289474752
 30
0.0
 10
-641.644938219
 20
272.0080351237
 30
0.0
 10
-641.3435140657
 20
270.9683032287
 30
0.0
 10
-640.8320016306
 20
270.0141726194
 30
0.0
 10
-640.3640445975
 20
269.4630574186
 30
0.0
 10
-640.104310879
 20
269.2162578406
 30
0.0
  0
LINE
  5
64B
100
AcDbEntity
  8
0
100
AcDbLine
 62
9
  6
CONTINUOUS
 10
-646.1810918623
 20
282.6395930934
 11
-646.1810918622
 21
266.8891087546
  0
LINE
  5
64C
100
AcDbEntity
  8
0
100
AcDbLine
 62
9
  6
CONTINUOUS
 10
-646.1810918623
 20
126.8891087538
 11
-646.1810918621
 21
111.1386244156
  0
SPLINE
  5
64D
100
AcDbEntity
  8
0
100
AcDbSpline
 62
9
  6
CONTINUOUS
 70
0
 71
3
 72
17
 73
13
 74
0
 42
0.0000001
 43
0.0000001
 44
0.0000000001
 40
0.0
 40
0.0
 40
0.0
 40
0.0
 40
0.0310016494
 40
0.0572432913
 40
0.0916106178
 40
0.1341244559
 40
0.184564568
 40
0.2425531017
 40
0.3076036255
 40
0.4565145226
 40
0.6258725101
 40
1.0
 40
1.0
 40
1.0
 40
1.0
 10
-576.6810918589
 20
204.8891087546
 30
0.0
 10
-576.6811011257
 20
204.8467963477
 30
0.0
 10
-576.7532110461
 20
204.7843843742
 30
0.0
 10
-576.8613763275
 20
204.7327218457
 30
0.0
 10
-576.9957831766
 20
204.6844744757
 30
0.0
 10
-577.1630137047
 20
204.6393416329
 30
0.0
 10
-577.3646158723
 20
204.5955463706
 30
0.0
 10
-577.5977679526
 20
204.5544541914
 30
0.0
 10
-577.9651605472
 20
204.5011348065
 30
0.0
 10
-578.4855768503
 20
204.4458660965
 30
0.0
 10
-579.4283989004
 20
204.3798581298
 30
0.0
 10
-580.1704662868
 20
204.3616310016
 30
0.0
 10
-580.6810918589
 20
204.3616362272
 30
0.0
  0
SPLINE
  5
64E
100
AcDbEntity
  8
0
100
AcDbSpline
 62
9
  6
CONTINUOUS
 70
0
 71
3
 72
11
 73
7
 74
0
 42
0.0000001
 43
0.0000001
 44
0.0000000001
 40
0.0
 40
0.0
 40
0.0
 40
0.0
 40
0.2498447431
 40
0.4986303534
 40
0.7481823148
 40
1.0
 40
1.0
 40
1.0
 40
1.0
 10
-645.6789132957
 20
108.0161254084
 30
0.0
 10
-645.6030730312
 20
107.7300726648
 30
0.0
 10
-645.4150410592
 20
107.1678187406
 30
0.0
 10
-645.0022255263
 20
106.3783680241
 30
0.0
 10
-644.4370367463
 20
105.6836417201
 30
0.0
 10
-643.9476659274
 20
105.3293000683
 30
0.0
 10
-643.6810918589
 20
105.1954912749
 30
0.0
  0
SPLINE
  5
64F
100
AcDbEntity
  8
0
100
AcDbSpline
 62
9
  6
CONTINUOUS
 70
0
 71
3
 72
11
 73
7
 74
0
 42
0.0000001
 43
0.0000001
 44
0.0000000001
 40
0.0
 40
0.0
 40
0.0
 40
0.0
 40
0.2518297471
 40
0.5014044018
 40
0.7501893398
 40
1.0
 40
1.0
 40
1.0
 40
1.0
 10
-643.6810918589
 20
288.5827259947
 30
0.0
 10
-643.9472066437
 20
288.448217089
 30
0.0
 10
-644.4354996013
 20
288.0928588662
 30
0.0
 10
-645.0000417777
 20
287.3981402132
 30
0.0
 10
-645.4134524467
 20
286.6094555449
 30
0.0
 10
-645.6024775246
 20
286.0478320843
 30
0.0
 10
-645.6789131487
 20
285.7620921008
 30
0.0
  0
SPLINE
  5
650
100
AcDbEntity
  8
0
100
AcDbSpline
 62
9
  6
CONTINUOUS
 70
0
 71
3
 72
26
 73
22
 74
0
 42
0.0000001
 43
0.0000001
 44
0.0000000001
 40
0.0
 40
0.0
 40
0.0
 40
0.0
 40
0.2158186368
 40
0.4124940168
 40
0.5857231353
 40
0.6623897961
 40
0.7318971924
 40
0.7939078478
 40
0.8481319189
 40
0.8943283627
 40
0.9323060897
 40
0.9481671377
 40
0.9619249371
 40
0.9735700186
 40
0.9830961566
 40
0.9905003691
 40
0.9957829041
 40
0.9976294971
 40
0.998947234
 40
0.9997370134
 40
1.0
 40
1.0
 40
1.0
 40
1.0
 10
-645.9409587921
 20
284.6756786827
 30
0.0
 10
-645.9523437993
 20
284.5285779892
 30
0.0
 10
-645.9764152748
 20
284.2475983453
 30
0.0
 10
-646.0165492775
 20
283.8491833292
 30
0.0
 10
-646.051252232
 20
283.5458616328
 30
0.0
 10
-646.0782517539
 20
283.3291816727
 30
0.0
 10
-646.0967576218
 20
283.1880670904
 30
0.0
 10
-646.114080379
 20
283.0622740377
 30
0.0
 10
-646.1299510289
 20
282.9523699135
 30
0.0
 10
-646.1441075462
 20
282.8588209182
 30
0.0
 10
-646.1548149158
 20
282.7912759095
 30
0.0
 10
-646.1623221794
 20
282.7456791615
 30
0.0
 10
-646.1670106259
 20
282.7178604667
 30
0.0
 10
-646.1710811025
 20
282.694335951
 30
0.0
 10
-646.1744700992
 20
282.6750841735
 30
0.0
 10
-646.17722233
 20
282.6601827968
 30
0.0
 10
-646.1789538771
 20
282.650331694
 30
0.0
 10
-646.180145852
 20
282.6447701253
 30
0.0
 10
-646.1804691772
 20
282.6419326874
 30
0.0
 10
-646.1811097586
 20
282.6406647692
 30
0.0
 10
-646.1809068759
 20
282.6396247615
 30
0.0
 10
-646.1810823137
 20
282.6395854594
 30
0.0
  0
SPLINE
  5
651
100
AcDbEntity
  8
0
100
AcDbSpline
 62
9
  6
CONTINUOUS
 70
0
 71
3
 72
9
 73
5
 74
0
 42
0.0000001
 43
0.0000001
 44
0.0000000001
 40
0.0
 40
0.0
 40
0.0
 40
0.0
 40
0.2545525327
 40
1.0
 40
1.0
 40
1.0
 40
1.0
 10
-645.678913142
 20
285.7620921167
 30
0.0
 10
-645.7174766399
 20
285.6751591752
 30
0.0
 10
-645.8512296843
 20
285.3257909223
 30
0.0
 10
-645.9194685013
 20
284.9533522996
 30
0.0
 10
-645.9409587921
 20
284.6756786827
 30
0.0
  0
SPLINE
  5
652
100
AcDbEntity
  8
0
100
AcDbSpline
 62
9
  6
CONTINUOUS
 70
0
 71
3
 72
26
 73
22
 74
0
 42
0.0000001
 43
0.0000001
 44
0.0000000001
 40
0.0
 40
0.0
 40
0.0
 40
0.0
 40
0.000262404
 40
0.0010504725
 40
0.0023654235
 40
0.0042082119
 40
0.0094803035
 40
0.0168706783
 40
0.0263800533
 40
0.0380059254
 40
0.0517425554
 40
0.0675809664
 40
0.1055109983
 40
0.151659851
 40
0.20584038
 40
0.2678153494
 40
0.3372984683
 40
0.4139554087
 40
0.5872180932
 40
0.7840043199
 40
1.0
 40
1.0
 40
1.0
 40
1.0
 10
-646.1810823147
 20
111.1386320491
 30
0.0
 10
-646.1809064024
 20
111.1385968618
 30
0.0
 10
-646.1811053646
 20
111.137550366
 30
0.0
 10
-646.1804585999
 20
111.136295671
 30
0.0
 10
-646.1801236121
 20
111.1334612932
 30
0.0
 10
-646.1789084043
 20
111.1279187204
 30
0.0
 10
-646.1771380339
 20
111.118091729
 30
0.0
 10
-646.174329889
 20
111.1032294326
 30
0.0
 10
-646.170872725
 20
111.0840230174
 30
0.0
 10
-646.1667236264
 20
111.0605508039
 30
0.0
 10
-646.1619477088
 20
111.0327892021
 30
0.0
 10
-646.1543054798
 20
110.9872759441
 30
0.0
 10
-646.1434188377
 20
110.9198376547
 30
0.0
 10
-646.1290502397
 20
110.826412088
 30
0.0
 10
-646.1129727913
 20
110.7166198492
 30
0.0
 10
-646.0954630801
 20
110.5909175083
 30
0.0
 10
-646.076805535
 20
110.449863527
 30
0.0
 10
-646.0496639223
 20
110.2331902716
 30
0.0
 10
-646.0149810725
 20
109.9297564088
 30
0.0
 10
-645.9752980434
 20
109.5310528871
 30
0.0
 10
-645.9518935637
 20
109.2498024852
 30
0.0
 10
-645.9409589005
 20
109.1025387588
 30
0.0
  0
SPLINE
  5
653
100
AcDbEntity
  8
0
100
AcDbSpline
 62
9
  6
CONTINUOUS
 70
0
 71
3
 72
9
 73
5
 74
0
 42
0.0000001
 43
0.0000001
 44
0.0000000001
 40
0.0
 40
0.0
 40
0.0
 40
0.0
 40
0.2457070416
 40
1.0
 40
1.0
 40
1.0
 40
1.0
 10
-645.9409589005
 20
109.1025387588
 30
0.0
 10
-645.9341639989
 20
109.0110254379
 30
0.0
 10
-645.8929547456
 20
108.6398662915
 30
0.0
 10
-645.7922886885
 20
108.2740128578
 30
0.0
 10
-645.6789132864
 20
108.0161253861
 30
0.0
  0
SPLINE
  5
654
100
AcDbEntity
  8
0
100
AcDbSpline
 62
9
  6
CONTINUOUS
 70
0
 71
3
 72
17
 73
13
 74
0
 42
0.0000001
 43
0.0000001
 44
0.0000000001
 40
0.0
 40
0.0
 40
0.0
 40
0.0
 40
0.1196168409
 40
0.2395081303
 40
0.3599957248
 40
0.4815289086
 40
0.6048071179
 40
0.7310216175
 40
0.795965457
 40
0.8624655729
 40
0.9306353425
 40
1.0
 40
1.0
 40
1.0
 40
1.0
 10
-576.6810918589
 20
283.8891087546
 30
0.0
 10
-576.6811031562
 20
284.1432992819
 30
0.0
 10
-576.7043209901
 20
284.6525760668
 30
0.0
 10
-576.8104497205
 20
285.4113208315
 30
0.0
 10
-576.9930178966
 20
286.1598763218
 30
0.0
 10
-577.2620110405
 20
286.8902204351
 30
0.0
 10
-577.6342884199
 20
287.5883581601
 30
0.0
 10
-578.0521481796
 20
288.1172251134
 30
0.0
 10
-578.4680645567
 20
288.4759752499
 30
0.0
 10
-578.8310177963
 20
288.6998522229
 30
0.0
 10
-579.2402432563
 20
288.8524595607
 30
0.0
 10
-579.5336892129
 20
288.8891162843
 30
0.0
 10
-579.6810918589
 20
288.8891087546
 30
0.0
  0
SPLINE
  5
655
100
AcDbEntity
  8
0
100
AcDbSpline
 62
9
  6
CONTINUOUS
 70
0
 71
3
 72
13
 73
9
 74
0
 42
0.0000001
 43
0.0000001
 44
0.0000000001
 40
0.0
 40
0.0
 40
0.0
 40
0.0
 40
0.1325627091
 40
0.2266627794
 40
0.3419355428
 40
0.4782948564
 40
0.634644537
 40
1.0
 40
1.0
 40
1.0
 40
1.0
 10
-644.6810918589
 20
283.8891087546
 30
0.0
 10
-644.6810918589
 20
283.9569360229
 30
0.0
 10
-644.7486141783
 20
284.0667285492
 30
0.0
 10
-644.8770198369
 20
284.1822019117
 30
0.0
 10
-645.0236449586
 20
284.2833461307
 30
0.0
 10
-645.2062382249
 20
284.3844143653
 30
0.0
 10
-645.5118200493
 20
284.5265353788
 30
0.0
 10
-645.7631746942
 20
284.6178964512
 30
0.0
 10
-645.9409587921
 20
284.6756786827
 30
0.0
  0
LINE
  5
656
100
AcDbEntity
  8
0
100
AcDbLine
 62
9
  6
CONTINUOUS
 10
-610.3837667327
 20
239.7678790142
 11
-610.0811687973
 21
239.5048098392
  0
LINE
  5
657
100
AcDbEntity
  8
0
100
AcDbLine
 62
9
  6
CONTINUOUS
 10
-610.0811687973
 20
154.2734076583
 11
-610.3837667327
 21
154.010338495
  0
SPLINE
  5
658
100
AcDbEntity
  8
0
100
AcDbSpline
 62
9
  6
CONTINUOUS
 70
0
 71
3
 72
17
 73
13
 74
0
 42
0.0000001
 43
0.0000001
 44
0.0000000001
 40
0.0
 40
0.0
 40
0.0
 40
0.0
 40
0.069366526
 40
0.1375361153
 40
0.2040343917
 40
0.2689775419
 40
0.3951913977
 40
0.5184692822
 40
0.6400027041
 40
0.7604906685
 40
0.88038269
 40
1.0
 40
1.0
 40
1.0
 40
1.0
 10
-579.6810918589
 20
104.8891087546
 30
0.0
 10
-579.5336852485
 20
104.8891012243
 30
0.0
 10
-579.2402356504
 20
104.9257594135
 30
0.0
 10
-578.8310113537
 20
105.0783688274
 30
0.0
 10
-578.4680639638
 20
105.3022439205
 30
0.0
 10
-578.0521519716
 20
105.660988675
 30
0.0
 10
-577.6342935703
 20
106.1898521578
 30
0.0
 10
-577.2620153048
 20
106.8879876475
 30
0.0
 10
-576.9930218996
 20
107.618332249
 30
0.0
 10
-576.8104504001
 20
108.3668898013
 30
0.0
 10
-576.704321235
 20
109.1256379684
 30
0.0
 10
-576.681103793
 20
109.6349172416
 30
0.0
 10
-576.6810918589
 20
109.8891087546
 30
0.0
  0
SPLINE
  5
659
100
AcDbEntity
  8
0
100
AcDbSpline
 62
9
  6
CONTINUOUS
 70
0
 71
3
 72
15
 73
11
 74
0
 42
0.0000001
 43
0.0000001
 44
0.0000000001
 40
0.0
 40
0.0
 40
0.0
 40
0.0
 40
0.1235858319
 40
0.2473764065
 40
0.3715641129
 40
0.4962744733
 40
0.62155484
 40
0.7473615942
 40
0.8735716456
 40
1.0
 40
1.0
 40
1.0
 40
1.0
 10
-576.6810918589
 20
152.2432802821
 30
0.0
 10
-576.6810909567
 20
152.4990422772
 30
0.0
 10
-576.7326405659
 20
153.0124624114
 30
0.0
 10
-576.9616126271
 20
153.7516545352
 30
0.0
 10
-577.3334552709
 20
154.4332476007
 30
0.0
 10
-577.8339590296
 20
155.0306866692
 30
0.0
 10
-578.4439066544
 20
155.521141656
 30
0.0
 10
-579.1400341786
 20
155.8856687159
 30
0.0
 10
-579.895212471
 20
156.1101952572
 30
0.0
 10
-580.4194472377
 20
156.1607278529
 30
0.0
 10
-580.6810918589
 20
156.1607277359
 30
0.0
  0
SPLINE
  5
65A
100
AcDbEntity
  8
0
100
AcDbSpline
 62
9
  6
CONTINUOUS
 70
0
 71
3
 72
17
 73
13
 74
0
 42
0.0000001
 43
0.0000001
 44
0.0000000001
 40
0.0
 40
0.0
 40
0.0
 40
0.0
 40
0.3741274899
 40
0.5434854774
 40
0.6923963745
 40
0.7574468983
 40
0.815435432
 40
0.8658755442
 40
0.9083893822
 40
0.9427567087
 40
0.9689983507
 40
1.0
 40
1.0
 40
1.0
 40
1.0
 10
-580.6810918589
 20
189.4165812821
 30
0.0
 10
-580.1704662868
 20
189.4165865077
 30
0.0
 10
-579.4283989004
 20
189.3983593794
 30
0.0
 10
-578.4855768503
 20
189.3323514129
 30
0.0
 10
-577.9651605472
 20
189.2770827026
 30
0.0
 10
-577.5977679526
 20
189.223763318
 30
0.0
 10
-577.3646158723
 20
189.1826711387
 30
0.0
 10
-577.1630137048
 20
189.138875876
 30
0.0
 10
-576.9957831766
 20
189.0937430339
 30
0.0
 10
-576.8613763271
 20
189.0454956642
 30
0.0
 10
-576.7532110465
 20
188.9938331342
 30
0.0
 10
-576.6811011261
 20
188.9314211614
 30
0.0
 10
-576.6810918589
 20
188.8891087546
 30
0.0
  0
SPLINE
  5
65B
100
AcDbEntity
  8
0
100
AcDbSpline
 62
9
  6
CONTINUOUS
 70
0
 71
3
 72
15
 73
11
 74
0
 42
0.0000001
 43
0.0000001
 44
0.0000000001
 40
0.0
 40
0.0
 40
0.0
 40
0.0
 40
0.1264284987
 40
0.2526386568
 40
0.378445447
 40
0.5037258607
 40
0.6284362738
 40
0.7526238955
 40
0.8764143201
 40
1.0
 40
1.0
 40
1.0
 40
1.0
 10
-580.6810918589
 20
237.6174897734
 30
0.0
 10
-580.4194469378
 20
237.6174896508
 30
0.0
 10
-579.8952116441
 20
237.6680223488
 30
0.0
 10
-579.1400328282
 20
237.8925492691
 30
0.0
 10
-578.4439050936
 20
238.2570767909
 30
0.0
 10
-577.8339574413
 20
238.7475322029
 30
0.0
 10
-577.3334540815
 20
239.3449717177
 30
0.0
 10
-576.9616121693
 20
240.0265645817
 30
0.0
 10
-576.7326396361
 20
240.7657560494
 30
0.0
 10
-576.6810927883
 20
241.2791755452
 30
0.0
 10
-576.6810918589
 20
241.5349372272
 30
0.0
  0
SPLINE
  5
65C
100
AcDbEntity
  8
0
100
AcDbSpline
 62
9
  6
CONTINUOUS
 70
0
 71
3
 72
19
 73
15
 74
0
 42
0.0000001
 43
0.0000001
 44
0.0000000001
 40
0.0
 40
0.0
 40
0.0
 40
0.0
 40
0.0091889145
 40
0.0161570263
 40
0.0251457512
 40
0.0495863899
 40
0.0827986511
 40
0.1246579078
 40
0.1748326683
 40
0.2983065553
 40
0.4486739301
 40
0.6202244766
 40
0.8063855634
 40
1.0
 40
1.0
 40
1.0
 40
1.0
 10
-642.8571093755
 20
107.1292205684
 30
0.0
 10
-642.8630832235
 20
107.1317660882
 30
0.0
 10
-642.8759396205
 20
107.1279373054
 30
0.0
 10
-642.8895888245
 20
107.1171204408
 30
0.0
 10
-642.9097967684
 20
107.0966204608
 30
0.0
 10
-642.9373761778
 20
107.0583683353
 30
0.0
 10
-642.973983533
 20
106.9982663084
 30
0.0
 10
-643.0158201574
 20
106.9202382951
 30
0.0
 10
-643.0830334389
 20
106.7835554875
 30
0.0
 10
-643.1756643646
 20
106.5740688729
 30
0.0
 10
-643.2940578021
 20
106.2824111882
 30
0.0
 10
-643.4212717215
 20
105.9466241616
 30
0.0
 10
-643.5523536307
 20
105.5797093568
 30
0.0
 10
-643.6383278652
 20
105.3254590876
 30
0.0
 10
-643.6810918589
 20
105.1954912749
 30
0.0
  0
SPLINE
  5
65D
100
AcDbEntity
  8
0
100
AcDbSpline
 62
9
  6
CONTINUOUS
 70
0
 71
3
 72
15
 73
11
 74
0
 42
0.0000001
 43
0.0000001
 44
0.0000000001
 40
0.0
 40
0.0
 40
0.0
 40
0.0
 40
0.0320784689
 40
0.0574739942
 40
0.0900243171
 40
0.1770538395
 40
0.2928471668
 40
0.4357274718
 40
0.6032469669
 40
1.0
 40
1.0
 40
1.0
 40
1.0
 10
-644.5104430573
 20
108.8917262824
 30
0.0
 10
-644.5051829303
 20
108.8768044775
 30
0.0
 10
-644.5168802909
 20
108.8462254346
 30
0.0
 10
-644.5415318471
 20
108.810712563
 30
0.0
 10
-644.5889946649
 20
108.7563413381
 30
0.0
 10
-644.675183411
 20
108.6787165741
 30
0.0
 10
-644.809526276
 20
108.5734026091
 30
0.0
 10
-644.9810006454
 20
108.4517848444
 30
0.0
 10
-645.2719809101
 20
108.2593807156
 30
0.0
 10
-645.5100605062
 20
108.115030457
 30
0.0
 10
-645.6789132957
 20
108.0161254084
 30
0.0
  0
SPLINE
  5
65E
100
AcDbEntity
  8
0
100
AcDbSpline
 62
9
  6
CONTINUOUS
 70
0
 71
3
 72
13
 73
9
 74
0
 42
0.0000001
 43
0.0000001
 44
0.0000000001
 40
0.0
 40
0.0
 40
0.0
 40
0.0
 40
0.1335070143
 40
0.2277281042
 40
0.3429602198
 40
0.4791619809
 40
0.6352712052
 40
1.0
 40
1.0
 40
1.0
 40
1.0
 10
-644.6810918589
 20
109.8891087546
 30
0.0
 10
-644.6810918589
 20
109.8207480685
 30
0.0
 10
-644.7481832131
 20
109.710040175
 30
0.0
 10
-644.8769100967
 20
109.5938005249
 30
0.0
 10
-645.0235252772
 20
109.4925157631
 30
0.0
 10
-645.2061435182
 20
109.3916034201
 30
0.0
 10
-645.5117234429
 20
109.250134313
 30
0.0
 10
-645.7631422412
 20
109.1596236839
 30
0.0
 10
-645.9409589005
 20
109.1025387588
 30
0.0
  0
LINE
  5
65F
100
AcDbEntity
  8
0
100
AcDbLine
 62
9
  6
CONTINUOUS
 10
-579.6810918589
 20
288.8891087546
 11
-641.6810918589
 21
288.889133251
  0
SPLINE
  5
660
100
AcDbEntity
  8
0
100
AcDbSpline
 62
9
  6
CONTINUOUS
 70
0
 71
3
 72
13
 73
9
 74
0
 42
0.0000001
 43
0.0000001
 44
0.0000000001
 40
0.0
 40
0.0
 40
0.0
 40
0.0
 40
0.2966487855
 40
0.5661206922
 40
0.6869145523
 40
0.7980339794
 40
0.9012638156
 40
1.0
 40
1.0
 40
1.0
 40
1.0
 10
-641.8233927353
 20
189.1399122516
 30
0.0
 10
-641.803836704
 20
189.5012845735
 30
0.0
 10
-641.6866460808
 20
190.1893423326
 30
0.0
 10
-641.3317417847
 20
190.9641039042
 30
0.0
 10
-640.9379806136
 20
191.436713623
 30
0.0
 10
-640.6147356205
 20
191.6927531092
 30
0.0
 10
-640.2631942908
 20
191.8524856586
 30
0.0
 10
-640.0154845788
 20
191.8891087547
 30
0.0
 10
-639.8950299073
 20
191.8891087548
 30
0.0
  0
SPLINE
  5
661
100
AcDbEntity
  8
0
100
AcDbSpline
 62
9
  6
CONTINUOUS
 70
0
 71
3
 72
9
 73
5
 74
0
 42
0.0000001
 43
0.0000001
 44
0.0000000001
 40
0.0
 40
0.0
 40
0.0
 40
0.0
 40
0.500072959
 40
1.0
 40
1.0
 40
1.0
 40
1.0
 10
-641.6810918589
 20
288.889133251
 30
0.0
 10
-642.0194479205
 20
288.8891331244
 30
0.0
 10
-642.6971482819
 20
288.8432258919
 30
0.0
 10
-643.359998337
 20
288.6891072548
 30
0.0
 10
-643.6810918589
 20
288.5827259947
 30
0.0
  0
SPLINE
  5
662
100
AcDbEntity
  8
0
100
AcDbSpline
 62
9
  6
CONTINUOUS
 70
0
 71
3
 72
15
 73
11
 74
0
 42
0.0000001
 43
0.0000001
 44
0.0000000001
 40
0.0
 40
0.0
 40
0.0
 40
0.0
 40
0.0314452609
 40
0.0566793922
 40
0.0891336618
 40
0.1761052156
 40
0.2919615575
 40
0.43499023
 40
0.6027193643
 40
1.0
 40
1.0
 40
1.0
 40
1.0
 10
-644.5104430302
 20
284.8864913038
 30
0.0
 10
-644.5052905932
 20
284.901107615
 30
0.0
 10
-644.517472621
 20
284.9311516779
 30
0.0
 10
-644.5421110346
 20
284.9659989021
 30
0.0
 10
-644.5898248704
 20
285.0199164444
 30
0.0
 10
-644.6761162171
 20
285.097159044
 30
0.0
 10
-644.8105051509
 20
285.2023487696
 30
0.0
 10
-644.9819043338
 20
285.3241415901
 30
0.0
 10
-645.2726398998
 20
285.5172329321
 30
0.0
 10
-645.510352325
 20
285.6624668683
 30
0.0
 10
-645.6789131487
 20
285.7620921008
 30
0.0
  0
SPLINE
  5
663
100
AcDbEntity
  8
0
100
AcDbSpline
 62
9
  6
CONTINUOUS
 70
0
 71
3
 72
13
 73
9
 74
0
 42
0.0000001
 43
0.0000001
 44
0.0000000001
 40
0.0
 40
0.0
 40
0.0
 40
0.0
 40
0.2907347026
 40
0.5612889992
 40
0.6844884193
 40
0.7982183271
 40
0.9028324914
 40
1.0
 40
1.0
 40
1.0
 40
1.0
 10
-646.1810918591
 20
188.8891087546
 30
0.0
 10
-646.1810918591
 20
189.2298734442
 30
0.0
 10
-646.1118958943
 20
189.8897016931
 30
0.0
 10
-645.8494459601
 20
190.6577648492
 30
0.0
 10
-645.5397051805
 20
191.1681160803
 30
0.0
 10
-645.2769567201
 20
191.4730676581
 30
0.0
 10
-644.9837114126
 20
191.7026335311
 30
0.0
 10
-644.7662393886
 20
191.8027788085
 30
0.0
 10
-644.6573073013
 20
191.8360102024
 30
0.0
  0
SPLINE
  5
664
100
AcDbEntity
  8
0
100
AcDbSpline
 62
9
  6
CONTINUOUS
 70
0
 71
3
 72
9
 73
5
 74
0
 42
0.0000001
 43
0.0000001
 44
0.0000000001
 40
0.0
 40
0.0
 40
0.0
 40
0.0
 40
0.2529322867
 40
1.0
 40
1.0
 40
1.0
 40
1.0
 10
-644.6316821698
 20
191.8435320199
 30
0.0
 10
-644.6049572053
 20
191.8510691585
 30
0.0
 10
-644.49834372
 20
191.8773620625
 30
0.0
 10
-644.3881066064
 20
191.8891087546
 30
0.0
 10
-644.3060918591
 20
191.8891087546
 30
0.0
  0
SPLINE
  5
665
100
AcDbEntity
  8
0
100
AcDbSpline
 62
9
  6
CONTINUOUS
 70
0
 71
3
 72
19
 73
15
 74
0
 42
0.0000001
 43
0.0000001
 44
0.0000000001
 40
0.0
 40
0.0
 40
0.0
 40
0.0
 40
0.0090305996
 40
0.0159561434
 40
0.0249171024
 40
0.0493289352
 40
0.0825321479
 40
0.1243939994
 40
0.1745789897
 40
0.2980882706
 40
0.4485028555
 40
0.6201073757
 40
0.8063261773
 40
1.0
 40
1.0
 40
1.0
 40
1.0
 10
-642.8571094263
 20
286.6489969192
 30
0.0
 10
-642.8629782811
 20
286.6464961381
 30
0.0
 10
-642.8756598145
 20
286.6505037851
 30
0.0
 10
-642.889038475
 20
286.6613459279
 30
0.0
 10
-642.9090297418
 20
286.68195956
 30
0.0
 10
-642.9363557703
 20
286.7202958813
 30
0.0
 10
-642.9727358177
 20
286.7804818089
 30
0.0
 10
-643.0143880449
 20
286.8585721634
 30
0.0
 10
-643.0814147216
 20
286.9953246453
 30
0.0
 10
-643.1739685535
 20
287.2048240291
 30
0.0
 10
-643.2924777162
 20
287.49641802
 30
0.0
 10
-643.4200160043
 20
287.8320649882
 30
0.0
 10
-643.5516214395
 20
288.1987738569
 30
0.0
 10
-643.63806309
 20
288.452852236
 30
0.0
 10
-643.6810918589
 20
288.5827259947
 30
0.0
  0
SPLINE
  5
666
100
AcDbEntity
  8
0
100
AcDbSpline
 62
9
  6
CONTINUOUS
 70
0
 71
3
 72
13
 73
9
 74
0
 42
0.0000001
 43
0.0000001
 44
0.0000000001
 40
0.0
 40
0.0
 40
0.0
 40
0.0
 40
0.2907347026
 40
0.5612889991
 40
0.6844884193
 40
0.7982183271
 40
0.9028324914
 40
1.0
 40
1.0
 40
1.0
 40
1.0
 10
-646.1810918586
 20
204.8891087546
 30
0.0
 10
-646.1810918586
 20
204.5483440651
 30
0.0
 10
-646.1118958946
 20
203.8885158163
 30
0.0
 10
-645.8494459602
 20
203.1204526603
 30
0.0
 10
-645.5397051806
 20
202.6101014292
 30
0.0
 10
-645.2769567202
 20
202.3051498513
 30
0.0
 10
-644.9837114129
 20
202.0755839784
 30
0.0
 10
-644.7662393889
 20
201.9754387009
 30
0.0
 10
-644.6573073015
 20
201.942207307
 30
0.0
  0
SPLINE
  5
667
100
AcDbEntity
  8
0
100
AcDbSpline
 62
9
  6
CONTINUOUS
 70
0
 71
3
 72
9
 73
5
 74
0
 42
0.0000001
 43
0.0000001
 44
0.0000000001
 40
0.0
 40
0.0
 40
0.0
 40
0.0
 40
0.2529322865
 40
1.0
 40
1.0
 40
1.0
 40
1.0
 10
-644.6316821618
 20
201.9346854871
 30
0.0
 10
-644.6049571979
 20
201.9271483489
 30
0.0
 10
-644.4983437152
 20
201.9008554461
 30
0.0
 10
-644.3881066042
 20
201.8891087546
 30
0.0
 10
-644.3060918589
 20
201.8891087546
 30
0.0
  0
SPLINE
  5
668
100
AcDbEntity
  8
0
100
AcDbSpline
 62
9
  6
CONTINUOUS
 70
0
 71
3
 72
9
 73
5
 74
0
 42
0.0000001
 43
0.0000001
 44
0.0000000001
 40
0.0
 40
0.0
 40
0.0
 40
0.0
 40
0.5003743843
 40
1.0
 40
1.0
 40
1.0
 40
1.0
 10
-579.6322312263
 20
242.0741741267
 30
0.0
 10
-579.6461657639
 20
242.1104816055
 30
0.0
 10
-579.6710593725
 20
242.1843649186
 30
0.0
 10
-579.681091844
 20
242.2622801252
 30
0.0
 10
-579.6810918589
 20
242.3011115733
 30
0.0
  0
SPLINE
  5
669
100
AcDbEntity
  8
0
100
AcDbSpline
 62
9
  6
CONTINUOUS
 70
0
 71
3
 72
13
 73
9
 74
0
 42
0.0000001
 43
0.0000001
 44
0.0000000001
 40
0.0
 40
0.0
 40
0.0
 40
0.0
 40
0.2966487467
 40
0.5661206587
 40
0.6869145348
 40
0.7980339789
 40
0.901263824
 40
1.0
 40
1.0
 40
1.0
 40
1.0
 10
-641.8233905808
 20
204.6383055379
 30
0.0
 10
-641.8038345847
 20
204.2769334324
 30
0.0
 10
-641.686644137
 20
203.5888760328
 30
0.0
 10
-641.3317403535
 20
202.8141147256
 30
0.0
 10
-640.9379796805
 20
202.3415049185
 30
0.0
 10
-640.6147350451
 20
202.0854652227
 30
0.0
 10
-640.2631940552
 20
201.9257323309
 30
0.0
 10
-640.0154845118
 20
201.8891089182
 30
0.0
 10
-639.8950299073
 20
201.8891087546
 30
0.0
  0
SPLINE
  5
66A
100
AcDbEntity
  8
0
100
AcDbSpline
 62
9
  6
CONTINUOUS
 70
0
 71
3
 72
13
 73
9
 74
0
 42
0.0000001
 43
0.0000001
 44
0.0000000001
 40
0.0
 40
0.0
 40
0.0
 40
0.0
 40
0.2962097236
 40
0.5645084469
 40
0.6850584478
 40
0.7963874562
 40
0.9002904222
 40
1.0
 40
1.0
 40
1.0
 40
1.0
 10
-610.0811687922
 20
204.4951693048
 30
0.0
 10
-610.0513933284
 20
204.1484892145
 30
0.0
 10
-609.9199273625
 20
203.4915517094
 30
0.0
 10
-609.5591876539
 20
202.7572350475
 30
0.0
 10
-609.1699039161
 20
202.3127997146
 30
0.0
 10
-608.8529432756
 20
202.0726114955
 30
0.0
 10
-608.5103171246
 20
201.9232520483
 30
0.0
 10
-608.2699344213
 20
201.8891087541
 30
0.0
 10
-608.1528059682
 20
201.8891087535
 30
0.0
  0
SPLINE
  5
66B
100
AcDbEntity
  8
0
100
AcDbSpline
 62
9
  6
CONTINUOUS
 70
0
 71
3
 72
15
 73
11
 74
0
 42
0.0000001
 43
0.0000001
 44
0.0000000001
 40
0.0
 40
0.0
 40
0.0
 40
0.0
 40
0.1249672828
 40
0.2499407843
 40
0.37492496
 40
0.4999450453
 40
0.6249539373
 40
0.7499658132
 40
0.8749938596
 40
1.0
 40
1.0
 40
1.0
 40
1.0
 10
-580.6810918589
 20
240.4924343159
 30
0.0
 10
-580.5885851993
 20
240.4924347088
 30
0.0
 10
-580.4027158299
 20
240.5163635699
 30
0.0
 10
-580.1426083229
 20
240.6210483717
 30
0.0
 10
-579.9164625487
 20
240.7867872476
 30
0.0
 10
-579.7363917917
 20
241.0016536204
 30
0.0
 10
-579.6133652365
 20
241.2533683661
 30
0.0
 10
-579.5501521009
 20
241.5262442332
 30
0.0
 10
-579.5528381861
 20
241.8064477393
 30
0.0
 10
-579.5990939924
 20
241.9877754671
 30
0.0
 10
-579.6322312263
 20
242.0741741267
 30
0.0
  0
SPLINE
  5
66C
100
AcDbEntity
  8
0
100
AcDbSpline
 62
9
  6
CONTINUOUS
 70
0
 71
3
 72
11
 73
7
 74
0
 42
0.0000001
 43
0.0000001
 44
0.0000000001
 40
0.0
 40
0.0
 40
0.0
 40
0.0
 40
0.2502221255
 40
0.5003438214
 40
0.7502849025
 40
1.0
 40
1.0
 40
1.0
 40
1.0
 10
-604.9388679198
 20
156.1607277359
 30
0.0
 10
-605.4046820001
 20
156.1607275493
 30
0.0
 10
-606.3381897114
 20
156.0782816168
 30
0.0
 10
-607.6930852886
 20
155.7113292552
 30
0.0
 10
-608.962167881
 20
155.1137915599
 30
0.0
 10
-609.726307116
 20
154.5737033227
 30
0.0
 10
-610.0811687973
 20
154.2734076583
 30
0.0
  0
SPLINE
  5
66D
100
AcDbEntity
  8
0
100
AcDbSpline
 62
9
  6
CONTINUOUS
 70
0
 71
3
 72
9
 73
5
 74
0
 42
0.0000001
 43
0.0000001
 44
0.0000000001
 40
0.0
 40
0.0
 40
0.0
 40
0.0
 40
0.4678041939
 40
1.0
 40
1.0
 40
1.0
 40
1.0
 10
-610.0811687973
 20
189.2830482056
 30
0.0
 10
-609.2803197581
 20
189.3297973706
 30
0.0
 10
-607.5663940247
 20
189.3954253938
 30
0.0
 10
-605.8515020054
 20
189.4165841854
 30
0.0
 10
-604.9388679198
 20
189.4165812821
 30
0.0
  0
SPLINE
  5
66E
100
AcDbEntity
  8
0
100
AcDbSpline
 62
9
  6
CONTINUOUS
 70
0
 71
3
 72
11
 73
7
 74
0
 42
0.0000001
 43
0.0000001
 44
0.0000000001
 40
0.0
 40
0.0
 40
0.0
 40
0.0
 40
0.2497151649
 40
0.4996562505
 40
0.7497779282
 40
1.0
 40
1.0
 40
1.0
 40
1.0
 10
-610.0811687973
 20
239.5048098392
 30
0.0
 10
-609.7263046294
 20
239.2045169151
 30
0.0
 10
-608.9621689151
 20
238.6644242321
 30
0.0
 10
-607.6930845917
 20
238.0668886384
 30
0.0
 10
-606.3381896031
 20
237.6999355516
 30
0.0
 10
-605.4046819027
 20
237.6174900027
 30
0.0
 10
-604.9388679198
 20
237.6174897734
 30
0.0
  0
SPLINE
  5
66F
100
AcDbEntity
  8
0
100
AcDbSpline
 62
9
  6
CONTINUOUS
 70
0
 71
3
 72
9
 73
5
 74
0
 42
0.0000001
 43
0.0000001
 44
0.0000000001
 40
0.0
 40
0.0
 40
0.0
 40
0.0
 40
0.5321958061
 40
1.0
 40
1.0
 40
1.0
 40
1.0
 10
-604.9388679198
 20
204.3616362272
 30
0.0
 10
-605.8515020054
 20
204.3616333237
 30
0.0
 10
-607.5663940245
 20
204.3827921203
 30
0.0
 10
-609.2803197586
 20
204.4484201306
 30
0.0
 10
-610.0811687973
 20
204.4951693037
 30
0.0
  0
SPLINE
  5
670
100
AcDbEntity
  8
0
100
AcDbSpline
 62
9
  6
CONTINUOUS
 70
0
 71
3
 72
11
 73
7
 74
0
 42
0.0000001
 43
0.0000001
 44
0.0000000001
 40
0.0
 40
0.0
 40
0.0
 40
0.0
 40
0.2499922568
 40
0.4999916916
 40
0.7499953028
 40
1.0
 40
1.0
 40
1.0
 40
1.0
 10
-640.104310879
 20
124.5619596687
 30
0.0
 10
-640.3640446276
 20
124.3151601112
 30
0.0
 10
-640.8320021549
 20
123.7640453092
 30
0.0
 10
-641.343513275
 20
122.8099138347
 30
0.0
 10
-641.6449363644
 20
121.7701822321
 30
0.0
 10
-641.6973143548
 20
121.0492699502
 30
0.0
 10
-641.6857127622
 20
120.6911501079
 30
0.0
  0
SPLINE
  5
671
100
AcDbEntity
  8
0
100
AcDbSpline
 62
9
  6
CONTINUOUS
 70
0
 71
3
 72
9
 73
5
 74
0
 42
0.0000001
 43
0.0000001
 44
0.0000000001
 40
0.0
 40
0.0
 40
0.0
 40
0.0
 40
0.4999371973
 40
1.0
 40
1.0
 40
1.0
 40
1.0
 10
-643.6810918589
 20
105.1954912749
 30
0.0
 10
-643.3597874692
 20
105.0897715659
 30
0.0
 10
-642.697090471
 20
104.9357030131
 30
0.0
 10
-642.0194269972
 20
104.8890843844
 30
0.0
 10
-641.6810918589
 20
104.8890842544
 30
0.0
  0
LINE
  5
672
100
AcDbEntity
  8
0
100
AcDbLine
 62
9
  6
CONTINUOUS
 10
-641.6810918589
 20
104.8890842544
 11
-579.6810918589
 21
104.8891087546
  0
SPLINE
  5
673
100
AcDbEntity
  8
0
100
AcDbSpline
 62
9
  6
CONTINUOUS
 70
0
 71
3
 72
10
 73
6
 74
0
 42
0.0000001
 43
0.0000001
 44
0.0000000001
 40
0.0
 40
0.0
 40
0.0
 40
0.0
 40
0.2499999497
 40
0.5000000093
 40
1.0
 40
1.0
 40
1.0
 40
1.0
 10
-608.4706070322
 20
151.7889804804
 30
0.0
 10
-611.0734450368
 20
149.5160025454
 30
0.0
 10
-616.2919474355
 20
144.9847263589
 30
0.0
 10
-626.7629502257
 20
135.9615490252
 30
0.0
 10
-634.6425016008
 20
129.2247637372
 30
0.0
 10
-639.9016360107
 20
124.7407588094
 30
0.0
  0
SPLINE
  5
674
100
AcDbEntity
  8
0
100
AcDbSpline
 62
9
  6
CONTINUOUS
 70
0
 71
3
 72
11
 73
7
 74
0
 42
0.0000001
 43
0.0000001
 44
0.0000000001
 40
0.0
 40
0.0
 40
0.0
 40
0.0
 40
0.249986353
 40
0.4999790986
 40
0.7499828792
 40
1.0
 40
1.0
 40
1.0
 40
1.0
 10
-604.9388679198
 20
153.2857831934
 30
0.0
 10
-605.2444736067
 20
153.2857833032
 30
0.0
 10
-605.8572683504
 20
153.2272672731
 30
0.0
 10
-606.7421287541
 20
152.9678285863
 30
0.0
 10
-607.5631777815
 20
152.5483600503
 30
0.0
 10
-608.0506062566
 20
152.1729411917
 30
0.0
 10
-608.274992774
 20
151.9654116328
 30
0.0
  0
SPLINE
  5
675
100
AcDbEntity
  8
0
100
AcDbSpline
 62
9
  6
CONTINUOUS
 70
0
 71
3
 72
18
 73
14
 74
0
 42
0.0000001
 43
0.0000001
 44
0.0000000001
 40
0.0
 40
0.0
 40
0.0
 40
0.0
 40
0.2211891953
 40
0.4185471354
 40
0.5897315298
 40
0.732782403
 40
0.8460628906
 40
0.9283603823
 40
0.957663703
 40
0.9790629538
 40
0.9868557248
 40
0.9927982091
 40
1.0
 40
1.0
 40
1.0
 40
1.0
 10
-641.8233927364
 20
204.6383052575
 30
0.0
 10
-642.0357548462
 20
204.6459801281
 30
0.0
 10
-642.4375491099
 20
204.6619453624
 30
0.0
 10
-643.0034526229
 20
204.689559098
 30
0.0
 10
-643.4940695267
 20
204.7191497569
 30
0.0
 10
-643.9036582359
 20
204.7500324293
 30
0.0
 10
-644.227438245
 20
204.7819985944
 30
0.0
 10
-644.4417032387
 20
204.8103571922
 30
0.0
 10
-644.5671453936
 20
204.8354402023
 30
0.0
 10
-644.6213668369
 20
204.8498343514
 30
0.0
 10
-644.653043779
 20
204.8625744805
 30
0.0
 10
-644.6702101682
 20
204.8716557764
 30
0.0
 10
-644.68108903
 20
204.882189855
 30
0.0
 10
-644.6810918589
 20
204.8891087546
 30
0.0
  0
SPLINE
  5
676
100
AcDbEntity
  8
0
100
AcDbSpline
 62
9
  6
CONTINUOUS
 70
0
 71
3
 72
11
 73
7
 74
0
 42
0.0000001
 43
0.0000001
 44
0.0000000001
 40
0.0
 40
0.0
 40
0.0
 40
0.0
 40
0.2499269918
 40
0.4998808692
 40
0.7498962803
 40
1.0
 40
1.0
 40
1.0
 40
1.0
 10
-644.6552732185
 20
272.2760496278
 30
0.0
 10
-644.6147826356
 20
271.7714413944
 30
0.0
 10
-644.4379432307
 20
270.7672761676
 30
0.0
 10
-643.8948451085
 20
269.3393911561
 30
0.0
 10
-643.0929773992
 20
268.0386188362
 30
0.0
 10
-642.4033484678
 20
267.2868249847
 30
0.0
 10
-642.0270688896
 20
266.947641865
 30
0.0
  0
SPLINE
  5
677
100
AcDbEntity
  8
0
100
AcDbSpline
 62
9
  6
CONTINUOUS
 70
0
 71
3
 72
18
 73
14
 74
0
 42
0.0000001
 43
0.0000001
 44
0.0000000001
 40
0.0
 40
0.0
 40
0.0
 40
0.0
 40
0.0072017908
 40
0.0131442752
 40
0.0209370462
 40
0.042336297
 40
0.0716396177
 40
0.1539371094
 40
0.267217597
 40
0.4102684702
 40
0.5814528646
 40
0.7788108047
 40
1.0
 40
1.0
 40
1.0
 40
1.0
 10
-644.6810918589
 20
188.8891087546
 30
0.0
 10
-644.68108903
 20
188.8960276543
 30
0.0
 10
-644.6702101682
 20
188.9065617328
 30
0.0
 10
-644.653043779
 20
188.9156430288
 30
0.0
 10
-644.6213668369
 20
188.9283831579
 30
0.0
 10
-644.5671453936
 20
188.942777307
 30
0.0
 10
-644.4417032386
 20
188.967860317
 30
0.0
 10
-644.227438245
 20
188.996218915
 30
0.0
 10
-643.9036582359
 20
189.0281850799
 30
0.0
 10
-643.4940695267
 20
189.0590677524
 30
0.0
 10
-643.0034526229
 20
189.0886584115
 30
0.0
 10
-642.4375491099
 20
189.1162721463
 30
0.0
 10
-642.0357548462
 20
189.1322373817
 30
0.0
 10
-641.8233927364
 20
189.1399122518
 30
0.0
  0
SPLINE
  5
678
100
AcDbEntity
  8
0
100
AcDbSpline
 62
9
  6
CONTINUOUS
 70
0
 71
3
 72
11
 73
7
 74
0
 42
0.0000001
 43
0.0000001
 44
0.0000000001
 40
0.0
 40
0.0
 40
0.0
 40
0.0
 40
0.2501037163
 40
0.5001191153
 40
0.7500729848
 40
1.0
 40
1.0
 40
1.0
 40
1.0
 10
-642.0270688896
 20
126.8305756442
 30
0.0
 10
-642.403401196
 20
126.4913449383
 30
0.0
 10
-643.0931181968
 20
125.7394350632
 30
0.0
 10
-643.8950475821
 20
124.4384461947
 30
0.0
 10
-644.4381277855
 20
123.0103225603
 30
0.0
 10
-644.6148990231
 20
122.0059980959
 30
0.0
 10
-644.6553416226
 20
121.5013147564
 30
0.0
  0
SPLINE
  5
679
100
AcDbEntity
  8
0
100
AcDbSpline
 62
9
  6
CONTINUOUS
 70
0
 71
3
 72
15
 73
11
 74
0
 42
0.0000001
 43
0.0000001
 44
0.0000000001
 40
0.0
 40
0.0
 40
0.0
 40
0.0
 40
0.125006382
 40
0.2500346131
 40
0.3750465783
 40
0.5000554918
 40
0.6250754523
 40
0.7500595886
 40
0.875032936
 40
1.0
 40
1.0
 40
1.0
 40
1.0
 10
-579.6322312263
 20
151.7040433826
 30
0.0
 10
-579.5990594332
 20
151.790428956
 30
0.0
 10
-579.5528526629
 20
151.9717762942
 30
0.0
 10
-579.5501507661
 20
152.2519721446
 30
0.0
 10
-579.6133647692
 20
152.5248512983
 30
0.0
 10
-579.7363935975
 20
152.7765638868
 30
0.0
 10
-579.9164632558
 20
152.9914310414
 30
0.0
 10
-580.1426091481
 20
153.1571694159
 30
0.0
 10
-580.4027162911
 20
153.2618540847
 30
0.0
 10
-580.5885853752
 20
153.2857827656
 30
0.0
 10
-580.6810918589
 20
153.2857831934
 30
0.0
  0
SPLINE
  5
67A
100
AcDbEntity
  8
0
100
AcDbSpline
 62
9
  6
CONTINUOUS
 70
0
 71
3
 72
9
 73
5
 74
0
 42
0.0000001
 43
0.0000001
 44
0.0000000001
 40
0.0
 40
0.0
 40
0.0
 40
0.0
 40
0.4996362299
 40
1.0
 40
1.0
 40
1.0
 40
1.0
 10
-579.6810918589
 20
151.477105936
 30
0.0
 10
-579.6810923721
 20
151.5159380784
 30
0.0
 10
-579.6710552387
 20
151.5938533825
 30
0.0
 10
-579.6461564951
 20
151.6677333716
 30
0.0
 10
-579.6322312263
 20
151.7040433826
 30
0.0
  0
SPLINE
  5
67B
100
AcDbEntity
  8
0
100
AcDbSpline
 62
9
  6
CONTINUOUS
 70
0
 71
3
 72
13
 73
9
 74
0
 42
0.0000001
 43
0.0000001
 44
0.0000000001
 40
0.0
 40
0.0
 40
0.0
 40
0.0
 40
0.2962096918
 40
0.564508425
 40
0.685058441
 40
0.7963874635
 40
0.9002904343
 40
1.0
 40
1.0
 40
1.0
 40
1.0
 10
-610.0811667662
 20
189.2830477906
 30
0.0
 10
-610.0513913457
 20
189.6297276979
 30
0.0
 10
-609.9199255566
 20
190.2866649069
 30
0.0
 10
-609.5591863343
 20
191.0209813779
 30
0.0
 10
-609.1699030548
 20
191.4654168286
 30
0.0
 10
-608.8529427434
 20
191.7056052572
 30
0.0
 10
-608.5103169041
 20
191.854965026
 30
0.0
 10
-608.2699343571
 20
191.889108607
 30
0.0
 10
-608.1528059682
 20
191.8891087546
 30
0.0
  0
SPLINE
  5
67C
100
AcDbEntity
  8
0
100
AcDbSpline
 62
9
  6
CONTINUOUS
 70
0
 71
3
 72
11
 73
7
 74
0
 42
0.0000001
 43
0.0000001
 44
0.0000000001
 40
0.0
 40
0.0
 40
0.0
 40
0.0
 40
0.2500171163
 40
0.5000209104
 40
0.750013656
 40
1.0
 40
1.0
 40
1.0
 40
1.0
 10
-608.2749897786
 20
241.8128035319
 30
0.0
 10
-608.0506052737
 20
241.6052722649
 30
0.0
 10
-607.5631754968
 20
241.229855328
 30
0.0
 10
-606.7421267351
 20
240.8103891338
 30
0.0
 10
-605.8572674405
 20
240.5509499802
 30
0.0
 10
-605.2444732837
 20
240.4924342102
 30
0.0
 10
-604.9388679198
 20
240.4924343159
 30
0.0
  0
SPLINE
  5
67D
100
AcDbEntity
  8
0
100
AcDbSpline
 62
9
  6
CONTINUOUS
 70
0
 71
3
 72
10
 73
6
 74
0
 42
0.0000001
 43
0.0000001
 44
0.0000000001
 40
0.0
 40
0.0
 40
0.0
 40
0.0
 40
0.4999999908
 40
0.7500000501
 40
1.0
 40
1.0
 40
1.0
 40
1.0
 10
-639.9016360366
 20
269.0374587218
 30
0.0
 10
-634.6425018359
 20
264.5534535376
 30
0.0
 10
-626.7629501971
 20
257.8166685492
 30
0.0
 10
-616.2919474483
 20
248.7934911495
 30
0.0
 10
-611.0734450265
 20
244.2622149835
 30
0.0
 10
-608.4706070322
 20
241.9892370289
 30
0.0
  0
SPLINE
  5
67E
100
AcDbEntity
  8
0
100
AcDbSpline
 62
7
  6
CONTINUOUS
 70
0
 71
3
 72
9
 73
5
 74
0
 42
0.0000001
 43
0.0000001
 44
0.0000000001
 40
0.0
 40
0.0
 40
0.0
 40
0.0
 40
0.5195077532
 40
1.0
 40
1.0
 40
1.0
 40
1.0
 10
-907.8057073943
 20
67.9466441179
 30
0.0
 10
-908.2150528448
 20
69.463333064
 30
0.0
 10
-908.8859547514
 20
72.4166327676
 30
0.0
 10
-909.1809651065
 20
75.4413096244
 30
0.0
 10
-909.1810918589
 20
76.8942872452
 30
0.0
  0
SPLINE
  5
67F
100
AcDbEntity
  8
0
100
AcDbSpline
 62
7
  6
CONTINUOUS
 70
0
 71
3
 72
10
 73
6
 74
0
 42
0.0000001
 43
0.0000001
 44
0.0000000001
 40
0.0
 40
0.0
 40
0.0
 40
0.0
 40
0.4994613513
 40
0.7497499924
 40
1.0
 40
1.0
 40
1.0
 40
1.0
 10
-909.1810918589
 20
398.9074993189
 30
0.0
 10
-909.1810918589
 20
402.9616748831
 30
0.0
 10
-908.3568668754
 20
409.1038790982
 30
0.0
 10
-905.4593152377
 20
416.7129896795
 30
0.0
 10
-903.3884160808
 20
420.2387467984
 30
0.0
 10
-902.2041448682
 20
421.8891087546
 30
0.0
  0
SPLINE
  5
680
100
AcDbEntity
  8
0
100
AcDbSpline
 62
9
  6
CONTINUOUS
 70
0
 71
3
 72
13
 73
9
 74
0
 42
0.0000001
 43
0.0000001
 44
0.0000000001
 40
0.0
 40
0.0
 40
0.0
 40
0.0
 40
0.0835316181
 40
0.1755071931
 40
0.2808613346
 40
0.4013920179
 40
0.6835080887
 40
1.0
 40
1.0
 40
1.0
 40
1.0
 10
-909.1810809126
 20
76.8942872446
 30
0.0
 10
-909.1810816348
 20
76.7589219156
 30
0.0
 10
-909.2399999667
 20
76.4725941595
 30
0.0
 10
-909.4826919425
 20
76.0794238612
 30
0.0
 10
-909.8643879267
 20
75.7265065969
 30
0.0
 10
-910.5712736239
 20
75.2969130499
 30
0.0
 10
-911.6962329439
 20
74.9399575271
 30
0.0
 10
-912.6682078436
 20
74.8463289196
 30
0.0
 10
-913.1810918589
 20
74.8463290027
 30
0.0
  0
SPLINE
  5
681
100
AcDbEntity
  8
0
100
AcDbSpline
 62
7
  6
CONTINUOUS
 70
0
 71
3
 72
11
 73
7
 74
0
 42
0.0000001
 43
0.0000001
 44
0.0000000001
 40
0.0
 40
0.0
 40
0.0
 40
0.0
 40
0.2709553715
 40
0.5301710465
 40
0.7733182448
 40
1.0
 40
1.0
 40
1.0
 40
1.0
 10
-902.2041448682
 20
421.8891087546
 30
0.0
 10
-900.6357631909
 20
424.0747545978
 30
0.0
 10
-897.2488865958
 20
428.1312912176
 30
0.0
 10
-891.5561821153
 20
433.3175734045
 30
0.0
 10
-885.5510829078
 20
437.4029032611
 30
0.0
 10
-881.3018496794
 20
439.3939687134
 30
0.0
 10
-879.1810918589
 20
440.1472877312
 30
0.0
  0
SPLINE
  5
682
100
AcDbEntity
  8
0
100
AcDbSpline
 62
9
  6
CONTINUOUS
 70
0
 71
3
 72
9
 73
5
 74
0
 42
0.0000001
 43
0.0000001
 44
0.0000000001
 40
0.0
 40
0.0
 40
0.0
 40
0.0
 40
0.5197348249
 40
1.0
 40
1.0
 40
1.0
 40
1.0
 10
-911.622322799
 20
66.8891087546
 30
0.0
 10
-912.0963328174
 20
68.2170341295
 30
0.0
 10
-912.8719150737
 20
70.8266483269
 30
0.0
 10
-913.1806473341
 20
73.5434138255
 30
0.0
 10
-913.1810918589
 20
74.8463262664
 30
0.0
  0
SPLINE
  5
683
100
AcDbEntity
  8
0
100
AcDbSpline
 62
7
  6
CONTINUOUS
 70
0
 71
3
 72
11
 73
7
 74
0
 42
0.0000001
 43
0.0000001
 44
0.0000000001
 40
0.0
 40
0.0
 40
0.0
 40
0.0
 40
0.2391175892
 40
0.4823375577
 40
0.7344889139
 40
1.0
 40
1.0
 40
1.0
 40
1.0
 10
-679.1810918589
 20
380.1571102474
 30
0.0
 10
-679.1810918589
 20
377.7000930164
 30
0.0
 10
-679.5966436993
 20
372.7339372995
 30
0.0
 10
-681.4938322219
 20
365.392668962
 30
0.0
 10
-684.7110280767
 20
358.2295475491
 30
0.0
 10
-687.5922392188
 20
353.7386240458
 30
0.0
 10
-689.1810918589
 20
351.5208030587
 30
0.0
  0
SPLINE
  5
684
100
AcDbEntity
  8
0
100
AcDbSpline
 62
7
  6
CONTINUOUS
 70
0
 71
3
 72
13
 73
9
 74
0
 42
0.0000001
 43
0.0000001
 44
0.0000000001
 40
0.0
 40
0.0
 40
0.0
 40
0.0
 40
0.2445178519
 40
0.4921708193
 40
0.6175498471
 40
0.7440907624
 40
0.8717231251
 40
1.0
 40
1.0
 40
1.0
 40
1.0
 10
-689.1810918589
 20
351.5208030587
 30
0.0
 10
-689.7790317234
 20
350.6861607847
 30
0.0
 10
-691.0590572354
 20
349.0593194159
 30
0.0
 10
-692.9179847203
 20
347.2326887973
 30
0.0
 10
-694.622577577
 20
346.0025881276
 30
0.0
 10
-696.0320769197
 20
345.2454726987
 30
0.0
 10
-697.5646608271
 20
344.7360710581
 30
0.0
 10
-698.6424612543
 20
344.6124911596
 30
0.0
 10
-699.1810918589
 20
344.6124911596
 30
0.0
  0
SPLINE
  5
685
100
AcDbEntity
  8
0
100
AcDbSpline
 62
7
  6
CONTINUOUS
 70
0
 71
3
 72
20
 73
16
 74
0
 42
0.0000001
 43
0.0000001
 44
0.0000000001
 40
0.0
 40
0.0
 40
0.0
 40
0.0
 40
0.0344044047
 40
0.0686426662
 40
0.1025941703
 40
0.1362370565
 40
0.2026984627
 40
0.2683192875
 40
0.3332087234
 40
0.397414731
 40
0.5237775638
 40
0.6473898889
 40
0.768065599
 40
0.8856229308
 40
1.0
 40
1.0
 40
1.0
 40
1.0
 10
-759.1810918589
 20
344.6124911596
 30
0.0
 10
-759.7115242852
 20
344.6124911596
 30
0.0
 10
-760.7729296342
 20
344.7323418457
 30
0.0
 10
-762.284578571
 20
345.2270952398
 30
0.0
 10
-763.6773959043
 20
345.9647652088
 30
0.0
 10
-765.3646541312
 20
347.1658849801
 30
0.0
 10
-767.2076607958
 20
348.9544654841
 30
0.0
 10
-769.1021259616
 20
351.3336719889
 30
0.0
 10
-770.7552455766
 20
353.8434915455
 30
0.0
 10
-772.690928742
 20
357.2760320665
 30
0.0
 10
-774.714023456
 20
361.6870247558
 30
0.0
 10
-776.6283246208
 20
367.0780628139
 30
0.0
 10
-778.046922112
 20
372.480857155
 30
0.0
 10
-778.9526254815
 20
377.8487627033
 30
0.0
 10
-779.1810918589
 20
381.4267675336
 30
0.0
 10
-779.1810918589
 20
383.1901843671
 30
0.0
  0
SPLINE
  5
686
100
AcDbEntity
  8
0
100
AcDbSpline
 62
9
  6
CONTINUOUS
 70
0
 71
3
 72
15
 73
11
 74
0
 42
0.0000001
 43
0.0000001
 44
0.0000000001
 40
0.0
 40
0.0
 40
0.0
 40
0.0
 40
0.0114602095
 40
0.0457020268
 40
0.1047717455
 40
0.1926632219
 40
0.3161338507
 40
0.4854556468
 40
0.7130694329
 40
1.0
 40
1.0
 40
1.0
 40
1.0
 10
-897.4139798642
 20
36.0656551105
 30
0.0
 10
-897.4343916721
 20
36.1923315571
 30
0.0
 10
-897.5006427342
 20
36.6998041949
 30
0.0
 10
-897.6960956678
 20
37.8567065583
 30
0.0
 10
-898.0915324103
 20
39.8470577309
 30
0.0
 10
-898.8397482484
 20
42.782800342
 30
0.0
 10
-900.1273488371
 20
46.8481051599
 30
0.0
 10
-902.1731111728
 20
52.3059723829
 30
0.0
 10
-905.0239534512
 20
59.4084088215
 30
0.0
 10
-906.9691426773
 20
64.8449573437
 30
0.0
 10
-907.8057073943
 20
67.9466441179
 30
0.0
  0
SPLINE
  5
687
100
AcDbEntity
  8
0
100
AcDbSpline
 62
9
  6
CONTINUOUS
 70
0
 71
3
 72
28
 73
24
 74
0
 42
0.0000001
 43
0.0000001
 44
0.0000000001
 40
0.0
 40
0.0
 40
0.0
 40
0.0
 40
0.0001696921
 40
0.0006759284
 40
0.0015187387
 40
0.0026996887
 40
0.0060831301
 40
0.0108405627
 40
0.0169864335
 40
0.0245414244
 40
0.0335398331
 40
0.0440182051
 40
0.0695819939
 40
0.1016836121
 40
0.1409173605
 40
0.1880699861
 40
0.244156232
 40
0.3104490065
 40
0.3884979715
 40
0.4800863358
 40
0.7105288025
 40
0.8498531595
 40
1.0
 40
1.0
 40
1.0
 40
1.0
 10
-899.8450076873
 20
36.8890679205
 30
0.0
 10
-899.846482707
 20
36.8901488095
 30
0.0
 10
-899.8448065872
 20
36.8990919569
 30
0.0
 10
-899.8500772458
 20
36.9135736644
 30
0.0
 10
-899.8527574041
 20
36.9414623768
 30
0.0
 10
-899.8627853316
 20
36.9984379488
 30
0.0
 10
-899.8780363592
 20
37.0980527015
 30
0.0
 10
-899.9034948188
 20
37.2497389007
 30
0.0
 10
-899.9367007489
 20
37.4459214085
 30
0.0
 10
-899.9790363274
 20
37.6868254224
 30
0.0
 10
-900.031561622
 20
37.9733656364
 30
0.0
 10
-900.1232090751
 20
38.4500094753
 30
0.0
 10
-900.2724386954
 20
39.1690887156
 30
0.0
 10
-900.5086397345
 20
40.1863556262
 30
0.0
 10
-900.8307153442
 20
41.4221150329
 30
0.0
 10
-901.2624615238
 20
42.8957560623
 30
0.0
 10
-901.8322561415
 20
44.6319026787
 30
0.0
 10
-902.573057232
 20
46.6611852207
 30
0.0
 10
-903.5214610725
 20
49.0205705601
 30
0.0
 10
-905.2464932047
 20
52.9724730161
 30
0.0
 10
-907.4182293572
 20
57.4462975073
 30
0.0
 10
-909.8486008339
 20
62.4932579904
 30
0.0
 10
-911.0780829085
 20
65.3653503169
 30
0.0
 10
-911.622322799
 20
66.8891087546
 30
0.0
  0
SPLINE
  5
688
100
AcDbEntity
  8
0
100
AcDbSpline
 62
9
  6
CONTINUOUS
 70
0
 71
3
 72
13
 73
9
 74
0
 42
0.0000001
 43
0.0000001
 44
0.0000000001
 40
0.0
 40
0.0
 40
0.0
 40
0.0
 40
0.1218681094
 40
0.2442991784
 40
0.3675940589
 40
0.4919905606
 40
0.7437213744
 40
1.0
 40
1.0
 40
1.0
 40
1.0
 10
-659.1810918589
 20
411.8891087638
 30
0.0
 10
-659.1815865737
 20
413.3307532133
 30
0.0
 10
-659.4192044513
 20
416.2262043235
 30
0.0
 10
-660.4796301968
 20
420.4621074662
 30
0.0
 10
-662.2192863653
 20
424.5013161281
 30
0.0
 10
-665.3949741591
 20
429.5083902185
 30
0.0
 10
-670.8506912586
 20
434.807260575
 30
0.0
 10
-676.3058076238
 20
437.5636555372
 30
0.0
 10
-679.1810920167
 20
438.5247499016
 30
0.0
  0
SPLINE
  5
689
100
AcDbEntity
  8
0
100
AcDbSpline
 62
9
  6
CONTINUOUS
 70
0
 71
3
 72
15
 73
11
 74
0
 42
0.0000001
 43
0.0000001
 44
0.0000000001
 40
0.0
 40
0.0
 40
0.0
 40
0.0
 40
0.1250001511
 40
0.249999036
 40
0.3750004763
 40
0.4999999986
 40
0.6249995223
 40
0.7500009611
 40
0.8749998477
 40
1.0
 40
1.0
 40
1.0
 40
1.0
 10
1881.1594340322
 20
269.8137727408
 30
0.0
 10
1881.0252400603
 20
270.3780815257
 30
0.0
 10
1880.6793190931
 20
271.489989579
 30
0.0
 10
1879.9335787515
 20
273.0681570821
 30
0.0
 10
1878.9789164608
 20
274.529548046
 30
0.0
 10
1877.8337771548
 20
275.8471920368
 30
0.0
 10
1876.5161333197
 20
276.992331498
 30
0.0
 10
1875.0547424655
 20
277.9469940117
 30
0.0
 10
1873.4765749023
 20
278.6927341774
 30
0.0
 10
1872.3646670053
 20
279.0386556957
 30
0.0
 10
1871.8003582123
 20
279.1728496569
 30
0.0
  0
SPLINE
  5
68A
100
AcDbEntity
  8
0
100
AcDbSpline
 62
9
  6
CONTINUOUS
 70
0
 71
3
 72
15
 73
11
 74
0
 42
0.0000001
 43
0.0000001
 44
0.0000000001
 40
0.0
 40
0.0
 40
0.0
 40
0.0
 40
0.1250001511
 40
0.2499990362
 40
0.3750004763
 40
0.4999999987
 40
0.6249995225
 40
0.7500009613
 40
0.8749998481
 40
1.0
 40
1.0
 40
1.0
 40
1.0
 10
1871.8003568868
 20
114.6053675717
 30
0.0
 10
1872.3646656621
 20
114.7395615445
 30
0.0
 10
1873.4765736968
 20
115.0854825114
 30
0.0
 10
1875.0547411733
 20
115.8312228448
 30
0.0
 10
1876.5161321143
 20
116.7858851209
 30
0.0
 10
1877.8337760868
 20
117.9310244061
 30
0.0
 10
1878.9789155359
 20
119.2486682166
 30
0.0
 10
1879.9335780443
 20
120.7100590426
 30
0.0
 10
1880.679318211
 20
122.2882265736
 30
0.0
 10
1881.0252397354
 20
123.400134448
 30
0.0
 10
1881.1594337007
 20
123.9644432288
 30
0.0
  0
SPLINE
  5
68B
100
AcDbEntity
  8
0
100
AcDbSpline
 62
9
  6
CONTINUOUS
 70
0
 71
3
 72
15
 73
11
 74
0
 42
0.0000001
 43
0.0000001
 44
0.0000000001
 40
0.0
 40
0.0
 40
0.0
 40
0.0
 40
0.1250001511
 40
0.2499990362
 40
0.3750004763
 40
0.4999999987
 40
0.6249995225
 40
0.7500009613
 40
0.8749998481
 40
1.0
 40
1.0
 40
1.0
 40
1.0
 10
1725.9510287798
 20
279.1728499376
 30
0.0
 10
1725.3867200044
 20
279.0386559648
 30
0.0
 10
1724.2748119697
 20
278.6927349979
 30
0.0
 10
1722.6966444932
 20
277.9469946645
 30
0.0
 10
1721.2352535522
 20
276.9923323884
 30
0.0
 10
1719.9176095798
 20
275.8471931031
 30
0.0
 10
1718.7724701306
 20
274.5295492926
 30
0.0
 10
1717.8178076222
 20
273.0681584667
 30
0.0
 10
1717.0720674555
 20
271.4899909357
 30
0.0
 10
1716.7261459312
 20
270.3780830613
 30
0.0
 10
1716.5919519658
 20
269.8137742805
 30
0.0
  0
SPLINE
  5
68C
100
AcDbEntity
  8
0
100
AcDbSpline
 62
9
  6
CONTINUOUS
 70
0
 71
3
 72
15
 73
11
 74
0
 42
0.0000001
 43
0.0000001
 44
0.0000000001
 40
0.0
 40
0.0
 40
0.0
 40
0.0
 40
0.1250001511
 40
0.249999036
 40
0.3750004763
 40
0.4999999986
 40
0.6249995223
 40
0.7500009611
 40
0.8749998477
 40
1.0
 40
1.0
 40
1.0
 40
1.0
 10
1716.5919516343
 20
123.9644447685
 30
0.0
 10
1716.7261456062
 20
123.4001359836
 30
0.0
 10
1717.0720665734
 20
122.2882279303
 30
0.0
 10
1717.817806915
 20
120.7100604271
 30
0.0
 10
1718.7724692057
 20
119.2486694632
 30
0.0
 10
1719.9176085117
 20
117.9310254725
 30
0.0
 10
1721.2352523469
 20
116.7858860113
 30
0.0
 10
1722.6966432011
 20
115.8312234975
 30
0.0
 10
1724.2748107642
 20
115.0854833319
 30
0.0
 10
1725.3867186613
 20
114.7395618136
 30
0.0
 10
1725.9510274542
 20
114.6053678524
 30
0.0
  0
SPLINE
  5
68D
100
AcDbEntity
  8
0
100
AcDbSpline
 62
9
  6
CONTINUOUS
 70
0
 71
3
 72
31
 73
27
 74
0
 42
0.0000001
 43
0.0000001
 44
0.0000000001
 40
0.0
 40
0.0
 40
0.0
 40
0.0
 40
0.1413177527
 40
0.2816338947
 40
0.4204372337
 40
0.489081058
 40
0.5570703417
 40
0.6242541114
 40
0.6904198947
 40
0.7552489677
 40
0.8182232581
 40
0.8487521123
 40
0.8784116375
 40
0.9069231283
 40
0.933845366
 40
0.9464972748
 40
0.9584383926
 40
0.9694873245
 40
0.9793893327
 40
0.9878265653
 40
0.991363015
 40
0.9943635864
 40
0.9967689498
 40
0.9985345235
 40
0.9996237131
 40
1.0
 40
1.0
 40
1.0
 40
1.0
 10
1851.3988179954
 20
443.7989235266
 30
0.0
 10
1854.4582380199
 20
442.3911766665
 30
0.0
 10
1860.4699263456
 20
439.3952287819
 30
0.0
 10
1869.1456405635
 20
434.3708717492
 30
0.0
 10
1876.0465679305
 20
429.770455632
 30
0.0
 10
1881.3271921866
 20
425.8700975684
 30
0.0
 10
1885.1392636575
 20
422.8585974168
 30
0.0
 10
1888.8048127452
 20
419.7611476187
 30
0.0
 10
1892.3078356839
 20
416.5921248367
 30
0.0
 10
1895.6259942825
 20
413.3724839216
 30
0.0
 10
1898.2366866541
 20
410.6468443128
 30
0.0
 10
1900.203399135
 20
408.4678863178
 30
0.0
 10
1901.5875929068
 20
406.8701072598
 30
0.0
 10
1902.8828073129
 20
405.3095698784
 30
0.0
 10
1903.8916221938
 20
404.0385621297
 30
0.0
 10
1904.6383158449
 20
403.0640535786
 30
0.0
 10
1905.1474082773
 20
402.3841176324
 30
0.0
 10
1905.6103029047
 20
401.7515149937
 30
0.0
 10
1906.0179907139
 20
401.1820561974
 30
0.0
 10
1906.3174921861
 20
400.7553052145
 30
0.0
 10
1906.5203245581
 20
400.4617620097
 30
0.0
 10
1906.641555305
 20
400.2863599524
 30
0.0
 10
1906.7365513412
 20
400.1446382272
 30
0.0
 10
1906.8104902299
 20
400.0424909366
 30
0.0
 10
1906.8474637631
 20
399.9760312092
 30
0.0
 10
1906.8735457536
 20
399.9499213815
 30
0.0
 10
1906.8756928333
 20
399.9412148798
 30
0.0
  0
SPLINE
  5
68E
100
AcDbEntity
  8
0
100
AcDbSpline
 62
7
  6
CONTINUOUS
 70
0
 71
3
 72
11
 73
7
 74
0
 42
0.0000001
 43
0.0000001
 44
0.0000000001
 40
0.0
 40
0.0
 40
0.0
 40
0.0
 40
0.2639168835
 40
0.5225230063
 40
0.7697557291
 40
1.0
 40
1.0
 40
1.0
 40
1.0
 10
1644.8756928333
 20
380.1571102474
 30
0.0
 10
1643.2264591581
 20
377.7135531621
 30
0.0
 10
1639.9699060442
 20
372.8698632331
 30
0.0
 10
1635.2468195601
 20
365.6836527328
 30
0.0
 10
1630.9596704143
 20
358.6660827468
 30
0.0
 10
1628.5381966795
 20
353.8974369241
 30
0.0
 10
1627.5551847576
 20
351.5208030587
 30
0.0
  0
SPLINE
  5
68F
100
AcDbEntity
  8
0
100
AcDbSpline
 62
9
  6
CONTINUOUS
 70
0
 71
3
 72
16
 73
12
 74
0
 42
0.0000001
 43
0.0000001
 44
0.0000000001
 40
0.0
 40
0.0
 40
0.0
 40
0.0
 40
0.0077511322
 40
0.023211427
 40
0.0805044614
 40
0.1724537261
 40
0.2956938953
 40
0.44594206
 40
0.6178117599
 40
0.8051672944
 40
1.0
 40
1.0
 40
1.0
 40
1.0
 10
1850.0389566582
 20
440.1472844184
 30
0.0
 10
1850.0297216552
 20
440.1514134766
 30
0.0
 10
1850.0202391596
 20
440.1864450568
 30
0.0
 10
1850.0305596224
 20
440.2863786121
 30
0.0
 10
1850.0823936359
 20
440.5003535814
 30
0.0
 10
1850.1912589133
 20
440.8361971305
 30
0.0
 10
1850.3529859633
 20
441.286113007
 30
0.0
 10
1850.5628572307
 20
441.8277545858
 30
0.0
 10
1850.8134167005
 20
442.4438235549
 30
0.0
 10
1851.0953733722
 20
443.1096692799
 30
0.0
 10
1851.2954341824
 20
443.5666118757
 30
0.0
 10
1851.398818068
 20
443.7989235266
 30
0.0
  0
SPLINE
  5
690
100
AcDbEntity
  8
0
100
AcDbSpline
 62
9
  6
CONTINUOUS
 70
0
 71
3
 72
29
 73
25
 74
0
 42
0.0000001
 43
0.0000001
 44
0.0000000001
 40
0.0
 40
0.0
 40
0.0
 40
0.0
 40
0.1948584697
 40
0.3822867494
 40
0.4709505758
 40
0.5551132744
 40
0.6339465662
 40
0.7066980682
 40
0.7726548367
 40
0.8311867186
 40
0.8817100593
 40
0.9038169701
 40
0.923745169
 40
0.941441405
 40
0.9568664617
 40
0.9699847394
 40
0.9807606383
 40
0.9891627564
 40
0.9924688869
 40
0.9951767233
 40
0.9972850091
 40
0.998792488
 40
0.9996979038
 40
1.0
 40
1.0
 40
1.0
 40
1.0
 10
1839.7026096589
 20
411.8891087546
 30
0.0
 10
1839.8497220392
 20
413.8372529214
 30
0.0
 10
1840.1256076152
 20
417.6602052609
 30
0.0
 10
1840.4716551482
 20
422.3693523564
 30
0.0
 10
1840.7331237147
 20
425.971864948
 30
0.0
 10
1840.9148766954
 20
428.4885029787
 30
0.0
 10
1841.0850770598
 20
430.8460196783
 30
0.0
 10
1841.2418529018
 20
433.0214941036
 30
0.0
 10
1841.383438248
 20
434.993989179
 30
0.0
 10
1841.5087114857
 20
436.7442177242
 30
0.0
 10
1841.6025060224
 20
438.0559266559
 30
0.0
 10
1841.6686226994
 20
438.9815787626
 30
0.0
 10
1841.7112525341
 20
439.5789371339
 30
0.0
 10
1841.749063478
 20
440.1094800114
 30
0.0
 10
1841.7819995919
 20
440.5719053039
 30
0.0
 10
1841.8099437377
 20
440.9651675241
 30
0.0
 10
1841.8329996149
 20
441.2880681886
 30
0.0
 10
1841.8487955673
 20
441.5131440626
 30
0.0
 10
1841.8593614549
 20
441.6569916636
 30
0.0
 10
1841.864502146
 20
441.7389070069
 30
0.0
 10
1841.87066545
 20
441.800376474
 30
0.0
 10
1841.870129002
 20
441.8496061036
 30
0.0
 10
1841.8786656275
 20
441.8697102946
 30
0.0
 10
1841.8726923925
 20
441.8890877882
 30
0.0
 10
1841.8757212001
 20
441.8891084777
 30
0.0
  0
SPLINE
  5
691
100
AcDbEntity
  8
0
100
AcDbSpline
 62
9
  6
CONTINUOUS
 70
0
 71
3
 72
10
 73
6
 74
0
 42
0.0000001
 43
0.0000001
 44
0.0000000001
 40
0.0
 40
0.0
 40
0.0
 40
0.0
 40
0.3937949223
 40
0.6827312056
 40
1.0
 40
1.0
 40
1.0
 40
1.0
 10
1722.0180755873
 20
439.8891061998
 30
0.0
 10
1722.2792477575
 20
436.2132996397
 30
0.0
 10
1722.7372573392
 20
429.8408385656
 30
0.0
 10
1723.416713985
 20
420.5076949112
 30
0.0
 10
1723.8255012732
 20
414.8496546892
 30
0.0
 10
1724.0487760076
 20
411.8891087546
 30
0.0
  0
SPLINE
  5
692
100
AcDbEntity
  8
0
100
AcDbSpline
 62
9
  6
CONTINUOUS
 70
0
 71
3
 72
10
 73
6
 74
0
 42
0.0000001
 43
0.0000001
 44
0.0000000001
 40
0.0
 40
0.0
 40
0.0
 40
0.0
 40
0.3209403661
 40
0.6119300881
 40
1.0
 40
1.0
 40
1.0
 40
1.0
 10
1724.0487760041
 20
411.8891087638
 30
0.0
 10
1722.9782870832
 20
414.7289132904
 30
0.0
 10
1720.9421041475
 20
420.1453977164
 30
0.0
 10
1717.685480576
 20
429.023186254
 30
0.0
 10
1715.5142968872
 20
435.0663738025
 30
0.0
 10
1714.287091456
 20
438.5247499016
 30
0.0
  0
SPLINE
  5
693
100
AcDbEntity
  8
0
100
AcDbSpline
 62
9
  6
CONTINUOUS
 70
0
 71
3
 72
26
 73
22
 74
0
 42
0.0000001
 43
0.0000001
 44
0.0000000001
 40
0.0
 40
0.0
 40
0.0
 40
0.0
 40
0.0003057725
 40
0.0012150946
 40
0.0027267119
 40
0.0048393687
 40
0.0108627771
 40
0.0192752727
 40
0.0300624051
 40
0.0431925142
 40
0.0586297377
 40
0.0763382139
 40
0.1183968277
 40
0.1689404879
 40
0.2274874439
 40
0.2934526637
 40
0.3662050418
 40
0.4450314998
 40
0.6178238802
 40
0.8052000437
 40
1.0
 40
1.0
 40
1.0
 40
1.0
 10
1850.0389251673
 20
440.147301733
 30
0.0
 10
1850.0368752057
 20
440.1450206247
 30
0.0
 10
1850.0352313732
 20
440.1320769304
 30
0.0
 10
1850.0237754759
 20
440.1076939548
 30
0.0
 10
1850.0099423823
 20
440.0640303262
 30
0.0
 10
1849.9769042863
 20
439.9732719986
 30
0.0
 10
1849.9221826445
 20
439.8164231095
 30
0.0
 10
1849.837519284
 20
439.5780940592
 30
0.0
 10
1849.7293791994
 20
439.2723640101
 30
0.0
 10
1849.5974529758
 20
438.9003490784
 30
0.0
 10
1849.4422526388
 20
438.462917921
 30
0.0
 10
1849.1897935
 20
437.7521256973
 30
0.0
 10
1848.8189760149
 20
436.7097027504
 30
0.0
 10
1848.3094233288
 20
435.2818805067
 30
0.0
 10
1847.7172412048
 20
433.6289532433
 30
0.0
 10
1847.047524823
 20
431.7671888483
 30
0.0
 10
1846.3061348241
 20
429.7150463764
 30
0.0
 10
1845.1953957662
 20
426.6570913544
 30
0.0
 10
1843.6795819012
 20
422.5231231896
 30
0.0
 10
1841.7458845528
 20
417.3034522606
 30
0.0
 10
1840.3916101662
 20
413.7174289857
 30
0.0
 10
1839.702609663
 20
411.8891087655
 30
0.0
  0
SPLINE
  5
694
100
AcDbEntity
  8
0
100
AcDbSpline
 62
9
  6
CONTINUOUS
 70
0
 71
3
 72
15
 73
11
 74
0
 42
0.0000001
 43
0.0000001
 44
0.0000000001
 40
0.0
 40
0.0
 40
0.0
 40
0.0
 40
0.1245016175
 40
0.2490566544
 40
0.3737531405
 40
0.498635623
 40
0.6237284471
 40
0.7490217694
 40
0.8744638449
 40
1.0
 40
1.0
 40
1.0
 40
1.0
 10
954.4476851368
 20
-310.574167722
 30
0.0
 10
954.4476925197
 20
-310.8334966586
 30
0.0
 10
954.4992203892
 20
-311.3537256007
 30
0.0
 10
954.7282689486
 20
-312.1028422387
 30
0.0
 10
955.1001980478
 20
-312.7934853202
 30
0.0
 10
955.6008175391
 20
-313.398731465
 30
0.0
 10
956.2108542834
 20
-313.8954370897
 30
0.0
 10
956.9069647698
 20
-314.2644790258
 30
0.0
 10
957.6619996567
 20
-314.4917708636
 30
0.0
 10
958.1862013244
 20
-314.5428988487
 30
0.0
 10
958.4476851368
 20
-314.542909217
 30
0.0
  0
SPLINE
  5
695
100
AcDbEntity
  8
0
100
AcDbSpline
 62
9
  6
CONTINUOUS
 70
0
 71
3
 72
11
 73
7
 74
0
 42
0.0000001
 43
0.0000001
 44
0.0000000001
 40
0.0
 40
0.0
 40
0.0
 40
0.0
 40
0.1637100438
 40
0.4006069181
 40
0.68777431
 40
1.0
 40
1.0
 40
1.0
 40
1.0
 10
1023.70755207
 20
-315.4973482981
 30
0.0
 10
1023.7396235105
 20
-315.3296399322
 30
0.0
 10
1023.7993427044
 20
-314.915793904
 30
0.0
 10
1023.8738811153
 20
-314.2022525381
 30
0.0
 10
1023.9312847225
 20
-313.3316766524
 30
0.0
 10
1023.9476755048
 20
-312.7064738645
 30
0.0
 10
1023.9476755916
 20
-312.3808266266
 30
0.0
  0
SPLINE
  5
696
100
AcDbEntity
  8
0
100
AcDbSpline
 62
9
  6
CONTINUOUS
 70
0
 71
3
 72
11
 73
7
 74
0
 42
0.0000001
 43
0.0000001
 44
0.0000000001
 40
0.0
 40
0.0
 40
0.0
 40
0.0
 40
0.3123150576
 40
0.599625108
 40
0.836601476
 40
1.0
 40
1.0
 40
1.0
 40
1.0
 10
1023.9476755926
 20
-400.3808266266
 30
0.0
 10
1023.9476755047
 20
-400.0550997867
 30
0.0
 10
1023.9309146402
 20
-399.4296777046
 30
0.0
 10
1023.8725776911
 20
-398.5588854869
 30
0.0
 10
1023.7976896165
 20
-397.8454883207
 30
0.0
 10
1023.7384727532
 20
-397.4318917489
 30
0.0
 10
1023.7075521784
 20
-397.2643050101
 30
0.0
  0
SPLINE
  5
697
100
AcDbEntity
  8
0
100
AcDbSpline
 62
9
  6
CONTINUOUS
 70
0
 71
3
 72
9
 73
5
 74
0
 42
0.0000001
 43
0.0000001
 44
0.0000000001
 40
0.0
 40
0.0
 40
0.0
 40
0.0
 40
0.4956959773
 40
1.0
 40
1.0
 40
1.0
 40
1.0
 10
1023.7075521784
 20
-397.2643050101
 30
0.0
 10
1023.6982796736
 20
-397.2140479799
 30
0.0
 10
1023.6649687565
 20
-397.1142232313
 30
0.0
 10
1023.5982999745
 20
-397.0325496706
 30
0.0
 10
1023.5598215494
 20
-396.9975831743
 30
0.0
  0
SPLINE
  5
698
100
AcDbEntity
  8
0
100
AcDbSpline
 62
9
  6
CONTINUOUS
 70
0
 71
3
 72
9
 73
5
 74
0
 42
0.0000001
 43
0.0000001
 44
0.0000000001
 40
0.0
 40
0.0
 40
0.0
 40
0.0
 40
0.2400483714
 40
1.0
 40
1.0
 40
1.0
 40
1.0
 10
1023.5336069365
 20
-396.9751976065
 30
0.0
 10
1023.5269644162
 20
-396.9698606309
 30
0.0
 10
1023.4988154142
 20
-396.94822355
 30
0.0
 10
1023.4688847597
 20
-396.9289465182
 30
0.0
 10
1023.4455147916
 20
-396.9154728684
 30
0.0
  0
SPLINE
  5
699
100
AcDbEntity
  8
0
100
AcDbSpline
 62
9
  6
CONTINUOUS
 70
0
 71
3
 72
9
 73
5
 74
0
 42
0.0000001
 43
0.0000001
 44
0.0000000001
 40
0.0
 40
0.0
 40
0.0
 40
0.0
 40
0.2616297948
 40
1.0
 40
1.0
 40
1.0
 40
1.0
 10
1023.4455968744
 20
-315.8461330548
 30
0.0
 10
1023.4538617441
 20
-315.8413667926
 30
0.0
 10
1023.4851327435
 20
-315.8226091909
 30
0.0
 10
1023.5150687295
 20
-315.8015694096
 30
0.0
 10
1023.5359819616
 20
-315.7846096436
 30
0.0
  0
SPLINE
  5
69A
100
AcDbEntity
  8
0
100
AcDbSpline
 62
9
  6
CONTINUOUS
 70
0
 71
3
 72
9
 73
5
 74
0
 42
0.0000001
 43
0.0000001
 44
0.0000000001
 40
0.0
 40
0.0
 40
0.0
 40
0.0
 40
0.5029782956
 40
1.0
 40
1.0
 40
1.0
 40
1.0
 10
1023.5603091015
 20
-315.7637178027
 30
0.0
 10
1023.5985744821
 20
-315.7288768283
 30
0.0
 10
1023.6648883179
 20
-315.6471504007
 30
0.0
 10
1023.6979470108
 20
-315.5475759695
 30
0.0
 10
1023.70755207
 20
-315.4973482981
 30
0.0
  0
SPLINE
  5
69B
100
AcDbEntity
  8
0
100
AcDbSpline
 62
9
  6
CONTINUOUS
 70
0
 71
3
 72
11
 73
7
 74
0
 42
0.0000001
 43
0.0000001
 44
0.0000000001
 40
0.0
 40
0.0
 40
0.0
 40
0.0
 40
0.2499364461
 40
0.4999140573
 40
0.7499420178
 40
1.0
 40
1.0
 40
1.0
 40
1.0
 10
958.4476851368
 20
-401.1720087945
 30
0.0
 10
958.3166536327
 20
-401.1720188165
 30
0.0
 10
958.0515987328
 20
-401.2258128059
 30
0.0
 10
957.7191877869
 20
-401.4540868236
 30
0.0
 10
957.4988632566
 20
-401.7914528119
 30
0.0
 10
957.4476947404
 20
-402.0563903106
 30
0.0
 10
957.4476851368
 20
-402.1874855312
 30
0.0
  0
SPLINE
  5
69C
100
AcDbEntity
  8
0
100
AcDbSpline
 62
9
  6
CONTINUOUS
 70
0
 71
3
 72
11
 73
7
 74
0
 42
0.0000001
 43
0.0000001
 44
0.0000000001
 40
0.0
 40
0.0
 40
0.0
 40
0.0
 40
0.2500083417
 40
0.5000052994
 40
0.7499996279
 40
1.0
 40
1.0
 40
1.0
 40
1.0
 10
985.9193992462
 20
-402.3598235539
 30
0.0
 10
985.6977173493
 20
-402.171027893
 30
0.0
 10
985.2204185103
 20
-401.8313210183
 30
0.0
 10
984.42722611
 20
-401.4551110759
 30
0.0
 10
983.5802817106
 20
-401.2239546319
 30
0.0
 10
982.9966334139
 20
-401.1720185048
 30
0.0
 10
982.7054611977
 20
-401.1720087945
 30
0.0
  0
SPLINE
  5
69D
100
AcDbEntity
  8
0
100
AcDbSpline
 62
9
  6
CONTINUOUS
 70
0
 71
3
 72
11
 73
7
 74
0
 42
0.0000001
 43
0.0000001
 44
0.0000000001
 40
0.0
 40
0.0
 40
0.0
 40
0.0
 40
0.2500043589
 40
0.5000039987
 40
0.7500015826
 40
1.0
 40
1.0
 40
1.0
 40
1.0
 10
1019.4476851368
 20
-433.0997356939
 30
0.0
 10
1019.4476719797
 20
-432.7352192873
 30
0.0
 10
1019.3682387018
 20
-432.0037494423
 30
0.0
 10
1019.0160074682
 20
-430.9597162804
 30
0.0
 10
1018.44739046
 20
-430.0158895611
 30
0.0
 10
1017.9401509907
 20
-429.4827852706
 30
0.0
 10
1017.6616231852
 20
-429.2476509324
 30
0.0
  0
SPLINE
  5
69E
100
AcDbEntity
  8
0
100
AcDbSpline
 62
9
  6
CONTINUOUS
 70
0
 71
3
 72
11
 73
7
 74
0
 42
0.0000001
 43
0.0000001
 44
0.0000000001
 40
0.0
 40
0.0
 40
0.0
 40
0.0
 40
0.2499984174
 40
0.4999960013
 40
0.7499956411
 40
1.0
 40
1.0
 40
1.0
 40
1.0
 10
1017.6616231852
 20
-283.5140023208
 30
0.0
 10
1017.9401509912
 20
-283.2788679832
 30
0.0
 10
1018.4473904597
 20
-282.7457636917
 30
0.0
 10
1019.0160074683
 20
-281.8019369729
 30
0.0
 10
1019.3682387017
 20
-280.7579038109
 30
0.0
 10
1019.4476719797
 20
-280.0264339659
 30
0.0
 10
1019.4476851368
 20
-279.6619175592
 30
0.0
  0
SPLINE
  5
69F
100
AcDbEntity
  8
0
100
AcDbSpline
 62
9
  6
CONTINUOUS
 70
0
 71
3
 72
11
 73
7
 74
0
 42
0.0000001
 43
0.0000001
 44
0.0000000001
 40
0.0
 40
0.0
 40
0.0
 40
0.0
 40
0.2500003721
 40
0.4999947006
 40
0.7499916583
 40
1.0
 40
1.0
 40
1.0
 40
1.0
 10
982.7054611977
 20
-311.5896444587
 30
0.0
 10
982.9966334139
 20
-311.5896347483
 30
0.0
 10
983.5802817105
 20
-311.5376986214
 30
0.0
 10
984.4272261102
 20
-311.3065421774
 30
0.0
 10
985.2204185099
 20
-310.9303322344
 30
0.0
 10
985.6977173502
 20
-310.5906253612
 30
0.0
 10
985.9193992462
 20
-310.4018296992
 30
0.0
  0
SPLINE
  5
6A0
100
AcDbEntity
  8
0
100
AcDbSpline
 62
9
  6
CONTINUOUS
 70
0
 71
3
 72
11
 73
7
 74
0
 42
0.0000001
 43
0.0000001
 44
0.0000000001
 40
0.0
 40
0.0
 40
0.0
 40
0.0
 40
0.2500579822
 40
0.5000859427
 40
0.7500635539
 40
1.0
 40
1.0
 40
1.0
 40
1.0
 10
957.4476851368
 20
-310.574167722
 30
0.0
 10
957.4476947404
 20
-310.7052629426
 30
0.0
 10
957.4988632566
 20
-310.9702004413
 30
0.0
 10
957.7191877869
 20
-311.3075664296
 30
0.0
 10
958.0515987328
 20
-311.5358404473
 30
0.0
 10
958.3166536327
 20
-311.5896344369
 30
0.0
 10
958.4476851368
 20
-311.5896444587
 30
0.0
  0
LINE
  5
6A1
100
AcDbEntity
  8
0
100
AcDbLine
 62
9
  6
CONTINUOUS
 10
1023.9476851402
 20
-442.1313109653
 11
1023.9476851401
 21
-426.3808266266
  0
LINE
  5
6A2
100
AcDbEntity
  8
0
100
AcDbLine
 62
9
  6
CONTINUOUS
 10
1023.9476851402
 20
-286.3808266256
 11
1023.9476851401
 21
-270.6303422876
  0
SPLINE
  5
6A3
100
AcDbEntity
  8
0
100
AcDbSpline
 62
9
  6
CONTINUOUS
 70
0
 71
3
 72
15
 73
11
 74
0
 42
0.0000001
 43
0.0000001
 44
0.0000000001
 40
0.0
 40
0.0
 40
0.0
 40
0.0
 40
0.1255361551
 40
0.2509782306
 40
0.3762715529
 40
0.501364377
 40
0.6262468595
 40
0.7509433456
 40
0.8754983825
 40
1.0
 40
1.0
 40
1.0
 40
1.0
 10
958.4476851368
 20
-398.2187440362
 30
0.0
 10
958.1862013244
 20
-398.2187544047
 30
0.0
 10
957.6619996567
 20
-398.2698823895
 30
0.0
 10
956.9069647698
 20
-398.4971742274
 30
0.0
 10
956.2108542834
 20
-398.8662161635
 30
0.0
 10
955.6008175391
 20
-399.3629217882
 30
0.0
 10
955.1001980477
 20
-399.9681679329
 30
0.0
 10
954.7282689487
 20
-400.6588110145
 30
0.0
 10
954.4992203889
 20
-401.4079276524
 30
0.0
 10
954.44769252
 20
-401.9281565945
 30
0.0
 10
954.4476851368
 20
-402.1874855312
 30
0.0
  0
SPLINE
  5
6A4
100
AcDbEntity
  8
0
100
AcDbSpline
 62
7
  6
CONTINUOUS
 70
0
 71
3
 72
13
 73
9
 74
0
 42
0.0000001
 43
0.0000001
 44
0.0000000001
 40
0.0
 40
0.0
 40
0.0
 40
0.0
 40
0.2909652384
 40
0.5600749357
 40
0.6839142598
 40
0.7991055414
 40
0.9046508632
 40
1.0
 40
1.0
 40
1.0
 40
1.0
 10
1256.9476851368
 20
-407.5440919327
 30
0.0
 10
1258.9416892906
 20
-409.1282826407
 30
0.0
 10
1262.8658944438
 20
-412.0715313435
 30
0.0
 10
1267.9358637417
 20
-415.2766393705
 30
0.0
 10
1271.9088069041
 20
-417.2836266755
 30
0.0
 10
1274.7083759864
 20
-418.4184115273
 30
0.0
 10
1277.3771856749
 20
-419.1705398287
 30
0.0
 10
1279.1361840094
 20
-419.3808266266
 30
0.0
 10
1279.9707381461
 20
-419.3808266266
 30
0.0
  0
SPLINE
  5
6A5
100
AcDbEntity
  8
0
100
AcDbSpline
 62
9
  6
CONTINUOUS
 70
0
 71
3
 72
19
 73
15
 74
0
 42
0.0000001
 43
0.0000001
 44
0.0000000001
 40
0.0
 40
0.0
 40
0.0
 40
0.0
 40
0.008631091
 40
0.01552709
 40
0.0245162041
 40
0.0356951936
 40
0.0490845211
 40
0.0824525773
 40
0.1747160554
 40
0.2983189467
 40
0.4487256811
 40
0.6202700193
 40
0.8064097498
 40
1.0
 40
1.0
 40
1.0
 40
1.0
 10
1036.9476851368
 20
-397.2077434522
 30
0.0
 10
1036.9480898899
 20
-397.2948440787
 30
0.0
 10
1037.0760973721
 20
-397.429671467
 30
0.0
 10
1037.2873811488
 20
-397.5440025902
 30
0.0
 10
1037.5426175926
 20
-397.6493468434
 30
0.0
 10
1037.8648190885
 20
-397.7513464655
 30
0.0
 10
1038.4311181096
 20
-397.8991527457
 30
0.0
 10
1039.8086522459
 20
-398.1684565298
 30
0.0
 10
1042.306812326
 20
-398.478235335
 30
0.0
 10
1045.9900049397
 20
-398.7901249756
 30
0.0
 10
1050.4796984875
 20
-399.0454554603
 30
0.0
 10
1055.6037627732
 20
-399.2369350438
 30
0.0
 10
1061.1659901443
 20
-399.3544629325
 30
0.0
 10
1064.9981250842
 20
-399.3808369872
 30
0.0
 10
1066.9517615576
 20
-399.3808549934
 30
0.0
  0
SPLINE
  5
6A6
100
AcDbEntity
  8
0
100
AcDbSpline
 62
9
  6
CONTINUOUS
 70
0
 71
3
 72
17
 73
13
 74
0
 42
0.0000001
 43
0.0000001
 44
0.0000000001
 40
0.0
 40
0.0
 40
0.0
 40
0.0
 40
0.1744338862
 40
0.3428851642
 40
0.4997237131
 40
0.6400537482
 40
0.7601531044
 40
0.8581709077
 40
0.8992368943
 40
0.9357396998
 40
0.9688276465
 40
1.0
 40
1.0
 40
1.0
 40
1.0
 10
1066.9521811819
 20
-407.5440593235
 30
0.0
 10
1064.9972164402
 20
-407.5439505659
 30
0.0
 10
1061.1530825237
 20
-407.4199887459
 30
0.0
 10
1055.5757097317
 20
-406.8625761758
 30
0.0
 10
1050.4311058227
 20
-405.9559961874
 30
0.0
 10
1045.9088259
 20
-404.7298996024
 30
0.0
 10
1042.1727777278
 20
-403.2281112002
 30
0.0
 10
1039.6719674047
 20
-401.6972600094
 30
0.0
 10
1038.2415302429
 20
-400.3346784698
 30
0.0
 10
1037.5036802809
 20
-399.3273382781
 30
0.0
 10
1037.0520252515
 20
-398.2805177312
 30
0.0
 10
1036.9480317999
 20
-397.5571068935
 30
0.0
 10
1036.9476851368
 20
-397.2077434564
 30
0.0
  0
SPLINE
  5
6A7
100
AcDbEntity
  8
0
100
AcDbSpline
 62
9
  6
CONTINUOUS
 70
0
 71
3
 72
13
 73
9
 74
0
 42
0.0000001
 43
0.0000001
 44
0.0000000001
 40
0.0
 40
0.0
 40
0.0
 40
0.0
 40
0.3340403154
 40
0.6251384297
 40
0.7451524933
 40
0.8458542512
 40
0.9287516304
 40
1.0
 40
1.0
 40
1.0
 40
1.0
 10
1140.6146496514
 20
-407.5440889633
 30
0.0
 10
1140.1146437637
 20
-407.5156040184
 30
0.0
 10
1139.1740137056
 20
-407.5325222893
 30
0.0
 10
1138.0661351125
 20
-407.7397154324
 30
0.0
 10
1137.3536199619
 20
-408.0321877155
 30
0.0
 10
1136.967683893
 20
-408.2802116351
 30
0.0
 10
1136.7081181613
 20
-408.569528187
 30
0.0
 10
1136.6312478887
 20
-408.7973799763
 30
0.0
 10
1136.6239634794
 20
-408.9039518551
 30
0.0
  0
SPLINE
  5
6A8
100
AcDbEntity
  8
0
100
AcDbSpline
 62
9
  6
CONTINUOUS
 70
0
 71
3
 72
13
 73
9
 74
0
 42
0.0000001
 43
0.0000001
 44
0.0000000001
 40
0.0
 40
0.0
 40
0.0
 40
0.0
 40
0.3340401965
 40
0.625138251
 40
0.7451523324
 40
0.8458541422
 40
0.9287515903
 40
1.0
 40
1.0
 40
1.0
 40
1.0
 10
1073.2807206222
 20
-407.5440904515
 30
0.0
 10
1073.7807261356
 20
-407.5156055819
 30
0.0
 10
1074.7213555449
 20
-407.5325238622
 30
0.0
 10
1075.8292334543
 20
-407.7397167572
 30
0.0
 10
1076.5417484465
 20
-408.0321886285
 30
0.0
 10
1076.9276847208
 20
-408.2802122503
 30
0.0
 10
1077.1872509403
 20
-408.5695284151
 30
0.0
 10
1077.264121919
 20
-408.7973799908
 30
0.0
 10
1077.2714067025
 20
-408.9039518613
 30
0.0
  0
SPLINE
  5
6A9
100
AcDbEntity
  8
0
100
AcDbSpline
 62
9
  6
CONTINUOUS
 70
0
 71
3
 72
18
 73
14
 74
0
 42
0.0000001
 43
0.0000001
 44
0.0000000001
 40
0.0
 40
0.0
 40
0.0
 40
0.0
 40
0.1250689127
 40
0.2501321921
 40
0.3751862901
 40
0.5002234838
 40
0.6252201335
 40
0.6877510216
 40
0.7502740158
 40
0.8127751958
 40
0.8752362136
 40
0.9376403518
 40
1.0
 40
1.0
 40
1.0
 40
1.0
 10
1140.9476851368
 20
-399.3808266266
 30
0.0
 10
1140.9477050585
 20
-395.9047641136
 30
0.0
 10
1140.6983519111
 20
-388.9500940955
 30
0.0
 10
1139.5573526703
 20
-378.5755681219
 30
0.0
 10
1137.5878533352
 20
-368.3229911765
 30
0.0
 10
1134.6714994882
 20
-358.2974561881
 30
0.0
 10
1131.275833472
 20
-350.2668141312
 30
0.0
 10
1127.7997914193
 20
-344.2384592213
 30
0.0
 10
1124.7405917754
 20
-340.0035744911
 30
0.0
 10
1121.1525048139
 20
-336.1991086869
 30
0.0
 10
1116.9611283327
 20
-333.0527233689
 30
0.0
 10
1112.1673181891
 20
-330.9002794753
 30
0.0
 10
1108.6808579203
 20
-330.3808485272
 30
0.0
 10
1106.9476851368
 20
-330.3808266266
 30
0.0
  0
SPLINE
  5
6AA
100
AcDbEntity
  8
0
100
AcDbSpline
 62
9
  6
CONTINUOUS
 70
0
 71
3
 72
17
 73
13
 74
0
 42
0.0000001
 43
0.0000001
 44
0.0000000001
 40
0.0
 40
0.0
 40
0.0
 40
0.0
 40
0.1318632043
 40
0.2598043028
 40
0.3837695253
 40
0.5040353817
 40
0.6214978122
 40
0.738425556
 40
0.7983821678
 40
0.8609680101
 40
0.9280451425
 40
1.0
 40
1.0
 40
1.0
 40
1.0
 10
1073.2807206222
 20
-407.5440919327
 30
0.0
 10
1073.5027831548
 20
-410.7168449625
 30
0.0
 10
1074.1609137729
 20
-416.9551528213
 30
0.0
 10
1075.818883588
 20
-426.0710288654
 30
0.0
 10
1078.1470677966
 20
-434.7522489674
 30
0.0
 10
1081.2039243457
 20
-442.9408515992
 30
0.0
 10
1085.1258570995
 20
-450.56760278
 30
0.0
 10
1089.3578752289
 20
-456.3314873531
 30
0.0
 10
1093.5552088028
 20
-460.3232273187
 30
0.0
 10
1097.333420314
 20
-462.9423259059
 30
0.0
 10
1101.8406109216
 20
-464.8735365242
 30
0.0
 10
1105.2121485367
 20
-465.362000377
 30
0.0
 10
1106.9476851368
 20
-465.3632827669
 30
0.0
  0
SPLINE
  5
6AB
100
AcDbEntity
  8
0
100
AcDbSpline
 62
9
  6
CONTINUOUS
 70
0
 71
3
 72
17
 73
13
 74
0
 42
0.0000001
 43
0.0000001
 44
0.0000000001
 40
0.0
 40
0.0
 40
0.0
 40
0.0
 40
0.0719468131
 40
0.1390569049
 40
0.2016612002
 40
0.261623832
 40
0.3785497061
 40
0.4960026604
 40
0.6162572253
 40
0.7402118258
 40
0.8681437188
 40
1.0
 40
1.0
 40
1.0
 40
1.0
 10
1106.9476851368
 20
-465.3632827669
 30
0.0
 10
1108.6830299303
 20
-465.3620966071
 30
0.0
 10
1112.0551650605
 20
-464.8734719629
 30
0.0
 10
1116.5633407753
 20
-462.9418068296
 30
0.0
 10
1120.3424930089
 20
-460.3215814855
 30
0.0
 10
1124.5397856748
 20
-456.3289992014
 30
0.0
 10
1128.7712548759
 20
-450.5648789543
 30
0.0
 10
1132.6924553816
 20
-442.938369997
 30
0.0
 10
1135.748943127
 20
-434.7504354885
 30
0.0
 10
1138.0767161965
 20
-426.0698688303
 30
0.0
 10
1139.7345009835
 20
-416.9546104333
 30
0.0
 10
1140.3926147503
 20
-410.7166834629
 30
0.0
 10
1140.6146496514
 20
-407.5440919327
 30
0.0
  0
SPLINE
  5
6AC
100
AcDbEntity
  8
0
100
AcDbSpline
 62
9
  6
CONTINUOUS
 70
0
 71
3
 72
17
 73
13
 74
0
 42
0.0000001
 43
0.0000001
 44
0.0000000001
 40
0.0
 40
0.0
 40
0.0
 40
0.0
 40
0.06248153
 40
0.1249793368
 40
0.187482225
 40
0.2499858171
 40
0.3748553782
 40
0.4998350144
 40
0.6248560704
 40
0.7498960835
 40
0.8749449868
 40
1.0
 40
1.0
 40
1.0
 40
1.0
 10
1106.9476851368
 20
-330.3808266266
 30
0.0
 10
1105.2114168507
 20
-330.3816453355
 30
0.0
 10
1101.7193719269
 20
-330.9013305127
 30
0.0
 10
1096.9212916416
 20
-333.0603014685
 30
0.0
 10
1092.729255024
 20
-336.2108933133
 30
0.0
 10
1087.9525696199
 20
-341.2838408008
 30
0.0
 10
1083.2875847272
 20
-348.6879915394
 30
0.0
 10
1079.2207583837
 20
-358.3061763462
 30
0.0
 10
1076.3053594111
 20
-368.3323334769
 30
0.0
 10
1074.3372756118
 20
-378.5811914229
 30
0.0
 10
1073.1968494271
 20
-388.9530733716
 30
0.0
 10
1072.9476580981
 20
-395.9057344247
 30
0.0
 10
1072.9476851368
 20
-399.3808266266
 30
0.0
  0
SPLINE
  5
6AD
100
AcDbEntity
  8
0
100
AcDbSpline
 62
7
  6
CONTINUOUS
 70
0
 71
3
 72
13
 73
9
 74
0
 42
0.0000001
 43
0.0000001
 44
0.0000000001
 40
0.0
 40
0.0
 40
0.0
 40
0.0
 40
0.0953523533
 40
0.2009013063
 40
0.3160922985
 40
0.4399301091
 40
0.7090356135
 40
1.0
 40
1.0
 40
1.0
 40
1.0
 10
1279.9707381461
 20
-259.3808266266
 30
0.0
 10
1279.1361558599
 20
-259.3808266266
 30
0.0
 10
1277.377099231
 20
-259.5911362231
 30
0.0
 10
1274.7082338019
 20
-260.3432775011
 30
0.0
 10
1271.9086601122
 20
-261.4780955203
 30
0.0
 10
1267.9357727777
 20
-263.485074726
 30
0.0
 10
1262.8658523625
 20
-266.6901516938
 30
0.0
 10
1258.9416834442
 20
-269.6333752573
 30
0.0
 10
1256.9476851368
 20
-271.2175613205
 30
0.0
  0
ELLIPSE
  5
6AE
100
AcDbEntity
  8
02___PRT_ALL_AXES
100
AcDbEllipse
 62
7
  6
CONTINUOUS
 10
189.5444385186
 20
66.8891087546
 30
0.0
 11
65.0
 21
0.0
 31
0.0
 40
0.4615384615
 41
0.0
 42
6.2831853072
  0
ELLIPSE
  5
6AF
100
AcDbEntity
  8
02___PRT_ALL_AXES
100
AcDbEllipse
 62
7
  6
CONTINUOUS
 10
1106.9476851368
 20
-399.3808266266
 30
0.0
 11
0.0
 21
65.0
 31
0.0
 40
0.4615384615
 41
0.0
 42
6.2831853072
  0
ENDSEC
  0
SECTION
  2
OBJECTS
  0
DICTIONARY
  5
C
100
AcDbDictionary
280
0
281
1
  3
ACAD_GROUP
350
D
  3
ACAD_MLINESTYLE
350
17
  3
ACAD_LAYOUT
350
1A
  3
ACAD_PLOTSETTINGS
350
19
  3
ACAD_PLOTSTYLENAME
350
E
  0
DICTIONARY
  5
D
102
{ACAD_REACTORS
330
C
102
}
100
AcDbDictionary
280
0
281
1
  0
ACDBDICTIONARYWDFLT
  5
E
102
{ACAD_REACTORS
330
C
102
}
100
AcDbDictionary
281
1
  3
Normal
350
F
100
AcDbDictionaryWithDefault
340
F
  0
DICTIONARY
  5
17
102
{ACAD_REACTORS
330
C
102
}
100
AcDbDictionary
280
0
281
1
  3
Standard
350
18
  0
DICTIONARY
  5
19
102
{ACAD_REACTORS
330
C
102
}
100
AcDbDictionary
281
1
  0
DICTIONARY
  5
1A
102
{ACAD_REACTORS
330
C
102
}
100
AcDbDictionary
281
1
  3
Model
350
6B0
  3
Layout1
350
6B1
  0
ACDBPLACEHOLDER
  5
F
102
{ACAD_REACTORS
330
E
102
}
  0
MLINESTYLE
  5
18
102
{ACAD_REACTORS
330
17
102
}
100
AcDbMlineStyle
  2
STANDARD
 70
0
  3

 62
256
 51
90.0
 52
90.0
 71
2
 49
0.5
 62
256
  6
BYLAYER
 49
-0.5
 62
256
  6
BYLAYER
  0
LAYOUT
  5
6B0
102
{ACAD_REACTORS
330
1A
102
}
100
AcDbPlotSettings
  1

  2
none_device
  4

  6

 40
0.0
 41
0.0
 42
0.0
 43
0.0
 44
210.0
 45
297.0
 46
0.0
 47
0.0
 48
0.0
 49
0.0
140
0.0
141
0.0
142
1.0
143
1.0
 70
1024
 72
1
 73
0
 74
0
  7

 75
0
147
1.0
148
0.0
149
0.0
100
AcDbLayout
  1
Model
 70
0
 71
0
 10
0.0
 20
0.0
 11
210.0
 21
297.0
 12
0.0
 22
0.0
 32
0.0
 14
0.0
 24
0.0
 34
0.0
 15
0.0
 25
0.0
 35
0.0
146
0.0
 13
0.0
 23
0.0
 33
0.0
 16
1.0
 26
0.0
 36
0.0
 17
0.0
 27
1.0
 37
0.0
 76
0
330
21A
345
0
346
0
  0
LAYOUT
  5
6B1
102
{ACAD_REACTORS
330
1A
102
}
100
AcDbPlotSettings
  1

  2
none_device
  4

  6

 40
0.0
 41
0.0
 42
0.0
 43
0.0
 44
210.0
 45
297.0
 46
0.0
 47
0.0
 48
0.0
 49
0.0
140
0.0
141
0.0
142
1.0
143
1.0
 70
0
 72
1
 73
0
 74
0
  7

 75
0
147
1.0
148
0.0
149
0.0
100
AcDbLayout
  1
Layout1
 70
0
 71
1
 10
0.0
 20
0.0
 11
210.0
 21
297.0
 12
0.0
 22
0.0
 32
0.0
 14
0.0
 24
0.0
 34
0.0
 15
0.0
 25
0.0
 35
0.0
146
0.0
 13
0.0
 23
0.0
 33
0.0
 16
1.0
 26
0.0
 36
0.0
 17
0.0
 27
1.0
 37
0.0
 76
0
330
21B
345
0
346
0
  0
ENDSEC
  0
EOF
