999
DXF file: s100_t_f_2.dxf
999
Pro/ENGINEER 2011370 by Parametric Technology Corporation
  0
SECTION
  2
HEADER
  9
$ACADVER
  1
AC1015
  9
$DWGCODEPAGE
  3
ANSI_1252
  9
$EXTMAX
 10
210.0
 20
297.0
 30
0.0
  9
$EXTMIN
 10
0.0
 20
0.0
 30
0.0
  9
$LIMMIN
 10
0.0
 20
0.0
  9
$LIMMAX
 10
210.0
 20
297.0
  9
$VIEWCTR
 10
105.0
 20
148.5
  9
$VIEWSIZE
 40
297.0
  9
$CLAYER
  8
0
  9
$LTSCALE
 40
19.36
  9
$CELTYPE
  6
BYLAYER
  9
$DIMSCALE
 40
1.0
  9
$DIMASZ
 40
2.0
  9
$DIMEXO
 40
2.2
  9
$DIMDLI
 40
13.376
  9
$DIMEXE
 40
6.336
  9
$DIMCEN
 40
3.168
  9
$DIMLFAC
 40
1.0
  9
$DIMBLK
  1
_FILLED
  9
$DIMTXT
 40
2.0
  9
$DIMTOL
 70
0
  9
$DIMLIM
 70
0
  9
$DIMTFAC
 40
1.0
  9
$PDMODE
 70
3
  9
$PDSIZE
 40
0.3125
  9
$HANDSEED
  5
6EC
  9
$TILEMODE
 70
1
  9
$MEASUREMENT
 70
1
  9
$INSUNITS
 70
4
  0
ENDSEC
  0
SECTION
  2
CLASSES
  0
CLASS
  1
ACDBDICTIONARYWDFLT
  2
AcDbDictionaryWithDefault
  3
AutoCAD 2000
 90
0
280
0
281
0
  0
CLASS
  1
ACDBPLACEHOLDER
  2
AcDbPlaceHolder
  3
AutoCAD 2000
 90
0
280
0
281
0
  0
CLASS
  1
LAYOUT
  2
AcDbLayout
  3
AutoCAD 2000
 90
0
280
0
281
0
  0
ENDSEC
  0
SECTION
  2
TABLES
  0
TABLE
  2
VPORT
  5
8
100
AcDbSymbolTable
 70
2
  0
VPORT
  5
1F4
100
AcDbSymbolTableRecord
100
AcDbViewportTableRecord
  2
*ACTIVE
 70
0
 10
0.0
 20
0.0
 11
1.0
 21
1.0
 12
105.0
 22
148.5
 13
0.0
 23
0.0
 14
1.0
 24
1.0
 15
0.0
 25
0.0
 16
0.0
 26
0.0
 36
1.0
 17
0.0
 27
0.0
 37
0.0
 40
297.0
 41
0.7070707071
 42
50.0
 43
0.0
 44
0.0
 50
0.0
 51
0.0
 71
0
 72
100
 73
1
 74
1
 75
0
 76
0
 77
0
 78
0
  0
ENDTAB
  0
TABLE
  2
LTYPE
  5
5
100
AcDbSymbolTable
 70
6
  0
LTYPE
  5
14
100
AcDbSymbolTableRecord
100
AcDbLinetypeTableRecord
  2
BYBLOCK
 70
0
  3

 72
65
 73
0
 40
0.0
  0
LTYPE
  5
15
100
AcDbSymbolTableRecord
100
AcDbLinetypeTableRecord
  2
BYLAYER
 70
0
  3

 72
65
 73
0
 40
0.0
  0
LTYPE
  5
16
100
AcDbSymbolTableRecord
100
AcDbLinetypeTableRecord
  2
CONTINUOUS
 70
64
  3
Solid line
 72
65
 73
0
 40
0.0
  0
LTYPE
  5
1F5
100
AcDbSymbolTableRecord
100
AcDbLinetypeTableRecord
  2
CENTER
 70
64
  3
____ _ ____ _ ____ _ ____ _ ____ _ ____ _ ____
 72
65
 73
4
 40
0.6
 49
0.375
 74
0
 49
-0.075
 74
0
 49
0.075
 74
0
 49
-0.075
 74
0
  0
LTYPE
  5
1F6
100
AcDbSymbolTableRecord
100
AcDbLinetypeTableRecord
  2
HIDDEN
 70
64
  3
- - - - - - - - - - - - - - - - - - - -
 72
65
 73
2
 40
0.2
 49
0.1
 74
0
 49
-0.1
 74
0
  0
LTYPE
  5
1F7
100
AcDbSymbolTableRecord
100
AcDbLinetypeTableRecord
  2
PHANTOM
 70
64
  3
_____ _ _ _____ _ _ _____ _ _ _____
 72
65
 73
6
 40
0.8
 49
0.45
 74
0
 49
-0.05
 74
0
 49
0.1
 74
0
 49
-0.05
 74
0
 49
0.1
 74
0
 49
-0.05
 74
0
  0
LTYPE
  5
1F8
100
AcDbSymbolTableRecord
100
AcDbLinetypeTableRecord
  2
DOT
 70
64
  3
. . . . . . . . . . . . . . . . . . . .
 72
65
 73
2
 40
0.2
 49
0.1
 74
0
 49
-0.1
 74
0
  0
LTYPE
  5
1F9
100
AcDbSymbolTableRecord
100
AcDbLinetypeTableRecord
  2
DASHED
 70
64
  3
- - - - - - - - - - - - - - - - - - - -
 72
65
 73
2
 40
0.2
 49
0.1
 74
0
 49
-0.1
 74
0
  0
ENDTAB
  0
TABLE
  2
LAYER
  5
2
100
AcDbSymbolTable
 70
36
  0
LAYER
  5
10
100
AcDbSymbolTableRecord
100
AcDbLayerTableRecord
  2
0
 70
0
 62
7
  6
CONTINUOUS
370
-3
390
F
  0
LAYER
  5
1FA
100
AcDbSymbolTableRecord
100
AcDbLayerTableRecord
  2
DEFAULT_1
 70
0
 62
7
  6
CENTER
370
-3
390
F
  0
LAYER
  5
1FB
100
AcDbSymbolTableRecord
100
AcDbLayerTableRecord
  2
DEFAULT_2
 70
0
 62
8
  6
HIDDEN
370
-3
390
F
  0
LAYER
  5
1FC
100
AcDbSymbolTableRecord
100
AcDbLayerTableRecord
  2
DEFAULT_3
 70
0
 62
7
  6
PHANTOM
370
-3
390
F
  0
LAYER
  5
1FD
100
AcDbSymbolTableRecord
100
AcDbLayerTableRecord
  2
01___PRT_ALL_DTM_PLN
 70
0
 62
7
  6
CONTINUOUS
370
-3
390
F
  0
LAYER
  5
1FE
100
AcDbSymbolTableRecord
100
AcDbLayerTableRecord
  2
01___PRT_DEF_DTM_PLN
 70
0
 62
7
  6
CONTINUOUS
370
-3
390
F
  0
LAYER
  5
1FF
100
AcDbSymbolTableRecord
100
AcDbLayerTableRecord
  2
02___PRT_ALL_AXES
 70
0
 62
7
  6
CONTINUOUS
370
-3
390
F
  0
LAYER
  5
200
100
AcDbSymbolTableRecord
100
AcDbLayerTableRecord
  2
03___PRT_ALL_CURVES
 70
0
 62
7
  6
CONTINUOUS
370
-3
390
F
  0
LAYER
  5
201
100
AcDbSymbolTableRecord
100
AcDbLayerTableRecord
  2
04___PRT_ALL_DTM_PNT
 70
0
 62
7
  6
CONTINUOUS
370
-3
390
F
  0
LAYER
  5
202
100
AcDbSymbolTableRecord
100
AcDbLayerTableRecord
  2
05___PRT_ALL_DTM_CSYS
 70
0
 62
7
  6
CONTINUOUS
370
-3
390
F
  0
LAYER
  5
203
100
AcDbSymbolTableRecord
100
AcDbLayerTableRecord
  2
05___PRT_DEF_DTM_CSYS
 70
0
 62
7
  6
CONTINUOUS
370
-3
390
F
  0
LAYER
  5
204
100
AcDbSymbolTableRecord
100
AcDbLayerTableRecord
  2
06___PRT_ALL_SURFS
 70
0
 62
7
  6
CONTINUOUS
370
-3
390
F
  0
LAYER
  5
205
100
AcDbSymbolTableRecord
100
AcDbLayerTableRecord
  2
1_ALL_PLANES
 70
0
 62
7
  6
CONTINUOUS
370
-3
390
F
  0
LAYER
  5
206
100
AcDbSymbolTableRecord
100
AcDbLayerTableRecord
  2
1_SISCO
 70
0
 62
7
  6
CONTINUOUS
370
-3
390
F
  0
LAYER
  5
207
100
AcDbSymbolTableRecord
100
AcDbLayerTableRecord
  2
1__DEF_ASM_PLN
 70
0
 62
7
  6
CONTINUOUS
370
-3
390
F
  0
LAYER
  5
208
100
AcDbSymbolTableRecord
100
AcDbLayerTableRecord
  2
1__DEF_PLANES
 70
0
 62
7
  6
CONTINUOUS
370
-3
390
F
  0
LAYER
  5
209
100
AcDbSymbolTableRecord
100
AcDbLayerTableRecord
  2
2_ALL_CSYS
 70
0
 62
7
  6
CONTINUOUS
370
-3
390
F
  0
LAYER
  5
20A
100
AcDbSymbolTableRecord
100
AcDbLayerTableRecord
  2
2_PIANI
 70
0
 62
7
  6
CONTINUOUS
370
-3
390
F
  0
LAYER
  5
20B
100
AcDbSymbolTableRecord
100
AcDbLayerTableRecord
  2
2__DEF_ASM_CSYS
 70
0
 62
7
  6
CONTINUOUS
370
-3
390
F
  0
LAYER
  5
20C
100
AcDbSymbolTableRecord
100
AcDbLayerTableRecord
  2
2__DEF_CSYS
 70
0
 62
7
  6
CONTINUOUS
370
-3
390
F
  0
LAYER
  5
20D
100
AcDbSymbolTableRecord
100
AcDbLayerTableRecord
  2
3_ALL_AXES
 70
0
 62
7
  6
CONTINUOUS
370
-3
390
F
  0
LAYER
  5
20E
100
AcDbSymbolTableRecord
100
AcDbLayerTableRecord
  2
3_PUNTI
 70
0
 62
7
  6
CONTINUOUS
370
-3
390
F
  0
LAYER
  5
20F
100
AcDbSymbolTableRecord
100
AcDbLayerTableRecord
  2
4_ALL_POINTS
 70
0
 62
7
  6
CONTINUOUS
370
-3
390
F
  0
LAYER
  5
210
100
AcDbSymbolTableRecord
100
AcDbLayerTableRecord
  2
4_CURVE
 70
0
 62
7
  6
CONTINUOUS
370
-3
390
F
  0
LAYER
  5
211
100
AcDbSymbolTableRecord
100
AcDbLayerTableRecord
  2
5_ALL_CURVES
 70
0
 62
7
  6
CONTINUOUS
370
-3
390
F
  0
LAYER
  5
212
100
AcDbSymbolTableRecord
100
AcDbLayerTableRecord
  2
5_SUPERFICI
 70
0
 62
7
  6
CONTINUOUS
370
-3
390
F
  0
LAYER
  5
213
100
AcDbSymbolTableRecord
100
AcDbLayerTableRecord
  2
6_ALL_SURFS
 70
0
 62
7
  6
CONTINUOUS
370
-3
390
F
  0
LAYER
  5
214
100
AcDbSymbolTableRecord
100
AcDbLayerTableRecord
  2
7_ALL_QUILTS
 70
0
 62
7
  6
CONTINUOUS
370
-3
390
F
  0
LAYER
  5
215
100
AcDbSymbolTableRecord
100
AcDbLayerTableRecord
  2
8_ALL_CGFEAT
 70
0
 62
7
  6
CONTINUOUS
370
-3
390
F
  0
LAYER
  5
216
100
AcDbSymbolTableRecord
100
AcDbLayerTableRecord
  2
9_ALL_THREAD
 70
0
 62
7
  6
CONTINUOUS
370
-3
390
F
  0
LAYER
  5
217
100
AcDbSymbolTableRecord
100
AcDbLayerTableRecord
  2
FILETTATURE
 70
0
 62
7
  6
CONTINUOUS
370
-3
390
F
  0
ENDTAB
  0
TABLE
  2
STYLE
  5
3
100
AcDbSymbolTable
 70
1
  0
STYLE
  5
11
100
AcDbSymbolTableRecord
100
AcDbTextStyleTableRecord
  2
STANDARD
 70
0
 40
0.0
 41
1.0
 50
0.0
 71
0
 42
0.2
  3
arial.ttf
  4

  0
STYLE
  5
218
100
AcDbSymbolTableRecord
100
AcDbTextStyleTableRecord
  2
TEXTSTYLE_1
 70
0
 40
0.0
 41
0.8
 50
0.0
 71
0
 42
0.2
  3
gdt
  4

  0
ENDTAB
  0
TABLE
  2
VIEW
  5
6
100
AcDbSymbolTable
 70
0
  0
ENDTAB
  0
TABLE
  2
UCS
  5
7
100
AcDbSymbolTable
 70
0
  0
ENDTAB
  0
TABLE
  2
APPID
  5
9
100
AcDbSymbolTable
 70
1
  0
APPID
  5
219
100
AcDbSymbolTableRecord
100
AcDbRegAppTableRecord
  2
ACAD
 70
0
  0
ENDTAB
  0
TABLE
  2
BLOCK_RECORD
  5
1
100
AcDbSymbolTable
 70
0
  0
BLOCK_RECORD
  5
21A
100
AcDbSymbolTableRecord
100
AcDbBlockTableRecord
  2
*Model_Space
  0
BLOCK_RECORD
  5
21B
100
AcDbSymbolTableRecord
100
AcDbBlockTableRecord
  2
*Paper_Space
  0
ENDTAB
  0
TABLE
  2
DIMSTYLE
  5
A
100
AcDbSymbolTable
 70
1
100
AcDbDimStyleTable
 71
0
  0
DIMSTYLE
105
21C
100
AcDbSymbolTableRecord
100
AcDbDimStyleTableRecord
  2
STANDARD
 70
0
  3

  4

 40
1.0
 41
2.0
 42
0.0625
 43
0.38
 44
0.18
 45
0.0
 46
0.0
 47
0.01
 48
0.01
140
2.0
141
0.09
142
0.0
143
25.4
144
1.0
145
0.0
146
1.0
147
0.09
 71
0.0
 72
0.0
 73
1
 74
1
 75
0
 76
0
 77
0
 78
8
170
0
171
2
172
0
173
0
174
0
175
0
176
0
177
0
178
0
270
2
271
2
272
2
273
2
274
2
275
0
280
0
281
0
282
0
283
1
284
8
285
0
286
0
287
3
288
0
340
11
  0
ENDTAB
  0
ENDSEC
  0
SECTION
  2
BLOCKS
  0
BLOCK
  5
20
100
AcDbEntity
  8
0
100
AcDbBlockBegin
  2
*Model_Space
 70
0
 10
0.0
 20
0.0
 30
0.0
  3
*Model_Space
  1

  0
ENDBLK
  5
21
100
AcDbEntity
  8
0
100
AcDbBlockEnd
  0
BLOCK
  5
1C
100
AcDbEntity
  8
0
100
AcDbBlockBegin
  2
*Paper_Space
 70
0
 10
0.0
 20
0.0
 30
0.0
  3
*Paper_Space
  1

  0
ENDBLK
  5
1D
100
AcDbEntity
  8
0
100
AcDbBlockEnd
  0
ENDSEC
  0
SECTION
  2
ENTITIES
  0
LINE
  5
21D
100
AcDbEntity
  8
0
100
AcDbLine
 62
7
  6
CONTINUOUS
 10
624.5710828153
 20
64.5075103233
 11
632.8553295043
 21
56.2232619916
  0
LINE
  5
21E
100
AcDbEntity
  8
0
100
AcDbLine
 62
7
  6
CONTINUOUS
 10
618.7132198867
 20
282.0811478783
 11
618.7132198867
 21
78.6496445702
  0
LINE
  5
21F
100
AcDbEntity
  8
0
100
AcDbLine
 62
9
  6
CONTINUOUS
 10
624.5710828153
 20
64.5075103233
 11
624.5710828153
 21
296.2232821253
  0
LINE
  5
220
100
AcDbEntity
  8
0
100
AcDbLine
 62
9
  6
CONTINUOUS
 10
632.8553295286
 20
304.5075304689
 11
632.8553295286
 21
56.2232619796
  0
LINE
  5
221
100
AcDbEntity
  8
0
100
AcDbLine
 62
9
  6
CONTINUOUS
 10
646.9974665319
 20
310.3653962114
 11
646.9974665319
 21
50.3653962371
  0
LINE
  5
222
100
AcDbEntity
  8
0
100
AcDbLine
 62
7
  6
CONTINUOUS
 10
688.7132198867
 20
60.3653962243
 11
698.7132198867
 21
50.3653962243
  0
LINE
  5
223
100
AcDbEntity
  8
0
100
AcDbLine
 62
7
  6
CONTINUOUS
 10
688.7132198867
 20
310.3638725871
 11
688.7132198867
 21
50.3669198614
  0
LINE
  5
224
100
AcDbEntity
  8
0
100
AcDbLine
 62
7
  6
CONTINUOUS
 10
698.7132198867
 20
310.3653962243
 11
698.7132198867
 21
50.3653962243
  0
LINE
  5
225
100
AcDbEntity
  8
0
100
AcDbLine
 62
7
  6
CONTINUOUS
 10
703.7132198867
 20
20.3653962243
 11
703.7132198867
 21
24.3653962243
  0
LINE
  5
226
100
AcDbEntity
  8
0
100
AcDbLine
 62
9
  6
CONTINUOUS
 10
718.7132198867
 20
20.3653962243
 11
718.7132198867
 21
24.3653962243
  0
LINE
  5
227
100
AcDbEntity
  8
0
100
AcDbLine
 62
9
  6
CONTINUOUS
 10
739.7132198867
 20
24.3653962243
 11
739.7132198867
 21
20.3653962243
  0
LINE
  5
228
100
AcDbEntity
  8
0
100
AcDbLine
 62
3
  6
CONTINUOUS
 10
743.7132198867
 20
40.3653962243
 11
743.7132198867
 21
28.3653962243
  0
LINE
  5
229
100
AcDbEntity
  8
0
100
AcDbLine
 62
7
  6
CONTINUOUS
 10
624.5710828153
 20
296.2232821253
 11
632.8553295043
 21
304.507530457
  0
LINE
  5
22A
100
AcDbEntity
  8
0
100
AcDbLine
 62
7
  6
CONTINUOUS
 10
747.7132198867
 20
40.3653962243
 11
747.7132198867
 21
28.3653962243
  0
LINE
  5
22B
100
AcDbEntity
  8
0
100
AcDbLine
 62
7
  6
CONTINUOUS
 10
749.7132198867
 20
48.3653962243
 11
749.7132198867
 21
63.3653962243
  0
LINE
  5
22C
100
AcDbEntity
  8
0
100
AcDbLine
 62
9
  6
CONTINUOUS
 10
751.7132198867
 20
48.3653962243
 11
751.7132198867
 21
44.3653962243
  0
LINE
  5
22D
100
AcDbEntity
  8
0
100
AcDbLine
 62
7
  6
CONTINUOUS
 10
688.7132198867
 20
300.3653962243
 11
698.7132198867
 21
310.3653962243
  0
LINE
  5
22E
100
AcDbEntity
  8
0
100
AcDbLine
 62
7
  6
CONTINUOUS
 10
1264.2132198867
 20
20.3653962243
 11
1214.2132198867
 21
20.3653962243
  0
LINE
  5
22F
100
AcDbEntity
  8
0
100
AcDbLine
 62
7
  6
CONTINUOUS
 10
1013.7132198867
 20
20.3653962243
 11
977.7132198867
 21
20.3653962243
  0
LINE
  5
230
100
AcDbEntity
  8
0
100
AcDbLine
 62
7
  6
CONTINUOUS
 10
739.7132198867
 20
20.3653962243
 11
703.7132198867
 21
20.3653962243
  0
LINE
  5
231
100
AcDbEntity
  8
0
100
AcDbLine
 62
7
  6
CONTINUOUS
 10
1319.2132198867
 20
23.3653962243
 11
1264.2132198867
 21
23.3653962243
  0
LINE
  5
232
100
AcDbEntity
  8
0
100
AcDbLine
 62
7
  6
CONTINUOUS
 10
1214.2132198867
 20
23.3653962243
 11
1159.2132198867
 21
23.3653962243
  0
LINE
  5
233
100
AcDbEntity
  8
0
100
AcDbLine
 62
3
  6
CONTINUOUS
 10
703.7132198867
 20
24.3653962243
 11
739.7132198867
 21
24.3653962243
  0
LINE
  5
234
100
AcDbEntity
  8
0
100
AcDbLine
 62
3
  6
CONTINUOUS
 10
977.7132198867
 20
24.3653962243
 11
1013.7132198867
 21
24.3653962243
  0
LINE
  5
235
100
AcDbEntity
  8
0
100
AcDbLine
 62
9
  6
CONTINUOUS
 10
973.7132198867
 20
28.3653962243
 11
969.7132198867
 21
28.3653962243
  0
LINE
  5
236
100
AcDbEntity
  8
0
100
AcDbLine
 62
9
  6
CONTINUOUS
 10
743.7132198867
 20
28.3653962243
 11
747.7132198867
 21
28.3653962243
  0
LINE
  5
237
100
AcDbEntity
  8
02___PRT_ALL_AXES
100
AcDbLine
 62
7
  6
CONTINUOUS
 10
1338.1076634183
 20
30.3653962243
 11
1354.2132198867
 21
30.3653962243
  0
LINE
  5
238
100
AcDbEntity
  8
0
100
AcDbLine
 62
9
  6
CONTINUOUS
 10
1214.2132198867
 20
35.3653962243
 11
1264.2132198867
 21
35.3653962243
  0
LINE
  5
239
100
AcDbEntity
  8
0
100
AcDbLine
 62
7
  6
CONTINUOUS
 10
1217.2132198867
 20
38.3653962243
 11
1261.2132198867
 21
38.3653962243
  0
LINE
  5
23A
100
AcDbEntity
  8
0
100
AcDbLine
 62
9
  6
CONTINUOUS
 10
973.7132198867
 20
40.3653962243
 11
969.7132198867
 21
40.3653962243
  0
LINE
  5
23B
100
AcDbEntity
  8
0
100
AcDbLine
 62
9
  6
CONTINUOUS
 10
743.7132198867
 20
40.3653962243
 11
747.7132198867
 21
40.3653962243
  0
LINE
  5
23C
100
AcDbEntity
  8
0
100
AcDbLine
 62
7
  6
CONTINUOUS
 10
965.7132198867
 20
44.3653962243
 11
751.7132198867
 21
44.3653962243
  0
LINE
  5
23D
100
AcDbEntity
  8
0
100
AcDbLine
 62
7
  6
CONTINUOUS
 10
1133.7132198867
 20
45.3653962243
 11
1124.7132198867
 21
45.3653962243
  0
LINE
  5
23E
100
AcDbEntity
  8
0
100
AcDbLine
 62
3
  6
CONTINUOUS
 10
965.7132198867
 20
48.3653962243
 11
751.7132198867
 21
48.3653962243
  0
LINE
  5
23F
100
AcDbEntity
  8
0
100
AcDbLine
 62
7
  6
CONTINUOUS
 10
749.7132198867
 20
48.3653962243
 11
751.7132198867
 21
48.3653962243
  0
LINE
  5
240
100
AcDbEntity
  8
0
100
AcDbLine
 62
7
  6
CONTINUOUS
 10
965.7132198867
 20
48.3653962243
 11
967.7132198867
 21
48.3653962243
  0
LINE
  5
241
100
AcDbEntity
  8
02___PRT_ALL_AXES
100
AcDbLine
 62
7
  6
CONTINUOUS
 10
646.9974665231
 20
50.3653962243
 11
688.7132198867
 21
50.3653962243
  0
LINE
  5
242
100
AcDbEntity
  8
02___PRT_ALL_AXES
100
AcDbLine
 62
7
  6
CONTINUOUS
 10
698.7132198867
 20
50.3653962243
 11
749.7132198867
 21
50.3653962243
  0
LINE
  5
243
100
AcDbEntity
  8
02___PRT_ALL_AXES
100
AcDbLine
 62
7
  6
CONTINUOUS
 10
967.7132198867
 20
50.3653962243
 11
1016.7132198237
 21
50.3653962243
  0
LINE
  5
244
100
AcDbEntity
  8
02___PRT_ALL_AXES
100
AcDbLine
 62
7
  6
CONTINUOUS
 10
1264.2132198867
 20
56.6735181207
 11
1214.2132198867
 21
56.6735181207
  0
LINE
  5
245
100
AcDbEntity
  8
3_ALL_AXES
100
AcDbLine
 62
7
  6
CONTINUOUS
 10
1134.2132198867
 20
57.8653962243
 11
1133.7132198867
 21
57.8653962243
  0
LINE
  5
246
100
AcDbEntity
  8
0
100
AcDbLine
 62
7
  6
CONTINUOUS
 10
749.7132198867
 20
63.3653962243
 11
967.7132198867
 21
63.3653962243
  0
LINE
  5
247
100
AcDbEntity
  8
3_ALL_AXES
100
AcDbLine
 62
7
  6
CONTINUOUS
 10
1049.7132198867
 20
80.3653962243
 11
1037.7132198867
 21
80.3653962243
  0
LINE
  5
248
100
AcDbEntity
  8
0
100
AcDbLine
 62
7
  6
CONTINUOUS
 10
1037.7132198867
 20
80.3653962243
 11
1118.7132198867
 21
80.3653962243
  0
LINE
  5
249
100
AcDbEntity
  8
0
100
AcDbLine
 62
9
  6
CONTINUOUS
 10
1051.7132198867
 20
82.3653962243
 11
1122.7132198867
 21
82.365396224
  0
LINE
  5
24A
100
AcDbEntity
  8
0
100
AcDbLine
 62
7
  6
CONTINUOUS
 10
846.7132198867
 20
289.9099077253
 11
846.7132198867
 21
360.3653962243
  0
LINE
  5
24B
100
AcDbEntity
  8
0
100
AcDbLine
 62
9
  6
CONTINUOUS
 10
1116.71784079
 20
104.1674375775
 11
1119.7132198867
 21
104.3338829651
  0
LINE
  5
24C
100
AcDbEntity
  8
02___PRT_ALL_AXES
100
AcDbLine
 62
7
  6
CONTINUOUS
 10
1354.2132198867
 20
90.3653962243
 11
1348.2132198867
 21
90.3653962243
  0
LINE
  5
24D
100
AcDbEntity
  8
0
100
AcDbLine
 62
7
  6
CONTINUOUS
 10
1054.7132198867
 20
90.3653962243
 11
1116.7132198867
 21
90.3653962243
  0
LINE
  5
24E
100
AcDbEntity
  8
0
100
AcDbLine
 62
9
  6
CONTINUOUS
 10
1122.7132198867
 20
91.4924128778
 11
1120.7110411764
 21
91.4924128781
  0
LINE
  5
24F
100
AcDbEntity
  8
0
100
AcDbLine
 62
9
  6
CONTINUOUS
 10
1051.7132198867
 20
93.3653962243
 11
1119.7132198867
 21
93.3653962243
  0
LINE
  5
250
100
AcDbEntity
  8
0
100
AcDbLine
 62
9
  6
CONTINUOUS
 10
1119.7132198867
 20
110.3654052537
 11
1122.7132198867
 21
110.3653962243
  0
LINE
  5
251
100
AcDbEntity
  8
0
100
AcDbLine
 62
9
  6
CONTINUOUS
 10
1036.7132198867
 20
120.3653962243
 11
1051.7132198867
 21
120.3653962243
  0
LINE
  5
252
100
AcDbEntity
  8
0
100
AcDbLine
 62
7
  6
CONTINUOUS
 10
1354.2132198867
 20
125.3653962243
 11
1348.2132198867
 21
125.3653962243
  0
LINE
  5
253
100
AcDbEntity
  8
0
100
AcDbLine
 62
9
  6
CONTINUOUS
 10
1079.9709959476
 20
136.762070663
 11
1055.7132198867
 21
136.762070663
  0
LINE
  5
254
100
AcDbEntity
  8
0
100
AcDbLine
 62
9
  6
CONTINUOUS
 10
1079.9709959476
 20
139.6370152055
 11
1055.7132198867
 21
139.6370152055
  0
LINE
  5
255
100
AcDbEntity
  8
0
100
AcDbLine
 62
9
  6
CONTINUOUS
 10
1344.2132198867
 20
150.3653962243
 11
1354.2132198867
 21
150.3653962243
  0
LINE
  5
256
100
AcDbEntity
  8
0
100
AcDbLine
 62
9
  6
CONTINUOUS
 10
1054.6643592541
 20
135.1803308522
 11
1051.7132198867
 21
135.7195677517
  0
LINE
  5
257
100
AcDbEntity
  8
0
100
AcDbLine
 62
9
  6
CONTINUOUS
 10
1051.7132198867
 20
172.3653962243
 11
1049.7132198867
 21
172.3653962243
  0
LINE
  5
258
100
AcDbEntity
  8
0
100
AcDbLine
 62
9
  6
CONTINUOUS
 10
1119.7132198867
 20
172.3653962243
 11
1122.7132198867
 21
172.3653962243
  0
LINE
  5
259
100
AcDbEntity
  8
0
100
AcDbLine
 62
9
  6
CONTINUOUS
 10
1055.7132198867
 20
172.8928687517
 11
1079.9709959476
 21
172.8928687517
  0
LINE
  5
25A
100
AcDbEntity
  8
0
100
AcDbLine
 62
7
  6
CONTINUOUS
 10
1119.7132198867
 20
175.3653962243
 11
1054.7132198867
 21
175.3653962243
  0
LINE
  5
25B
100
AcDbEntity
  8
0
100
AcDbLine
 62
9
  6
CONTINUOUS
 10
1054.7132198867
 20
177.3653962243
 11
1122.7132198867
 21
177.3653962245
  0
LINE
  5
25C
100
AcDbEntity
  8
0
100
AcDbLine
 62
9
  6
CONTINUOUS
 10
1134.2132198867
 20
180.3653962243
 11
1344.2132198867
 21
180.3653962243
  0
LINE
  5
25D
100
AcDbEntity
  8
0
100
AcDbLine
 62
9
  6
CONTINUOUS
 10
1054.7132198867
 20
183.3653962243
 11
1122.7132198867
 21
183.3653962241
  0
LINE
  5
25E
100
AcDbEntity
  8
0
100
AcDbLine
 62
7
  6
CONTINUOUS
 10
1054.7132198867
 20
185.3653962243
 11
1119.7132198867
 21
185.3653962243
  0
LINE
  5
25F
100
AcDbEntity
  8
0
100
AcDbLine
 62
9
  6
CONTINUOUS
 10
965.7132198867
 20
48.3653962243
 11
965.7132198867
 21
44.3653962243
  0
LINE
  5
260
100
AcDbEntity
  8
0
100
AcDbLine
 62
7
  6
CONTINUOUS
 10
967.7132198867
 20
48.3653962243
 11
967.7132198867
 21
63.3653962243
  0
LINE
  5
261
100
AcDbEntity
  8
0
100
AcDbLine
 62
7
  6
CONTINUOUS
 10
969.7132198867
 20
28.3653962243
 11
969.7132198867
 21
40.3653962243
  0
LINE
  5
262
100
AcDbEntity
  8
0
100
AcDbLine
 62
3
  6
CONTINUOUS
 10
973.7132198867
 20
28.3653962243
 11
973.7132198867
 21
40.3653962243
  0
LINE
  5
263
100
AcDbEntity
  8
0
100
AcDbLine
 62
9
  6
CONTINUOUS
 10
1079.9709959476
 20
187.8379236968
 11
1055.7132198867
 21
187.8379236968
  0
LINE
  5
264
100
AcDbEntity
  8
0
100
AcDbLine
 62
9
  6
CONTINUOUS
 10
1122.7132198867
 20
188.3653962243
 11
1119.7132198867
 21
188.3653962243
  0
LINE
  5
265
100
AcDbEntity
  8
0
100
AcDbLine
 62
9
  6
CONTINUOUS
 10
1051.7132198867
 20
188.3653962243
 11
1049.7132198867
 21
188.3653962245
  0
LINE
  5
266
100
AcDbEntity
  8
0
100
AcDbLine
 62
9
  6
CONTINUOUS
 10
977.7132198867
 20
24.3653962243
 11
977.7132198867
 21
20.3653962243
  0
LINE
  5
267
100
AcDbEntity
  8
0
100
AcDbLine
 62
7
  6
CONTINUOUS
 10
986.7132198867
 20
289.9099077253
 11
986.7132198867
 21
360.3653962243
  0
LINE
  5
268
100
AcDbEntity
  8
0
100
AcDbLine
 62
9
  6
CONTINUOUS
 10
998.7132198867
 20
20.3653962243
 11
998.7132198867
 21
24.3653962243
  0
LINE
  5
269
100
AcDbEntity
  8
0
100
AcDbLine
 62
9
  6
CONTINUOUS
 10
1054.6643592541
 20
225.5504615963
 11
1051.7132198867
 21
225.0112246968
  0
LINE
  5
26A
100
AcDbEntity
  8
0
100
AcDbLine
 62
9
  6
CONTINUOUS
 10
1344.2132198867
 20
220.3653962243
 11
1354.2132198867
 21
220.3653962243
  0
LINE
  5
26B
100
AcDbEntity
  8
0
100
AcDbLine
 62
9
  6
CONTINUOUS
 10
1055.7132198867
 20
221.093777243
 11
1079.9709959476
 21
221.093777243
  0
LINE
  5
26C
100
AcDbEntity
  8
0
100
AcDbLine
 62
9
  6
CONTINUOUS
 10
1055.7132198867
 20
223.9687217855
 11
1079.9709959476
 21
223.9687217855
  0
LINE
  5
26D
100
AcDbEntity
  8
02___PRT_ALL_AXES
100
AcDbLine
 62
7
  6
CONTINUOUS
 10
1442.2132198867
 20
226.3653962243
 11
1459.2132198867
 21
226.3653962243
  0
LINE
  5
26E
100
AcDbEntity
  8
0
100
AcDbLine
 62
9
  6
CONTINUOUS
 10
1036.7132198867
 20
240.3653962243
 11
1051.7132198867
 21
240.3653962243
  0
LINE
  5
26F
100
AcDbEntity
  8
0
100
AcDbLine
 62
7
  6
CONTINUOUS
 10
1354.2132198867
 20
245.3653962243
 11
1348.2132198867
 21
245.3653962243
  0
LINE
  5
270
100
AcDbEntity
  8
02___PRT_ALL_AXES
100
AcDbLine
 62
7
  6
CONTINUOUS
 10
1348.2132198867
 20
245.3653962243
 11
1354.2132198867
 21
245.3653962243
  0
LINE
  5
271
100
AcDbEntity
  8
0
100
AcDbLine
 62
9
  6
CONTINUOUS
 10
1122.7132198867
 20
250.3653962243
 11
1119.7132198867
 21
250.3653872315
  0
LINE
  5
272
100
AcDbEntity
  8
0
100
AcDbLine
 62
7
  6
CONTINUOUS
 10
1013.7132198867
 20
20.3653962243
 11
1013.7132198867
 21
24.3653962243
  0
LINE
  5
273
100
AcDbEntity
  8
0
100
AcDbLine
 62
7
  6
CONTINUOUS
 10
1016.7132199475
 20
310.3653962243
 11
1016.7132199475
 21
50.3653962243
  0
LINE
  5
274
100
AcDbEntity
  8
0
100
AcDbLine
 62
7
  6
CONTINUOUS
 10
1036.7132198867
 20
290.3641180368
 11
1036.7132198867
 21
70.3666744118
  0
LINE
  5
275
100
AcDbEntity
  8
0
100
AcDbLine
 62
9
  6
CONTINUOUS
 10
1037.7132198867
 20
80.3653962243
 11
1037.7132198867
 21
280.3653962243
  0
LINE
  5
276
100
AcDbEntity
  8
0
100
AcDbLine
 62
7
  6
CONTINUOUS
 10
1366.2132198867
 20
260.3653962243
 11
1344.2132198867
 21
260.3653962243
  0
LINE
  5
277
100
AcDbEntity
  8
0
100
AcDbLine
 62
9
  6
CONTINUOUS
 10
1051.7132198867
 20
267.3653962243
 11
1119.7132198867
 21
267.3653962243
  0
LINE
  5
278
100
AcDbEntity
  8
0
100
AcDbLine
 62
9
  6
CONTINUOUS
 10
1120.7110413235
 20
269.2383795705
 11
1122.7132198867
 21
269.2383795708
  0
LINE
  5
279
100
AcDbEntity
  8
0
100
AcDbLine
 62
7
  6
CONTINUOUS
 10
1116.7132198867
 20
270.3653962243
 11
1054.7132198867
 21
270.3653962243
  0
LINE
  5
27A
100
AcDbEntity
  8
0
100
AcDbLine
 62
9
  6
CONTINUOUS
 10
1369.2132198867
 20
275.3653962243
 11
1354.2132198867
 21
275.3653962243
  0
LINE
  5
27B
100
AcDbEntity
  8
0
100
AcDbLine
 62
9
  6
CONTINUOUS
 10
1134.2132198867
 20
277.2029019332
 11
1344.2132198867
 21
277.2029019332
  0
LINE
  5
27C
100
AcDbEntity
  8
0
100
AcDbLine
 62
9
  6
CONTINUOUS
 10
1051.7132198867
 20
278.3653962243
 11
1122.7132198867
 21
278.3653962245
  0
LINE
  5
27D
100
AcDbEntity
  8
0
100
AcDbLine
 62
9
  6
CONTINUOUS
 10
1354.2132198867
 20
280.3653962243
 11
1344.2132198867
 21
280.3653962243
  0
LINE
  5
27E
100
AcDbEntity
  8
0
100
AcDbLine
 62
7
  6
CONTINUOUS
 10
1118.7132198867
 20
280.3653962243
 11
1037.7132198867
 21
280.3653962243
  0
LINE
  5
27F
100
AcDbEntity
  8
02___PRT_ALL_AXES
100
AcDbLine
 62
7
  6
CONTINUOUS
 10
1371.2132198867
 20
282.3653962243
 11
1437.2132198867
 21
282.3653962243
  0
LINE
  5
280
100
AcDbEntity
  8
0
100
AcDbLine
 62
9
  6
CONTINUOUS
 10
1116.71784079
 20
256.563354871
 11
1119.7132198867
 21
256.3969094835
  0
LINE
  5
281
100
AcDbEntity
  8
0
100
AcDbLine
 62
9
  6
CONTINUOUS
 10
1083.3071208018
 20
225.2890933461
 11
1085.1132968251
 21
222.9810973207
  0
LINE
  5
282
100
AcDbEntity
  8
0
100
AcDbLine
 62
9
  6
CONTINUOUS
 10
1049.7132198867
 20
280.3653962243
 11
1049.7132198867
 21
188.3653962243
  0
LINE
  5
283
100
AcDbEntity
  8
0
100
AcDbLine
 62
9
  6
CONTINUOUS
 10
1049.7132198867
 20
172.3653962243
 11
1049.7132198867
 21
80.3653962243
  0
LINE
  5
284
100
AcDbEntity
  8
0
100
AcDbLine
 62
7
  6
CONTINUOUS
 10
1051.7132198867
 20
278.3653962243
 11
1051.7132198867
 21
188.3653962243
  0
LINE
  5
285
100
AcDbEntity
  8
0
100
AcDbLine
 62
7
  6
CONTINUOUS
 10
1051.7132198867
 20
172.3653962243
 11
1051.7132198867
 21
82.3653962243
  0
LINE
  5
286
100
AcDbEntity
  8
0
100
AcDbLine
 62
9
  6
CONTINUOUS
 10
1054.7132198867
 20
185.3653962243
 11
1054.7132198867
 21
183.3653962243
  0
LINE
  5
287
100
AcDbEntity
  8
0
100
AcDbLine
 62
9
  6
CONTINUOUS
 10
1054.7132198867
 20
134.9533934056
 11
1054.7132198867
 21
80.3653962243
  0
LINE
  5
288
100
AcDbEntity
  8
0
100
AcDbLine
 62
9
  6
CONTINUOUS
 10
1054.7132198867
 20
175.3653962243
 11
1054.7132198869
 21
177.3653962242
  0
LINE
  5
289
100
AcDbEntity
  8
0
100
AcDbLine
 62
9
  6
CONTINUOUS
 10
1054.7132198867
 20
225.7773990429
 11
1054.7132198869
 21
280.3653962243
  0
LINE
  5
28A
100
AcDbEntity
  8
0
100
AcDbLine
 62
9
  6
CONTINUOUS
 10
1055.7132198867
 20
223.9687217855
 11
1055.7132198867
 21
185.3653962243
  0
LINE
  5
28B
100
AcDbEntity
  8
0
100
AcDbLine
 62
9
  6
CONTINUOUS
 10
1055.7132198867
 20
136.762070663
 11
1055.7132198867
 21
175.3653962243
  0
LINE
  5
28C
100
AcDbEntity
  8
0
100
AcDbLine
 62
7
  6
CONTINUOUS
 10
846.7132198867
 20
289.9099077253
 11
986.7132198867
 21
289.9099077253
  0
LINE
  5
28D
100
AcDbEntity
  8
3_ALL_AXES
100
AcDbLine
 62
7
  6
CONTINUOUS
 10
1134.2132198867
 20
302.8653962243
 11
1133.7132198867
 21
302.8653962243
  0
LINE
  5
28E
100
AcDbEntity
  8
02___PRT_ALL_AXES
100
AcDbLine
 62
7
  6
CONTINUOUS
 10
646.9974665231
 20
310.3653962243
 11
688.7132198867
 21
310.3653962243
  0
LINE
  5
28F
100
AcDbEntity
  8
02___PRT_ALL_AXES
100
AcDbLine
 62
7
  6
CONTINUOUS
 10
698.7132198867
 20
310.3653962243
 11
846.7132198867
 21
310.3653962243
  0
LINE
  5
290
100
AcDbEntity
  8
02___PRT_ALL_AXES
100
AcDbLine
 62
7
  6
CONTINUOUS
 10
986.7132198867
 20
310.3653962243
 11
1016.7132198237
 21
310.3653962243
  0
LINE
  5
291
100
AcDbEntity
  8
0
100
AcDbLine
 62
7
  6
CONTINUOUS
 10
1133.7132198867
 20
315.3653962243
 11
1124.7132198867
 21
315.3653962243
  0
LINE
  5
292
100
AcDbEntity
  8
0
100
AcDbLine
 62
7
  6
CONTINUOUS
 10
1036.7132306394
 20
290.3654069263
 11
1016.713232533
 21
310.3654089336
  0
LINE
  5
293
100
AcDbEntity
  8
0
100
AcDbLine
 62
9
  6
CONTINUOUS
 10
1079.9709959476
 20
136.762070663
 11
1079.9709959476
 21
175.3653962243
  0
LINE
  5
294
100
AcDbEntity
  8
0
100
AcDbLine
 62
9
  6
CONTINUOUS
 10
1079.9709959476
 20
185.3653962243
 11
1079.9709959476
 21
223.9687217855
  0
LINE
  5
295
100
AcDbEntity
  8
0
100
AcDbLine
 62
9
  6
CONTINUOUS
 10
1085.1132968251
 20
137.7496951397
 11
1085.1132968251
 21
172.7593356752
  0
LINE
  5
296
100
AcDbEntity
  8
0
100
AcDbLine
 62
9
  6
CONTINUOUS
 10
1085.1132968251
 20
187.9714567734
 11
1085.1132968251
 21
222.9810973207
  0
LWPOLYLINE
  5
297
100
AcDbEntity
  8
0
100
AcDbPolyline
 62
7
  6
CONTINUOUS
 90
5
 70
0
 10
1203.969471256
 20
422.4137429444
 10
1203.4048692665
 20
421.607302303
 10
1202.4769051829
 20
420.8707355406
 10
1201.2073769501
 20
420.4194831679
 10
1200.5960570628
 20
420.365435652
  0
LINE
  5
298
100
AcDbEntity
  8
0
100
AcDbLine
 62
9
  6
CONTINUOUS
 10
1114.9337640385
 20
252.5137461695
 11
1116.8555207641
 21
250.2464243774
  0
LINE
  5
299
100
AcDbEntity
  8
0
100
AcDbLine
 62
9
  6
CONTINUOUS
 10
1115.1364389068
 20
252.6925453102
 11
1117.0591969174
 21
250.4239293347
  0
LINE
  5
29A
100
AcDbEntity
  8
0
100
AcDbLine
 62
9
  6
CONTINUOUS
 10
1116.7132198867
 20
88.3653717279
 11
1116.7132198867
 21
103.8814697529
  0
LINE
  5
29B
100
AcDbEntity
  8
0
100
AcDbLine
 62
9
  6
CONTINUOUS
 10
1116.7132198867
 20
256.8493226957
 11
1116.7132198867
 21
272.3654207246
  0
LINE
  5
29C
100
AcDbEntity
  8
0
100
AcDbLine
 62
9
  6
CONTINUOUS
 10
1116.8555207641
 20
110.4843680711
 11
1116.8555207641
 21
172.6161997214
  0
LINE
  5
29D
100
AcDbEntity
  8
0
100
AcDbLine
 62
9
  6
CONTINUOUS
 10
1116.8555207641
 20
188.1145927271
 11
1116.8555207641
 21
250.2464243774
  0
LINE
  5
29E
100
AcDbEntity
  8
0
100
AcDbLine
 62
9
  6
CONTINUOUS
 10
1118.7132198867
 20
80.3653962243
 11
1118.7132198867
 21
88.6717789842
  0
LINE
  5
29F
100
AcDbEntity
  8
0
100
AcDbLine
 62
9
  6
CONTINUOUS
 10
1118.7132198867
 20
272.059013704
 11
1118.7132198867
 21
280.3653962243
  0
LINE
  5
2A0
100
AcDbEntity
  8
0
100
AcDbLine
 62
7
  6
CONTINUOUS
 10
1119.7132198867
 20
93.3653962243
 11
1119.7132198867
 21
172.3653962243
  0
LINE
  5
2A1
100
AcDbEntity
  8
0
100
AcDbLine
 62
9
  6
CONTINUOUS
 10
1119.7132198867
 20
175.3653962243
 11
1119.7132198867
 21
185.3653962243
  0
LINE
  5
2A2
100
AcDbEntity
  8
0
100
AcDbLine
 62
7
  6
CONTINUOUS
 10
1119.7132198867
 20
188.3653962243
 11
1119.7132198867
 21
267.3653962243
  0
LINE
  5
2A3
100
AcDbEntity
  8
02___PRT_ALL_AXES
100
AcDbLine
 62
7
  6
CONTINUOUS
 10
1120.2132198867
 20
523.3653962243
 11
1120.2132198867
 21
540.3653962243
  0
LINE
  5
2A4
100
AcDbEntity
  8
0
100
AcDbLine
 62
9
  6
CONTINUOUS
 10
1121.2132198853
 20
110.3653962243
 11
1121.2132198867
 21
172.3653962243
  0
LINE
  5
2A5
100
AcDbEntity
  8
0
100
AcDbLine
 62
9
  6
CONTINUOUS
 10
1121.2132198867
 20
188.3653962243
 11
1121.2132198853
 21
250.3653962251
  0
LINE
  5
2A6
100
AcDbEntity
  8
0
100
AcDbLine
 62
7
  6
CONTINUOUS
 10
1122.7132198867
 20
313.3653962243
 11
1122.7132198867
 21
47.3653962243
  0
LINE
  5
2A7
100
AcDbEntity
  8
0
100
AcDbLine
 62
9
  6
CONTINUOUS
 10
1124.7132198867
 20
315.3653962243
 11
1124.7132198867
 21
45.3653962243
  0
LINE
  5
2A8
100
AcDbEntity
  8
0
100
AcDbLine
 62
7
  6
CONTINUOUS
 10
1133.7132198867
 20
315.3653962243
 11
1133.7132198867
 21
45.3653962243
  0
LINE
  5
2A9
100
AcDbEntity
  8
3_ALL_AXES
100
AcDbLine
 62
7
  6
CONTINUOUS
 10
1134.2132198867
 20
223.8951348674
 11
1134.2132198867
 21
73.6133010703
  0
LINE
  5
2AA
100
AcDbEntity
  8
0
100
AcDbLine
 62
7
  6
CONTINUOUS
 10
1134.2132198867
 20
48.3653962764
 11
1134.2132198867
 21
73.6133010703
  0
LINE
  5
2AB
100
AcDbEntity
  8
0
100
AcDbLine
 62
7
  6
CONTINUOUS
 10
1134.2132198867
 20
223.8951348674
 11
1134.2132198867
 21
395.3653962243
  0
LINE
  5
2AC
100
AcDbEntity
  8
0
100
AcDbLine
 62
7
  6
CONTINUOUS
 10
846.7132198867
 20
360.3653962243
 11
986.7132198867
 21
360.3653962243
  0
LINE
  5
2AD
100
AcDbEntity
  8
0
100
AcDbLine
 62
7
  6
CONTINUOUS
 10
1154.2132198867
 20
447.3653962243
 11
1154.2132198867
 21
420.3653962243
  0
LINE
  5
2AE
100
AcDbEntity
  8
0
100
AcDbLine
 62
9
  6
CONTINUOUS
 10
1159.2132198867
 20
23.3653962243
 11
1159.2132199132
 21
420.3653962243
  0
LINE
  5
2AF
100
AcDbEntity
  8
0
100
AcDbLine
 62
9
  6
CONTINUOUS
 10
1169.2132198867
 20
450.3653962243
 11
1169.2132198867
 21
435.3653962243
  0
LINE
  5
2B0
100
AcDbEntity
  8
0
100
AcDbLine
 62
9
  6
CONTINUOUS
 10
1174.2132198867
 20
435.3653962243
 11
1174.2132198867
 21
420.3653962243
  0
LWPOLYLINE
  5
2B1
100
AcDbEntity
  8
0
100
AcDbPolyline
 62
7
  6
CONTINUOUS
 90
3
 70
0
 10
1204.2132198867
 20
423.0484342869
 10
1204.2003980684
 20
422.9928574875
 10
1203.969471256
 20
422.4137429444
  0
LINE
  5
2B2
100
AcDbEntity
  8
0
100
AcDbLine
 62
9
  6
CONTINUOUS
 10
1083.3071178063
 20
135.441701447
 11
1085.1132968251
 21
137.7496951397
  0
LINE
  5
2B3
100
AcDbEntity
  8
02___PRT_ALL_AXES
100
AcDbLine
 62
7
  6
CONTINUOUS
 10
1371.2132198867
 20
398.3653962243
 11
1437.2132198867
 21
398.3653962243
  0
LINE
  5
2B4
100
AcDbEntity
  8
0
100
AcDbLine
 62
9
  6
CONTINUOUS
 10
1354.2132198867
 20
400.3653962243
 11
1339.3145878825
 21
400.3653962243
  0
LINE
  5
2B5
100
AcDbEntity
  8
0
100
AcDbLine
 62
9
  6
CONTINUOUS
 10
1369.2132198867
 20
405.3653962243
 11
1354.2132198867
 21
405.3653962243
  0
LINE
  5
2B6
100
AcDbEntity
  8
02___PRT_ALL_AXES
100
AcDbLine
 62
7
  6
CONTINUOUS
 10
1176.2132198867
 20
452.3653962243
 11
1176.2132198867
 21
518.3653962243
  0
LINE
  5
2B7
100
AcDbEntity
  8
0
100
AcDbLine
 62
7
  6
CONTINUOUS
 10
1204.2132199816
 20
422.1848255427
 11
1204.2140962802
 21
421.9413076329
  0
LINE
  5
2B8
100
AcDbEntity
  8
02___PRT_ALL_AXES
100
AcDbLine
 62
7
  6
CONTINUOUS
 10
1204.2132198867
 20
435.3653962243
 11
1204.2132198867
 21
422.1826729293
  0
LINE
  5
2B9
100
AcDbEntity
  8
0
100
AcDbLine
 62
7
  6
CONTINUOUS
 10
1036.7132306394
 20
70.3653855222
 11
1016.713232533
 21
50.3653835149
  0
LINE
  5
2BA
100
AcDbEntity
  8
0
100
AcDbLine
 62
7
  6
CONTINUOUS
 10
1200.5603543734
 20
420.3652759559
 11
1200.5960570628
 21
420.365435652
  0
LINE
  5
2BB
100
AcDbEntity
  8
0
100
AcDbLine
 62
9
  6
CONTINUOUS
 10
1268.2123186006
 20
418.3453223982
 11
1319.2132198867
 21
418.3453223982
  0
LINE
  5
2BC
100
AcDbEntity
  8
0
100
AcDbLine
 62
9
  6
CONTINUOUS
 10
1159.2132199203
 20
418.3453519594
 11
1200.2141211727
 21
418.3453223982
  0
LINE
  5
2BD
100
AcDbEntity
  8
0
100
AcDbLine
 62
7
  6
CONTINUOUS
 10
1366.2132198867
 20
420.3653962243
 11
1267.8660853998
 21
420.3653962243
  0
LINE
  5
2BE
100
AcDbEntity
  8
0
100
AcDbLine
 62
7
  6
CONTINUOUS
 10
1200.5603543735
 20
420.3653962243
 11
1154.2132198867
 21
420.3653962243
  0
LINE
  5
2BF
100
AcDbEntity
  8
02___PRT_ALL_AXES
100
AcDbLine
 62
7
  6
CONTINUOUS
 10
1294.2132198867
 20
435.3653962243
 11
1264.2132198867
 21
435.3653962243
  0
LINE
  5
2C0
100
AcDbEntity
  8
0
100
AcDbLine
 62
7
  6
CONTINUOUS
 10
1154.2132198867
 20
435.3653962243
 11
1204.2171225904
 21
435.3653962243
  0
LINE
  5
2C1
100
AcDbEntity
  8
02___PRT_ALL_AXES
100
AcDbLine
 62
7
  6
CONTINUOUS
 10
1174.2132198867
 20
435.3653962243
 11
1264.2091832956
 21
435.3653962243
  0
LINE
  5
2C2
100
AcDbEntity
  8
0
100
AcDbLine
 62
7
  6
CONTINUOUS
 10
1264.2132198867
 20
435.3653962243
 11
1314.2132198867
 21
435.3653962243
  0
LINE
  5
2C3
100
AcDbEntity
  8
0
100
AcDbLine
 62
9
  6
CONTINUOUS
 10
1154.2132198867
 20
447.3653962243
 11
1314.2132198867
 21
447.3653962243
  0
LINE
  5
2C4
100
AcDbEntity
  8
0
100
AcDbLine
 62
7
  6
CONTINUOUS
 10
1267.8660853985
 20
420.3653959832
 11
1267.8297081873
 21
420.3655622135
  0
LWPOLYLINE
  5
2C5
100
AcDbEntity
  8
0
100
AcDbPolyline
 62
7
  6
CONTINUOUS
 90
5
 70
0
 10
1267.8297069957
 20
420.3654417406
 10
1267.202401845
 20
420.422332419
 10
1265.9545658009
 20
420.8678853547
 10
1265.0582388605
 20
421.5680247221
 10
1264.4985925541
 20
422.3351264941
  0
LINE
  5
2C6
100
AcDbEntity
  8
0
100
AcDbLine
 62
7
  6
CONTINUOUS
 10
1214.2132198867
 20
20.3653962243
 11
1214.2132198867
 21
56.6735181207
  0
LINE
  5
2C7
100
AcDbEntity
  8
0
100
AcDbLine
 62
9
  6
CONTINUOUS
 10
1226.2132198867
 20
20.3653962243
 11
1226.2132198867
 21
38.3653962243
  0
LINE
  5
2C8
100
AcDbEntity
  8
0
100
AcDbLine
 62
9
  6
CONTINUOUS
 10
1114.9337640643
 20
108.2170462571
 11
1116.8555207641
 21
110.4843680711
  0
LINE
  5
2C9
100
AcDbEntity
  8
0
100
AcDbLine
 62
9
  6
CONTINUOUS
 10
1115.1364389068
 20
108.0382471383
 11
1117.0591969174
 21
110.3068631139
  0
LINE
  5
2CA
100
AcDbEntity
  8
0
100
AcDbLine
 62
7
  6
CONTINUOUS
 10
1157.2132198867
 20
450.3653962243
 11
1311.2132198867
 21
450.3653962243
  0
LINE
  5
2CB
100
AcDbEntity
  8
0
100
AcDbLine
 62
9
  6
CONTINUOUS
 10
1176.2132198867
 20
452.3653962243
 11
1292.2132198866
 21
452.3653962243
  0
LINE
  5
2CC
100
AcDbEntity
  8
02___PRT_ALL_AXES
100
AcDbLine
 62
7
  6
CONTINUOUS
 10
1442.2132198867
 20
454.3653962243
 11
1459.2132198867
 21
454.3653962243
  0
LINE
  5
2CD
100
AcDbEntity
  8
0
100
AcDbLine
 62
9
  6
CONTINUOUS
 10
1252.2132198867
 20
20.3653962243
 11
1252.2132198867
 21
38.3653962243
  0
LINE
  5
2CE
100
AcDbEntity
  8
0
100
AcDbLine
 62
7
  6
CONTINUOUS
 10
1264.2132198867
 20
56.6735181207
 11
1264.2132198867
 21
20.3653962243
  0
LINE
  5
2CF
100
AcDbEntity
  8
02___PRT_ALL_AXES
100
AcDbLine
 62
7
  6
CONTINUOUS
 10
1264.2132198867
 20
422.1826720116
 11
1264.2132198867
 21
435.3653962243
  0
LINE
  5
2D0
100
AcDbEntity
  8
0
100
AcDbLine
 62
7
  6
CONTINUOUS
 10
1264.2123434932
 20
421.9413076329
 11
1264.2132197826
 21
422.1848757387
  0
LINE
  5
2D1
100
AcDbEntity
  8
02___PRT_ALL_AXES
100
AcDbLine
 62
7
  6
CONTINUOUS
 10
1292.2132198867
 20
452.3653962243
 11
1292.2132198867
 21
518.3653962243
  0
LINE
  5
2D2
100
AcDbEntity
  8
0
100
AcDbLine
 62
9
  6
CONTINUOUS
 10
1294.2132198867
 20
435.3653962243
 11
1294.2132198867
 21
420.3653962243
  0
LINE
  5
2D3
100
AcDbEntity
  8
0
100
AcDbLine
 62
9
  6
CONTINUOUS
 10
1299.2132198867
 20
450.3653962243
 11
1299.2132198867
 21
435.3653962243
  0
LINE
  5
2D4
100
AcDbEntity
  8
0
100
AcDbLine
 62
9
  6
CONTINUOUS
 10
1292.2132198867
 20
518.3653962243
 11
1176.2132198867
 21
518.3653962243
  0
LINE
  5
2D5
100
AcDbEntity
  8
0
100
AcDbLine
 62
7
  6
CONTINUOUS
 10
1123.2132198867
 20
520.3653962243
 11
1345.2132198867
 21
520.3653962243
  0
LINE
  5
2D6
100
AcDbEntity
  8
0
100
AcDbLine
 62
9
  6
CONTINUOUS
 10
1348.2132198867
 20
523.3653962243
 11
1120.2132198867
 21
523.3653962243
  0
LINE
  5
2D7
100
AcDbEntity
  8
02___PRT_ALL_AXES
100
AcDbLine
 62
7
  6
CONTINUOUS
 10
1120.2138852886
 20
540.3653962243
 11
1348.2125544847
 21
540.3653962243
  0
LINE
  5
2D8
100
AcDbEntity
  8
0
100
AcDbLine
 62
7
  6
CONTINUOUS
 10
1264.4985925541
 20
422.3351264941
 11
1264.2438690634
 21
422.9325827483
  0
LINE
  5
2D9
100
AcDbEntity
  8
0
100
AcDbLine
 62
7
  6
CONTINUOUS
 10
1264.2438690634
 20
422.9325827483
 11
1264.2132198867
 21
423.0446910447
  0
LINE
  5
2DA
100
AcDbEntity
  8
0
100
AcDbLine
 62
7
  6
CONTINUOUS
 10
1314.2132198867
 20
447.3653962243
 11
1314.2132198867
 21
420.3653962243
  0
LINE
  5
2DB
100
AcDbEntity
  8
0
100
AcDbLine
 62
9
  6
CONTINUOUS
 10
1319.2132198867
 20
418.3453223982
 11
1319.2132198867
 21
23.3653962243
  0
LINE
  5
2DC
100
AcDbEntity
  8
0
100
AcDbLine
 62
7
  6
CONTINUOUS
 10
1344.2132198867
 20
382.1981399204
 11
1344.2132198867
 21
67.0637932197
  0
LINE
  5
2DD
100
AcDbEntity
  8
0
100
AcDbLine
 62
9
  6
CONTINUOUS
 10
1348.2132198867
 20
245.3653962243
 11
1348.2132198867
 21
125.3653962243
  0
LINE
  5
2DE
100
AcDbEntity
  8
0
100
AcDbLine
 62
9
  6
CONTINUOUS
 10
1348.2132198867
 20
90.3653962243
 11
1348.2132198867
 21
65.624122317
  0
LINE
  5
2DF
100
AcDbEntity
  8
02___PRT_ALL_AXES
100
AcDbLine
 62
7
  6
CONTINUOUS
 10
1348.2132198867
 20
523.3653962243
 11
1348.2132198867
 21
540.3653962243
  0
LINE
  5
2E0
100
AcDbEntity
  8
02___PRT_ALL_AXES
100
AcDbLine
 62
7
  6
CONTINUOUS
 10
1354.2132198867
 20
245.3653962243
 11
1354.2132198867
 21
125.3653962243
  0
LINE
  5
2E1
100
AcDbEntity
  8
02___PRT_ALL_AXES
100
AcDbLine
 62
7
  6
CONTINUOUS
 10
1354.2132198867
 20
90.3653962243
 11
1354.2132198867
 21
30.3653962243
  0
LINE
  5
2E2
100
AcDbEntity
  8
0
100
AcDbLine
 62
7
  6
CONTINUOUS
 10
1354.2132198867
 20
260.3653962243
 11
1354.2132198867
 21
420.3653962243
  0
LINE
  5
2E3
100
AcDbEntity
  8
0
100
AcDbLine
 62
9
  6
CONTINUOUS
 10
1366.2132198867
 20
420.3653962243
 11
1366.2132198867
 21
260.3653962243
  0
LINE
  5
2E4
100
AcDbEntity
  8
0
100
AcDbLine
 62
7
  6
CONTINUOUS
 10
1369.2132198867
 20
417.3653962243
 11
1369.2132198867
 21
263.3653962243
  0
LINE
  5
2E5
100
AcDbEntity
  8
0
100
AcDbLine
 62
9
  6
CONTINUOUS
 10
1371.2132198867
 20
398.3653962243
 11
1371.2132198867
 21
282.3653962243
  0
LINE
  5
2E6
100
AcDbEntity
  8
0
100
AcDbLine
 62
9
  6
CONTINUOUS
 10
1437.2132198867
 20
282.3653962243
 11
1437.2132198867
 21
398.3653962243
  0
LWPOLYLINE
  5
2E7
100
AcDbEntity
  8
0
100
AcDbPolyline
 62
7
  6
CONTINUOUS
 90
4
 70
0
 10
1335.501533259
 20
29.399878922
 10
1336.2734904335
 20
29.9200845387
 10
1337.5764546508
 20
30.3299664045
 10
1338.1076634171
 20
30.3653961569
  0
LINE
  5
2E8
100
AcDbEntity
  8
0
100
AcDbLine
 62
7
  6
CONTINUOUS
 10
1439.2132198867
 20
451.3653962243
 11
1439.2132198867
 21
229.3653962243
  0
LINE
  5
2E9
100
AcDbEntity
  8
0
100
AcDbLine
 62
9
  6
CONTINUOUS
 10
1442.2132198867
 20
226.3653962243
 11
1442.2132198867
 21
454.3653962243
  0
LINE
  5
2EA
100
AcDbEntity
  8
02___PRT_ALL_AXES
100
AcDbLine
 62
7
  6
CONTINUOUS
 10
1459.2132198867
 20
454.3647308223
 11
1459.2132198867
 21
226.3660616262
  0
LINE
  5
2EB
100
AcDbEntity
  8
0
100
AcDbLine
 62
7
  6
CONTINUOUS
 10
312.8506689624
 20
20.3653962243
 11
22.8506689624
 21
20.3653962243
  0
LINE
  5
2EC
100
AcDbEntity
  8
0
100
AcDbLine
 62
7
  6
CONTINUOUS
 10
265.3506689624
 20
23.3653962243
 11
70.3506689624
 21
23.3653962243
  0
LINE
  5
2ED
100
AcDbEntity
  8
0
100
AcDbLine
 62
9
  6
CONTINUOUS
 10
22.8506689624
 20
35.3653962243
 11
67.3506689624
 21
35.3653962243
  0
LINE
  5
2EE
100
AcDbEntity
  8
0
100
AcDbLine
 62
9
  6
CONTINUOUS
 10
268.3506689624
 20
35.3653962243
 11
312.8506689624
 21
35.3653962243
  0
LINE
  5
2EF
100
AcDbEntity
  8
0
100
AcDbLine
 62
7
  6
CONTINUOUS
 10
25.8506689624
 20
38.3653962243
 11
70.3506689624
 21
38.3653962243
  0
LINE
  5
2F0
100
AcDbEntity
  8
0
100
AcDbLine
 62
7
  6
CONTINUOUS
 10
265.3506689624
 20
38.3653962243
 11
309.8506689624
 21
38.3653962243
  0
LINE
  5
2F1
100
AcDbEntity
  8
0
100
AcDbLine
 62
9
  6
CONTINUOUS
 10
297.8506689624
 20
40.3653962243
 11
263.3506689624
 21
40.3653962243
  0
LINE
  5
2F2
100
AcDbEntity
  8
0
100
AcDbLine
 62
9
  6
CONTINUOUS
 10
72.3506689624
 20
40.3653962243
 11
37.8506689624
 21
40.3653962243
  0
LINE
  5
2F3
100
AcDbEntity
  8
0
100
AcDbLine
 62
7
  6
CONTINUOUS
 10
37.8506689624
 20
48.3653962243
 11
80.3506689624
 21
48.3653962243
  0
LINE
  5
2F4
100
AcDbEntity
  8
0
100
AcDbLine
 62
7
  6
CONTINUOUS
 10
270.3338763097
 20
48.3653962243
 11
297.8506689624
 21
48.3653962243
  0
LINE
  5
2F5
100
AcDbEntity
  8
0
100
AcDbLine
 62
9
  6
CONTINUOUS
 10
117.6251472076
 20
67.0637911913
 11
121.3571675312
 21
65.624090171
  0
LINE
  5
2F6
100
AcDbEntity
  8
0
100
AcDbLine
 62
7
  6
CONTINUOUS
 10
37.8506689624
 20
63.3653962243
 11
80.8312503098
 21
63.3653962243
  0
LINE
  5
2F7
100
AcDbEntity
  8
0
100
AcDbLine
 62
7
  6
CONTINUOUS
 10
289.869713027
 20
63.3653962243
 11
297.8506689624
 21
63.3653962243
  0
LINE
  5
2F8
100
AcDbEntity
  8
0
100
AcDbLine
 62
7
  6
CONTINUOUS
 10
22.8506689624
 20
20.3653962243
 11
22.8506689624
 21
35.3653962243
  0
LINE
  5
2F9
100
AcDbEntity
  8
0
100
AcDbLine
 62
7
  6
CONTINUOUS
 10
28.3506689624
 20
277.2029019332
 11
28.3506689624
 21
180.3653962243
  0
LINE
  5
2FA
100
AcDbEntity
  8
0
100
AcDbLine
 62
9
  6
CONTINUOUS
 10
34.8506689624
 20
20.3653962243
 11
34.8506689624
 21
38.3653962243
  0
LINE
  5
2FB
100
AcDbEntity
  8
0
100
AcDbLine
 62
3
  6
CONTINUOUS
 10
37.8506689624
 20
38.3653962243
 11
37.8506689624
 21
48.3653962243
  0
LINE
  5
2FC
100
AcDbEntity
  8
0
100
AcDbLine
 62
7
  6
CONTINUOUS
 10
37.8506689624
 20
48.3653962243
 11
37.8506689624
 21
63.3653962243
  0
LINE
  5
2FD
100
AcDbEntity
  8
0
100
AcDbLine
 62
9
  6
CONTINUOUS
 10
120.3506689624
 20
121.3653962243
 11
250.3506689624
 21
121.3653962243
  0
LINE
  5
2FE
100
AcDbEntity
  8
02___PRT_ALL_AXES
100
AcDbLine
 62
7
  6
CONTINUOUS
 10
120.3506689624
 20
125.3653962243
 11
250.3506689624
 21
125.3653962243
  0
LINE
  5
2FF
100
AcDbEntity
  8
02___PRT_ALL_AXES
100
AcDbLine
 62
7
  6
CONTINUOUS
 10
50.3506689624
 20
435.3653962243
 11
50.3506689624
 21
358.4433467295
  0
LINE
  5
300
100
AcDbEntity
  8
0
100
AcDbLine
 62
9
  6
CONTINUOUS
 10
53.3506689624
 20
277.2029019332
 11
53.3506689624
 21
180.3653962243
  0
LWPOLYLINE
  5
301
100
AcDbEntity
  8
0
100
AcDbPolyline
 62
7
  6
CONTINUOUS
 90
4
 70
0
 10
50.3506915657
 20
358.4433433416
 10
50.3483852457
 20
358.3075352454
 10
50.1983477732
 20
357.3499671563
 10
49.8243564113
 20
356.4600493957
  0
LINE
  5
302
100
AcDbEntity
  8
0
100
AcDbLine
 62
9
  6
CONTINUOUS
 10
279.3506689624
 20
150.3653962243
 11
275.3506689624
 21
150.3653962243
  0
LINE
  5
303
100
AcDbEntity
  8
0
100
AcDbLine
 62
9
  6
CONTINUOUS
 10
91.3506689624
 20
150.3653962243
 11
95.3506689624
 21
150.3653962243
  0
LINE
  5
304
100
AcDbEntity
  8
02___PRT_ALL_AXES
100
AcDbLine
 62
7
  6
CONTINUOUS
 10
251.5633189384
 20
38.0106106245
 11
265.3506689624
 21
24.2232606005
  0
LINE
  5
305
100
AcDbEntity
  8
02___PRT_ALL_AXES
100
AcDbLine
 62
7
  6
CONTINUOUS
 10
70.3506689624
 20
20.3653962243
 11
70.3506689624
 21
24.2232606005
  0
LINE
  5
306
100
AcDbEntity
  8
0
100
AcDbLine
 62
9
  6
CONTINUOUS
 10
53.3506689624
 20
180.3653962243
 11
28.3506689624
 21
180.3653962243
  0
LINE
  5
307
100
AcDbEntity
  8
0
100
AcDbLine
 62
9
  6
CONTINUOUS
 10
317.3506689624
 20
180.3653962243
 11
342.3506689624
 21
180.3653962243
  0
LINE
  5
308
100
AcDbEntity
  8
0
100
AcDbLine
 62
7
  6
CONTINUOUS
 10
268.3506689624
 20
35.3653962243
 11
260.9503875361
 21
42.7656776505
  0
LINE
  5
309
100
AcDbEntity
  8
0
100
AcDbLine
 62
9
  6
CONTINUOUS
 10
91.3506689624
 20
220.3653962243
 11
91.3506689624
 21
150.3653962243
  0
LINE
  5
30A
100
AcDbEntity
  8
02___PRT_ALL_AXES
100
AcDbLine
 62
7
  6
CONTINUOUS
 10
95.3506689624
 20
220.3653962243
 11
95.3506689624
 21
150.3653962243
  0
LINE
  5
30B
100
AcDbEntity
  8
0
100
AcDbLine
 62
7
  6
CONTINUOUS
 10
105.3506689624
 20
383.1887434912
 11
105.3506689624
 21
366.8272523444
  0
LINE
  5
30C
100
AcDbEntity
  8
0
100
AcDbLine
 62
7
  6
CONTINUOUS
 10
105.3506689624
 20
313.9036340652
 11
105.3506689624
 21
297.5421198364
  0
LINE
  5
30D
100
AcDbEntity
  8
0
100
AcDbLine
 62
9
  6
CONTINUOUS
 10
108.3506689624
 20
381.0690823145
 11
108.3506689624
 21
368.9218870224
  0
LINE
  5
30E
100
AcDbEntity
  8
0
100
AcDbLine
 62
9
  6
CONTINUOUS
 10
108.3506689624
 20
311.8096616597
 11
108.3506689624
 21
299.661138703
  0
LINE
  5
30F
100
AcDbEntity
  8
0
100
AcDbLine
 62
9
  6
CONTINUOUS
 10
120.3506689624
 20
246.779877292
 11
120.3506689624
 21
245.3653962243
  0
LINE
  5
310
100
AcDbEntity
  8
0
100
AcDbLine
 62
9
  6
CONTINUOUS
 10
120.3506689624
 20
121.3653962243
 11
120.3506689624
 21
125.3653962243
  0
LINE
  5
311
100
AcDbEntity
  8
0
100
AcDbLine
 62
7
  6
CONTINUOUS
 10
121.3506689624
 20
540.3653962243
 11
121.3506689624
 21
523.3653962243
  0
LINE
  5
312
100
AcDbEntity
  8
02___PRT_ALL_AXES
100
AcDbLine
 62
7
  6
CONTINUOUS
 10
121.3506689624
 20
523.3653962243
 11
121.3506689624
 21
540.3653962243
  0
LINE
  5
313
100
AcDbEntity
  8
0
100
AcDbLine
 62
9
  6
CONTINUOUS
 10
279.3506689624
 20
220.3653962243
 11
275.3506689624
 21
220.3653962243
  0
LINE
  5
314
100
AcDbEntity
  8
0
100
AcDbLine
 62
9
  6
CONTINUOUS
 10
91.3506689624
 20
220.3653962243
 11
95.3506689624
 21
220.3653962243
  0
LINE
  5
315
100
AcDbEntity
  8
0
100
AcDbLine
 62
7
  6
CONTINUOUS
 10
155.3506689624
 20
434.6745819175
 11
155.3506689624
 21
420.3653962243
  0
LINE
  5
316
100
AcDbEntity
  8
02___PRT_ALL_AXES
100
AcDbLine
 62
7
  6
CONTINUOUS
 10
250.3506689624
 20
245.3653962243
 11
248.1600579887
 21
245.3653962243
  0
LINE
  5
317
100
AcDbEntity
  8
02___PRT_ALL_AXES
100
AcDbLine
 62
7
  6
CONTINUOUS
 10
227.7610529864
 20
245.3653962243
 11
215.9668150394
 21
245.3653962243
  0
LINE
  5
318
100
AcDbEntity
  8
02___PRT_ALL_AXES
100
AcDbLine
 62
7
  6
CONTINUOUS
 10
154.7338375294
 20
245.3653962243
 11
142.940824413
 21
245.3653962243
  0
LINE
  5
319
100
AcDbEntity
  8
02___PRT_ALL_AXES
100
AcDbLine
 62
7
  6
CONTINUOUS
 10
122.541279936
 20
245.3653962243
 11
120.3506689624
 21
245.3653962243
  0
LINE
  5
31A
100
AcDbEntity
  8
0
100
AcDbLine
 62
9
  6
CONTINUOUS
 10
230.4590522161
 20
249.3653962243
 11
213.3757744717
 21
249.3653962243
  0
LINE
  5
31B
100
AcDbEntity
  8
0
100
AcDbLine
 62
9
  6
CONTINUOUS
 10
157.3253987565
 20
249.3653962243
 11
140.2417545052
 21
249.3653962243
  0
LINE
  5
31C
100
AcDbEntity
  8
0
100
AcDbLine
 62
7
  6
CONTINUOUS
 10
142.5273216954
 20
260.3653962243
 11
158.8888128423
 21
260.3653962243
  0
LINE
  5
31D
100
AcDbEntity
  8
0
100
AcDbLine
 62
7
  6
CONTINUOUS
 10
211.8124311214
 20
260.3653962243
 11
228.1739453502
 21
260.3653962243
  0
LINE
  5
31E
100
AcDbEntity
  8
0
100
AcDbLine
 62
7
  6
CONTINUOUS
 10
177.3506689624
 20
454.0340889902
 11
177.3506689624
 21
518.3653962243
  0
LINE
  5
31F
100
AcDbEntity
  8
02___PRT_ALL_AXES
100
AcDbLine
 62
7
  6
CONTINUOUS
 10
177.3506689624
 20
454.0340889902
 11
177.3506689624
 21
518.3653962243
  0
LINE
  5
320
100
AcDbEntity
  8
0
100
AcDbLine
 62
9
  6
CONTINUOUS
 10
144.6469828721
 20
263.3653962243
 11
156.7941781642
 21
263.3653962243
  0
LINE
  5
321
100
AcDbEntity
  8
0
100
AcDbLine
 62
9
  6
CONTINUOUS
 10
213.9064035269
 20
263.3653962243
 11
226.0549264836
 21
263.3653962243
  0
LINE
  5
322
100
AcDbEntity
  8
0
100
AcDbLine
 62
9
  6
CONTINUOUS
 10
53.3506689624
 20
277.2029019332
 11
28.3506689624
 21
277.2029019332
  0
LINE
  5
323
100
AcDbEntity
  8
0
100
AcDbLine
 62
9
  6
CONTINUOUS
 10
317.3506689624
 20
277.2029019332
 11
342.3506689624
 21
277.2029019323
  0
LINE
  5
324
100
AcDbEntity
  8
0
100
AcDbLine
 62
9
  6
CONTINUOUS
 10
250.3506689624
 20
246.7798776599
 11
250.3506689624
 21
245.3653962243
  0
LINE
  5
325
100
AcDbEntity
  8
0
100
AcDbLine
 62
9
  6
CONTINUOUS
 10
250.3506689624
 20
121.3653962243
 11
250.3506689624
 21
125.3653962243
  0
LINE
  5
326
100
AcDbEntity
  8
0
100
AcDbLine
 62
9
  6
CONTINUOUS
 10
262.3506689624
 20
299.661710134
 11
262.3506689624
 21
311.8089054261
  0
LINE
  5
327
100
AcDbEntity
  8
0
100
AcDbLine
 62
9
  6
CONTINUOUS
 10
262.3506689624
 20
368.9211307888
 11
262.3506689624
 21
381.0696537455
  0
LINE
  5
328
100
AcDbEntity
  8
02___PRT_ALL_AXES
100
AcDbLine
 62
7
  6
CONTINUOUS
 10
265.3506689624
 20
20.3653962243
 11
265.3506689624
 21
24.2232606005
  0
LINE
  5
329
100
AcDbEntity
  8
0
100
AcDbLine
 62
7
  6
CONTINUOUS
 10
265.3506689624
 20
297.5420489573
 11
265.3506689624
 21
313.9035401042
  0
LINE
  5
32A
100
AcDbEntity
  8
0
100
AcDbLine
 62
7
  6
CONTINUOUS
 10
265.3506689624
 20
366.8271583833
 11
265.3506689624
 21
383.1886726121
  0
LINE
  5
32B
100
AcDbEntity
  8
02___PRT_ALL_AXES
100
AcDbLine
 62
7
  6
CONTINUOUS
 10
275.3506689624
 20
150.3653962243
 11
275.3506689624
 21
220.3653962243
  0
LINE
  5
32C
100
AcDbEntity
  8
0
100
AcDbLine
 62
9
  6
CONTINUOUS
 10
275.3506689624
 20
410.0660286221
 11
275.3506689624
 21
420.3653962243
  0
LINE
  5
32D
100
AcDbEntity
  8
0
100
AcDbLine
 62
9
  6
CONTINUOUS
 10
279.3506689624
 20
150.3653962243
 11
279.3506689624
 21
220.3653962243
  0
LINE
  5
32E
100
AcDbEntity
  8
0
100
AcDbLine
 62
7
  6
CONTINUOUS
 10
88.6587908588
 20
56.6735181207
 11
67.3506689624
 21
35.3653962243
  0
LINE
  5
32F
100
AcDbEntity
  8
02___PRT_ALL_AXES
100
AcDbLine
 62
7
  6
CONTINUOUS
 10
70.3506689624
 20
24.2232606005
 11
96.828514395
 21
50.7011060332
  0
LINE
  5
330
100
AcDbEntity
  8
0
100
AcDbLine
 62
7
  6
CONTINUOUS
 10
293.3506689624
 20
452.3653962243
 11
293.3506689624
 21
518.3653962243
  0
LINE
  5
331
100
AcDbEntity
  8
02___PRT_ALL_AXES
100
AcDbLine
 62
7
  6
CONTINUOUS
 10
293.3506689624
 20
452.3653962243
 11
293.3506689624
 21
518.3653962243
  0
LINE
  5
332
100
AcDbEntity
  8
0
100
AcDbLine
 62
9
  6
CONTINUOUS
 10
295.3506689624
 20
435.3653962243
 11
295.3506689624
 21
420.3653962243
  0
LINE
  5
333
100
AcDbEntity
  8
0
100
AcDbLine
 62
7
  6
CONTINUOUS
 10
295.3506689624
 20
389.2252211379
 11
295.3506689624
 21
420.3653962243
  0
LINE
  5
334
100
AcDbEntity
  8
0
100
AcDbLine
 62
3
  6
CONTINUOUS
 10
297.8506689624
 20
38.3653962243
 11
297.8506689624
 21
48.3653962243
  0
LINE
  5
335
100
AcDbEntity
  8
0
100
AcDbLine
 62
7
  6
CONTINUOUS
 10
297.8506689624
 20
48.3653962243
 11
297.8506689624
 21
63.3653962243
  0
LINE
  5
336
100
AcDbEntity
  8
0
100
AcDbLine
 62
9
  6
CONTINUOUS
 10
300.3506689624
 20
450.3653962243
 11
300.3506689624
 21
435.3653962243
  0
LINE
  5
337
100
AcDbEntity
  8
0
100
AcDbLine
 62
9
  6
CONTINUOUS
 10
300.8506689624
 20
20.3653962243
 11
300.8506689624
 21
38.3653962243
  0
LINE
  5
338
100
AcDbEntity
  8
0
100
AcDbLine
 62
7
  6
CONTINUOUS
 10
312.8506689624
 20
35.3653962243
 11
312.8506689624
 21
20.3653962243
  0
LINE
  5
339
100
AcDbEntity
  8
0
100
AcDbLine
 62
7
  6
CONTINUOUS
 10
315.3506689624
 20
447.3653962243
 11
315.3506689624
 21
420.3653962243
  0
LINE
  5
33A
100
AcDbEntity
  8
0
100
AcDbLine
 62
9
  6
CONTINUOUS
 10
317.3506689624
 20
180.3653962243
 11
317.3506689624
 21
277.2029019332
  0
LINE
  5
33B
100
AcDbEntity
  8
0
100
AcDbLine
 62
9
  6
CONTINUOUS
 10
226.0543550526
 20
417.3653962243
 11
213.9071597605
 21
417.3653962243
  0
LINE
  5
33C
100
AcDbEntity
  8
0
100
AcDbLine
 62
9
  6
CONTINUOUS
 10
156.7949343978
 20
417.3653962243
 11
144.6464114411
 21
417.3653962243
  0
LINE
  5
33D
100
AcDbEntity
  8
0
100
AcDbLine
 62
7
  6
CONTINUOUS
 10
315.3506689624
 20
420.3653962243
 11
266.3641687885
 21
420.3653962243
  0
LINE
  5
33E
100
AcDbEntity
  8
0
100
AcDbLine
 62
7
  6
CONTINUOUS
 10
228.1740162293
 20
420.3653962243
 11
211.8125250825
 21
420.3653962243
  0
LINE
  5
33F
100
AcDbEntity
  8
0
100
AcDbLine
 62
7
  6
CONTINUOUS
 10
158.8889068033
 20
420.3653962243
 11
142.5273925745
 21
420.3653962243
  0
LINE
  5
340
100
AcDbEntity
  8
0
100
AcDbLine
 62
9
  6
CONTINUOUS
 10
140.9212525528
 20
424.3653962243
 11
155.3506680298
 21
424.3653962243
  0
LINE
  5
341
100
AcDbEntity
  8
0
100
AcDbLine
 62
7
  6
CONTINUOUS
 10
342.3506689624
 20
180.3653962243
 11
342.3506689624
 21
277.2029019332
  0
LINE
  5
342
100
AcDbEntity
  8
0
100
AcDbLine
 62
7
  6
CONTINUOUS
 10
349.3506689624
 20
540.3653962243
 11
349.3506689624
 21
523.3653962243
  0
LINE
  5
343
100
AcDbEntity
  8
02___PRT_ALL_AXES
100
AcDbLine
 62
7
  6
CONTINUOUS
 10
349.3506689624
 20
523.3653962243
 11
349.3506689624
 21
540.3653962243
  0
LINE
  5
344
100
AcDbEntity
  8
0
100
AcDbLine
 62
7
  6
CONTINUOUS
 10
315.3506689624
 20
435.3653962243
 11
248.1600579887
 21
435.3653962243
  0
LINE
  5
345
100
AcDbEntity
  8
0
100
AcDbLine
 62
7
  6
CONTINUOUS
 10
227.7605135117
 20
435.3653962243
 11
215.9675003954
 21
435.3653962243
  0
LINE
  5
346
100
AcDbEntity
  8
02___PRT_ALL_AXES
100
AcDbLine
 62
7
  6
CONTINUOUS
 10
50.3456198955
 20
435.3653962243
 11
122.541279936
 21
435.3653962243
  0
LINE
  5
347
100
AcDbEntity
  8
02___PRT_ALL_AXES
100
AcDbLine
 62
7
  6
CONTINUOUS
 10
142.9402849383
 20
435.3653962243
 11
154.7345228853
 21
435.3653962243
  0
LINE
  5
348
100
AcDbEntity
  8
0
100
AcDbLine
 62
9
  6
CONTINUOUS
 10
224.4886897542
 20
447.3653962243
 11
315.3506689624
 21
447.3653962243
  0
LINE
  5
349
100
AcDbEntity
  8
0
100
AcDbLine
 62
7
  6
CONTINUOUS
 10
214.426637427
 20
450.3653962243
 11
312.3506689624
 21
450.3653962243
  0
LINE
  5
34A
100
AcDbEntity
  8
0
100
AcDbLine
 62
9
  6
CONTINUOUS
 10
206.5597323369
 20
452.3653962243
 11
293.3506689624
 21
452.3653962243
  0
LINE
  5
34B
100
AcDbEntity
  8
0
100
AcDbLine
 62
9
  6
CONTINUOUS
 10
253.0761907172
 20
67.0637911914
 11
249.3442517108
 21
65.6241215306
  0
LINE
  5
34C
100
AcDbEntity
  8
0
100
AcDbLine
 62
9
  6
CONTINUOUS
 10
293.3506689624
 20
518.3653962243
 11
177.3506689624
 21
518.3653962243
  0
LINE
  5
34D
100
AcDbEntity
  8
0
100
AcDbLine
 62
7
  6
CONTINUOUS
 10
346.3506689624
 20
520.3653962243
 11
124.3506689624
 21
520.3653962243
  0
LINE
  5
34E
100
AcDbEntity
  8
0
100
AcDbLine
 62
9
  6
CONTINUOUS
 10
349.3506689624
 20
523.3653962243
 11
121.3506689624
 21
523.3653962243
  0
LINE
  5
34F
100
AcDbEntity
  8
02___PRT_ALL_AXES
100
AcDbLine
 62
7
  6
CONTINUOUS
 10
121.3506689624
 20
540.3653962243
 11
349.3506689624
 21
540.3653962243
  0
LINE
  5
350
100
AcDbEntity
  8
02___PRT_ALL_AXES
100
AcDbLine
 62
7
  6
CONTINUOUS
 10
-1075.8990187362
 20
226.3660616262
 11
-1075.8990187362
 21
454.3647308223
  0
LINE
  5
351
100
AcDbEntity
  8
0
100
AcDbLine
 62
9
  6
CONTINUOUS
 10
-1058.8990187362
 20
454.3653962243
 11
-1058.8990187362
 21
226.3653962243
  0
LINE
  5
352
100
AcDbEntity
  8
0
100
AcDbLine
 62
7
  6
CONTINUOUS
 10
-1055.8990187362
 20
229.3653962243
 11
-1055.8990187362
 21
451.3653962243
  0
LINE
  5
353
100
AcDbEntity
  8
0
100
AcDbLine
 62
9
  6
CONTINUOUS
 10
-1053.8990187362
 20
398.3653962243
 11
-1053.8990187362
 21
282.3653962243
  0
LINE
  5
354
100
AcDbEntity
  8
0
100
AcDbLine
 62
9
  6
CONTINUOUS
 10
-987.8990187362
 20
282.3653962243
 11
-987.8990187362
 21
398.3653962243
  0
LINE
  5
355
100
AcDbEntity
  8
0
100
AcDbLine
 62
7
  6
CONTINUOUS
 10
-985.8990187362
 20
263.3653962243
 11
-985.8990187362
 21
417.3653962243
  0
LINE
  5
356
100
AcDbEntity
  8
0
100
AcDbLine
 62
9
  6
CONTINUOUS
 10
-982.8990187362
 20
260.3653962243
 11
-982.8990187362
 21
420.3653962243
  0
LINE
  5
357
100
AcDbEntity
  8
02___PRT_ALL_AXES
100
AcDbLine
 62
7
  6
CONTINUOUS
 10
-970.8990187362
 20
30.3653962243
 11
-970.8990187362
 21
90.3653962243
  0
LINE
  5
358
100
AcDbEntity
  8
02___PRT_ALL_AXES
100
AcDbLine
 62
7
  6
CONTINUOUS
 10
-970.8990187362
 20
125.3653962243
 11
-970.8990187362
 21
245.3653962243
  0
LINE
  5
359
100
AcDbEntity
  8
0
100
AcDbLine
 62
7
  6
CONTINUOUS
 10
-970.8990187362
 20
260.3653962243
 11
-970.8990187362
 21
420.3653962243
  0
LINE
  5
35A
100
AcDbEntity
  8
0
100
AcDbLine
 62
9
  6
CONTINUOUS
 10
-964.8990187362
 20
65.624122317
 11
-964.8990187362
 21
90.3653962229
  0
LINE
  5
35B
100
AcDbEntity
  8
0
100
AcDbLine
 62
9
  6
CONTINUOUS
 10
-964.8990187362
 20
125.3653962243
 11
-964.8990187362
 21
245.3653962243
  0
LINE
  5
35C
100
AcDbEntity
  8
02___PRT_ALL_AXES
100
AcDbLine
 62
7
  6
CONTINUOUS
 10
-964.8990187362
 20
523.3653962243
 11
-964.8990187362
 21
540.3653962243
  0
LINE
  5
35D
100
AcDbEntity
  8
0
100
AcDbLine
 62
7
  6
CONTINUOUS
 10
-960.8990187362
 20
67.063793069
 11
-960.8990187362
 21
382.1981399204
  0
LINE
  5
35E
100
AcDbEntity
  8
0
100
AcDbLine
 62
9
  6
CONTINUOUS
 10
-935.8990187362
 20
23.3653962243
 11
-935.8990187362
 21
418.3453223982
  0
LINE
  5
35F
100
AcDbEntity
  8
0
100
AcDbLine
 62
7
  6
CONTINUOUS
 10
-930.8990187362
 20
447.3653962243
 11
-930.8990187362
 21
420.3653962243
  0
LINE
  5
360
100
AcDbEntity
  8
0
100
AcDbLine
 62
9
  6
CONTINUOUS
 10
-915.8990187362
 20
450.3653962243
 11
-915.8990187362
 21
435.3653962243
  0
LINE
  5
361
100
AcDbEntity
  8
0
100
AcDbLine
 62
7
  6
CONTINUOUS
 10
-320.3990187362
 20
20.3653962243
 11
-356.3990187362
 21
20.3653962243
  0
LINE
  5
362
100
AcDbEntity
  8
0
100
AcDbLine
 62
7
  6
CONTINUOUS
 10
-594.3990187362
 20
20.3653962243
 11
-630.3990187362
 21
20.3653962243
  0
LINE
  5
363
100
AcDbEntity
  8
0
100
AcDbLine
 62
7
  6
CONTINUOUS
 10
-830.8990187362
 20
20.3653962243
 11
-880.8990187362
 21
20.3653962243
  0
LWPOLYLINE
  5
364
100
AcDbEntity
  8
0
100
AcDbPolyline
 62
7
  6
CONTINUOUS
 90
4
 70
0
 10
-954.7934622666
 20
30.3653961569
 10
-954.2622535004
 20
30.3299664045
 10
-952.9592892831
 20
29.9200845387
 10
-952.1873321085
 20
29.399878922
  0
LINE
  5
365
100
AcDbEntity
  8
0
100
AcDbLine
 62
9
  6
CONTINUOUS
 10
-910.8990187362
 20
435.3653962243
 11
-910.8990187362
 21
420.3653962243
  0
LINE
  5
366
100
AcDbEntity
  8
0
100
AcDbLine
 62
7
  6
CONTINUOUS
 10
-910.8990187362
 20
405.8458185668
 11
-910.8990187362
 21
420.3653962243
  0
LINE
  5
367
100
AcDbEntity
  8
02___PRT_ALL_AXES
100
AcDbLine
 62
7
  6
CONTINUOUS
 10
-908.8990187362
 20
452.3653962243
 11
-908.8990187362
 21
518.3653962243
  0
LINE
  5
368
100
AcDbEntity
  8
0
100
AcDbLine
 62
9
  6
CONTINUOUS
 10
-890.8990187362
 20
389.2252211379
 11
-890.8990187362
 21
420.3653962243
  0
LINE
  5
369
100
AcDbEntity
  8
0
100
AcDbLine
 62
7
  6
CONTINUOUS
 10
-935.8990187362
 20
23.3653962243
 11
-880.8990187362
 21
23.3653962243
  0
LINE
  5
36A
100
AcDbEntity
  8
0
100
AcDbLine
 62
7
  6
CONTINUOUS
 10
-830.8990187362
 20
23.3653962243
 11
-775.8990187362
 21
23.3653962243
  0
LINE
  5
36B
100
AcDbEntity
  8
0
100
AcDbLine
 62
3
  6
CONTINUOUS
 10
-630.3990187362
 20
24.3653962243
 11
-594.3990187362
 21
24.3653962243
  0
LINE
  5
36C
100
AcDbEntity
  8
0
100
AcDbLine
 62
3
  6
CONTINUOUS
 10
-356.3990187362
 20
24.3653962243
 11
-320.3990187362
 21
24.3653962243
  0
LINE
  5
36D
100
AcDbEntity
  8
0
100
AcDbLine
 62
9
  6
CONTINUOUS
 10
-590.3990187362
 20
28.3653962243
 11
-586.3990187362
 21
28.3653962243
  0
LINE
  5
36E
100
AcDbEntity
  8
0
100
AcDbLine
 62
9
  6
CONTINUOUS
 10
-360.3990187362
 20
28.3653962243
 11
-364.3990187362
 21
28.3653962243
  0
LINE
  5
36F
100
AcDbEntity
  8
02___PRT_ALL_AXES
100
AcDbLine
 62
7
  6
CONTINUOUS
 10
-970.8990187362
 20
30.3653962243
 11
-954.7934622679
 21
30.3653962243
  0
LINE
  5
370
100
AcDbEntity
  8
0
100
AcDbLine
 62
9
  6
CONTINUOUS
 10
-880.8990187362
 20
35.3653962243
 11
-830.8990187362
 21
35.3653962243
  0
LINE
  5
371
100
AcDbEntity
  8
0
100
AcDbLine
 62
7
  6
CONTINUOUS
 10
-877.8990187362
 20
38.3653962243
 11
-833.8990187362
 21
38.3653962243
  0
LINE
  5
372
100
AcDbEntity
  8
0
100
AcDbLine
 62
9
  6
CONTINUOUS
 10
-590.3990187362
 20
40.3653962243
 11
-586.3990187362
 21
40.3653962243
  0
LINE
  5
373
100
AcDbEntity
  8
0
100
AcDbLine
 62
9
  6
CONTINUOUS
 10
-360.3990187362
 20
40.3653962243
 11
-364.3990187362
 21
40.3653962243
  0
LINE
  5
374
100
AcDbEntity
  8
02___PRT_ALL_AXES
100
AcDbLine
 62
7
  6
CONTINUOUS
 10
-880.8990187362
 20
42.7656776505
 11
-830.8990187362
 21
42.7656776505
  0
LINE
  5
375
100
AcDbEntity
  8
0
100
AcDbLine
 62
7
  6
CONTINUOUS
 10
-582.3990187362
 20
44.3653962243
 11
-368.3990187362
 21
44.3653962243
  0
LINE
  5
376
100
AcDbEntity
  8
0
100
AcDbLine
 62
7
  6
CONTINUOUS
 10
-750.3990187362
 20
45.3653962243
 11
-741.3990187362
 21
45.3653962243
  0
LINE
  5
377
100
AcDbEntity
  8
0
100
AcDbLine
 62
7
  6
CONTINUOUS
 10
-584.3990187362
 20
48.3653962243
 11
-582.3990187362
 21
48.3653962243
  0
LINE
  5
378
100
AcDbEntity
  8
0
100
AcDbLine
 62
3
  6
CONTINUOUS
 10
-582.3990187362
 20
48.3653962243
 11
-368.3990187362
 21
48.3653962243
  0
LINE
  5
379
100
AcDbEntity
  8
0
100
AcDbLine
 62
7
  6
CONTINUOUS
 10
-368.3990187362
 20
48.3653962243
 11
-366.3990187362
 21
48.3653962243
  0
LINE
  5
37A
100
AcDbEntity
  8
02___PRT_ALL_AXES
100
AcDbLine
 62
7
  6
CONTINUOUS
 10
-263.6832653727
 20
50.3653962243
 11
-305.3990187362
 21
50.3653962243
  0
LINE
  5
37B
100
AcDbEntity
  8
02___PRT_ALL_AXES
100
AcDbLine
 62
7
  6
CONTINUOUS
 10
-315.3990187362
 20
50.3653962243
 11
-366.3990187362
 21
50.3653962243
  0
LINE
  5
37C
100
AcDbEntity
  8
02___PRT_ALL_AXES
100
AcDbLine
 62
7
  6
CONTINUOUS
 10
-584.3990187362
 20
50.3653962243
 11
-633.3990186732
 21
50.3653962243
  0
LINE
  5
37D
100
AcDbEntity
  8
0
100
AcDbLine
 62
7
  6
CONTINUOUS
 10
-880.8990187362
 20
20.3653962243
 11
-880.8990187362
 21
42.7656776505
  0
LINE
  5
37E
100
AcDbEntity
  8
0
100
AcDbLine
 62
9
  6
CONTINUOUS
 10
-868.8990187362
 20
20.3653962243
 11
-868.8990187362
 21
38.3653962243
  0
LINE
  5
37F
100
AcDbEntity
  8
3_ALL_AXES
100
AcDbLine
 62
7
  6
CONTINUOUS
 10
-750.8990187362
 20
57.8653962243
 11
-750.3990187362
 21
57.8653962243
  0
LINE
  5
380
100
AcDbEntity
  8
0
100
AcDbLine
 62
7
  6
CONTINUOUS
 10
-584.3990187362
 20
63.3653962243
 11
-366.3990187362
 21
63.3653962243
  0
LINE
  5
381
100
AcDbEntity
  8
0
100
AcDbLine
 62
7
  6
CONTINUOUS
 10
-735.3990187362
 20
80.3653962243
 11
-654.3990187362
 21
80.3653962243
  0
LINE
  5
382
100
AcDbEntity
  8
0
100
AcDbLine
 62
9
  6
CONTINUOUS
 10
-668.3990187362
 20
82.3653962243
 11
-739.3990187362
 21
82.365396224
  0
LINE
  5
383
100
AcDbEntity
  8
0
100
AcDbLine
 62
9
  6
CONTINUOUS
 10
-842.8990187362
 20
20.3653962243
 11
-842.8990187362
 21
38.3653962243
  0
LINE
  5
384
100
AcDbEntity
  8
0
100
AcDbLine
 62
7
  6
CONTINUOUS
 10
-830.8990187362
 20
20.3653962243
 11
-830.8990187362
 21
42.7656776505
  0
LINE
  5
385
100
AcDbEntity
  8
0
100
AcDbLine
 62
7
  6
CONTINUOUS
 10
-733.3990187362
 20
90.3653962243
 11
-671.3990187362
 21
90.3653962243
  0
LINE
  5
386
100
AcDbEntity
  8
02___PRT_ALL_AXES
100
AcDbLine
 62
7
  6
CONTINUOUS
 10
-964.8990187362
 20
90.3653962243
 11
-970.8990187362
 21
90.3653962243
  0
LINE
  5
387
100
AcDbEntity
  8
0
100
AcDbLine
 62
9
  6
CONTINUOUS
 10
-737.3968401731
 20
91.4924128781
 11
-739.3990187362
 21
91.4924128778
  0
LINE
  5
388
100
AcDbEntity
  8
0
100
AcDbLine
 62
9
  6
CONTINUOUS
 10
-668.3990187362
 20
93.3653962243
 11
-736.3990187362
 21
93.3653962243
  0
LINE
  5
389
100
AcDbEntity
  8
0
100
AcDbLine
 62
9
  6
CONTINUOUS
 10
-736.3990187362
 20
110.365405217
 11
-739.3990187362
 21
110.3653962243
  0
LINE
  5
38A
100
AcDbEntity
  8
0
100
AcDbLine
 62
9
  6
CONTINUOUS
 10
-733.4036396395
 20
104.1674375775
 11
-736.3990187362
 21
104.3338829651
  0
LINE
  5
38B
100
AcDbEntity
  8
0
100
AcDbLine
 62
9
  6
CONTINUOUS
 10
-731.8222377564
 20
108.0382471383
 11
-733.744995767
 21
110.3068631139
  0
LINE
  5
38C
100
AcDbEntity
  8
0
100
AcDbLine
 62
9
  6
CONTINUOUS
 10
-731.6195628881
 20
108.217046279
 11
-733.5413196137
 21
110.4843680711
  0
LINE
  5
38D
100
AcDbEntity
  8
0
100
AcDbLine
 62
9
  6
CONTINUOUS
 10
-810.8990187362
 20
389.2252211379
 11
-810.8990187362
 21
420.3653962243
  0
LINE
  5
38E
100
AcDbEntity
  8
02___PRT_ALL_AXES
100
AcDbLine
 62
7
  6
CONTINUOUS
 10
-792.8990187362
 20
452.3653962243
 11
-792.8990187362
 21
518.3653962243
  0
LINE
  5
38F
100
AcDbEntity
  8
0
100
AcDbLine
 62
9
  6
CONTINUOUS
 10
-790.8990187362
 20
435.3653962243
 11
-790.8990187362
 21
420.3653962243
  0
LINE
  5
390
100
AcDbEntity
  8
0
100
AcDbLine
 62
7
  6
CONTINUOUS
 10
-790.8990187362
 20
405.8458185668
 11
-790.8990187362
 21
420.3653962243
  0
LINE
  5
391
100
AcDbEntity
  8
0
100
AcDbLine
 62
9
  6
CONTINUOUS
 10
-785.8990187362
 20
450.3653962243
 11
-785.8990187362
 21
435.3653962243
  0
LINE
  5
392
100
AcDbEntity
  8
0
100
AcDbLine
 62
9
  6
CONTINUOUS
 10
-671.3501581037
 20
135.1803308522
 11
-668.3990187362
 21
135.7195677517
  0
LINE
  5
393
100
AcDbEntity
  8
0
100
AcDbLine
 62
9
  6
CONTINUOUS
 10
-653.3990187362
 20
120.3653962243
 11
-668.3990187362
 21
120.3653962243
  0
LINE
  5
394
100
AcDbEntity
  8
0
100
AcDbLine
 62
7
  6
CONTINUOUS
 10
-970.8990187362
 20
125.3653962243
 11
-964.8990187362
 21
125.3653962243
  0
LINE
  5
395
100
AcDbEntity
  8
02___PRT_ALL_AXES
100
AcDbLine
 62
7
  6
CONTINUOUS
 10
-964.8990187362
 20
125.3653962243
 11
-970.8990187362
 21
125.3653962243
  0
LINE
  5
396
100
AcDbEntity
  8
0
100
AcDbLine
 62
9
  6
CONTINUOUS
 10
-672.3990187362
 20
136.762070663
 11
-696.6567947971
 21
136.762070663
  0
LINE
  5
397
100
AcDbEntity
  8
0
100
AcDbLine
 62
9
  6
CONTINUOUS
 10
-672.3990187362
 20
139.6370152055
 11
-696.6567947971
 21
139.6370152055
  0
LINE
  5
398
100
AcDbEntity
  8
0
100
AcDbLine
 62
9
  6
CONTINUOUS
 10
-960.8990187362
 20
150.3653962243
 11
-970.8990187362
 21
150.3653962243
  0
LINE
  5
399
100
AcDbEntity
  8
0
100
AcDbLine
 62
7
  6
CONTINUOUS
 10
-653.399029489
 20
70.3653855222
 11
-633.3990313826
 21
50.3653835149
  0
LINE
  5
39A
100
AcDbEntity
  8
0
100
AcDbLine
 62
9
  6
CONTINUOUS
 10
-775.8990187362
 20
418.3453519561
 11
-775.8990187362
 21
23.3653962243
  0
LINE
  5
39B
100
AcDbEntity
  8
0
100
AcDbLine
 62
7
  6
CONTINUOUS
 10
-770.8990187362
 20
447.3653962243
 11
-770.8990187362
 21
420.3653962243
  0
LINE
  5
39C
100
AcDbEntity
  8
0
100
AcDbLine
 62
7
  6
CONTINUOUS
 10
-750.8990187362
 20
395.3653962243
 11
-750.8990187362
 21
48.3653962764
  0
LINE
  5
39D
100
AcDbEntity
  8
0
100
AcDbLine
 62
7
  6
CONTINUOUS
 10
-750.3990187362
 20
45.3653962243
 11
-750.3990187362
 21
315.3653962243
  0
LINE
  5
39E
100
AcDbEntity
  8
0
100
AcDbLine
 62
9
  6
CONTINUOUS
 10
-739.3990187362
 20
172.3653962243
 11
-736.3990187362
 21
172.3653962243
  0
LINE
  5
39F
100
AcDbEntity
  8
0
100
AcDbLine
 62
9
  6
CONTINUOUS
 10
-668.3990187362
 20
172.3653962243
 11
-666.3990187363
 21
172.365396224
  0
LINE
  5
3A0
100
AcDbEntity
  8
0
100
AcDbLine
 62
9
  6
CONTINUOUS
 10
-696.6567947971
 20
172.8928687517
 11
-672.3990187362
 21
172.8928687517
  0
LINE
  5
3A1
100
AcDbEntity
  8
0
100
AcDbLine
 62
7
  6
CONTINUOUS
 10
-671.3990187362
 20
175.3653962243
 11
-736.3990187362
 21
175.3653962243
  0
LINE
  5
3A2
100
AcDbEntity
  8
0
100
AcDbLine
 62
9
  6
CONTINUOUS
 10
-671.3990187362
 20
177.3653962243
 11
-739.3990187362
 21
177.3653962245
  0
LINE
  5
3A3
100
AcDbEntity
  8
0
100
AcDbLine
 62
9
  6
CONTINUOUS
 10
-750.8990187362
 20
180.3653962243
 11
-960.8990187362
 21
180.3653962243
  0
LINE
  5
3A4
100
AcDbEntity
  8
0
100
AcDbLine
 62
9
  6
CONTINUOUS
 10
-671.3990187362
 20
183.3653962243
 11
-739.3990187362
 21
183.3653962241
  0
LINE
  5
3A5
100
AcDbEntity
  8
0
100
AcDbLine
 62
7
  6
CONTINUOUS
 10
-736.3990187362
 20
185.3653962243
 11
-671.3990187362
 21
185.3653962243
  0
LINE
  5
3A6
100
AcDbEntity
  8
0
100
AcDbLine
 62
9
  6
CONTINUOUS
 10
-699.9929196513
 20
135.4416991024
 11
-701.7990956746
 21
137.7496951279
  0
LINE
  5
3A7
100
AcDbEntity
  8
0
100
AcDbLine
 62
9
  6
CONTINUOUS
 10
-741.3990187362
 20
45.3653962243
 11
-741.3990187362
 21
315.3653962243
  0
LINE
  5
3A8
100
AcDbEntity
  8
0
100
AcDbLine
 62
7
  6
CONTINUOUS
 10
-739.3990187362
 20
47.3653962243
 11
-739.3990187362
 21
313.3653962243
  0
LINE
  5
3A9
100
AcDbEntity
  8
0
100
AcDbLine
 62
9
  6
CONTINUOUS
 10
-737.8990187348
 20
250.3653962243
 11
-737.8990187362
 21
188.3653962243
  0
LINE
  5
3AA
100
AcDbEntity
  8
0
100
AcDbLine
 62
9
  6
CONTINUOUS
 10
-737.8990187362
 20
172.3653962243
 11
-737.8990187348
 21
110.3653962235
  0
LINE
  5
3AB
100
AcDbEntity
  8
02___PRT_ALL_AXES
100
AcDbLine
 62
7
  6
CONTINUOUS
 10
-736.8990187362
 20
523.3653962243
 11
-736.8990187362
 21
540.3653962243
  0
LINE
  5
3AC
100
AcDbEntity
  8
0
100
AcDbLine
 62
7
  6
CONTINUOUS
 10
-736.3990187362
 20
267.3653962243
 11
-736.3990187362
 21
188.3653962243
  0
LINE
  5
3AD
100
AcDbEntity
  8
0
100
AcDbLine
 62
7
  6
CONTINUOUS
 10
-736.3990187362
 20
172.3653962243
 11
-736.3990187362
 21
93.3653962243
  0
LINE
  5
3AE
100
AcDbEntity
  8
0
100
AcDbLine
 62
9
  6
CONTINUOUS
 10
-736.3990187362
 20
175.3653962243
 11
-736.3990187362
 21
185.3653962243
  0
LINE
  5
3AF
100
AcDbEntity
  8
0
100
AcDbLine
 62
9
  6
CONTINUOUS
 10
-735.3990187362
 20
80.3653962243
 11
-735.3990187362
 21
88.6717787446
  0
LINE
  5
3B0
100
AcDbEntity
  8
0
100
AcDbLine
 62
9
  6
CONTINUOUS
 10
-735.3990187362
 20
272.0590134643
 11
-735.3990187362
 21
280.3653962243
  0
LINE
  5
3B1
100
AcDbEntity
  8
0
100
AcDbLine
 62
9
  6
CONTINUOUS
 10
-733.5413196137
 20
250.2464243774
 11
-733.5413196137
 21
188.1145927271
  0
LINE
  5
3B2
100
AcDbEntity
  8
0
100
AcDbLine
 62
9
  6
CONTINUOUS
 10
-733.5413196137
 20
172.6161997214
 11
-733.5413196137
 21
110.4843680711
  0
LINE
  5
3B3
100
AcDbEntity
  8
0
100
AcDbLine
 62
9
  6
CONTINUOUS
 10
-733.3990187362
 20
103.8814697529
 11
-733.3990187362
 21
88.365371724
  0
LINE
  5
3B4
100
AcDbEntity
  8
0
100
AcDbLine
 62
9
  6
CONTINUOUS
 10
-733.3990187362
 20
256.8493226957
 11
-733.3990187362
 21
272.3654207206
  0
LINE
  5
3B5
100
AcDbEntity
  8
0
100
AcDbLine
 62
9
  6
CONTINUOUS
 10
-672.3990187362
 20
187.8379236968
 11
-696.6567947971
 21
187.8379236968
  0
LINE
  5
3B6
100
AcDbEntity
  8
0
100
AcDbLine
 62
9
  6
CONTINUOUS
 10
-668.3990187362
 20
188.3653962243
 11
-666.3990187362
 21
188.3653962243
  0
LINE
  5
3B7
100
AcDbEntity
  8
0
100
AcDbLine
 62
9
  6
CONTINUOUS
 10
-736.3990187362
 20
188.3653962243
 11
-739.3990187362
 21
188.3653962243
  0
LINE
  5
3B8
100
AcDbEntity
  8
0
100
AcDbLine
 62
9
  6
CONTINUOUS
 10
-701.7990956746
 20
222.9810973088
 11
-701.7990956746
 21
187.9714567734
  0
LINE
  5
3B9
100
AcDbEntity
  8
0
100
AcDbLine
 62
9
  6
CONTINUOUS
 10
-701.7990956746
 20
172.7593356752
 11
-701.7990956746
 21
137.7496951279
  0
LINE
  5
3BA
100
AcDbEntity
  8
0
100
AcDbLine
 62
9
  6
CONTINUOUS
 10
-696.6567947971
 20
136.762070663
 11
-696.6567947971
 21
175.3653962243
  0
LINE
  5
3BB
100
AcDbEntity
  8
0
100
AcDbLine
 62
9
  6
CONTINUOUS
 10
-696.6567947971
 20
185.3653962243
 11
-696.6567947971
 21
223.9687217855
  0
LINE
  5
3BC
100
AcDbEntity
  8
0
100
AcDbLine
 62
9
  6
CONTINUOUS
 10
-733.744995767
 20
250.4239293347
 11
-731.8222377564
 21
252.6925453102
  0
LINE
  5
3BD
100
AcDbEntity
  8
0
100
AcDbLine
 62
9
  6
CONTINUOUS
 10
-733.5413196137
 20
250.2464243774
 11
-731.6195629139
 21
252.5137461914
  0
LINE
  5
3BE
100
AcDbEntity
  8
0
100
AcDbLine
 62
9
  6
CONTINUOUS
 10
-960.8990187362
 20
220.3653962243
 11
-970.8990187362
 21
220.3653962243
  0
LINE
  5
3BF
100
AcDbEntity
  8
0
100
AcDbLine
 62
9
  6
CONTINUOUS
 10
-696.6567947971
 20
221.093777243
 11
-672.3990187362
 21
221.093777243
  0
LINE
  5
3C0
100
AcDbEntity
  8
0
100
AcDbLine
 62
9
  6
CONTINUOUS
 10
-696.6567947971
 20
223.9687217855
 11
-672.3990187362
 21
223.9687217855
  0
LINE
  5
3C1
100
AcDbEntity
  8
02___PRT_ALL_AXES
100
AcDbLine
 62
7
  6
CONTINUOUS
 10
-1058.8990187362
 20
226.3653962243
 11
-1075.8990187362
 21
226.3653962243
  0
LINE
  5
3C2
100
AcDbEntity
  8
0
100
AcDbLine
 62
9
  6
CONTINUOUS
 10
-653.3990187362
 20
240.3653962243
 11
-668.3990187362
 21
240.3653962243
  0
LINE
  5
3C3
100
AcDbEntity
  8
0
100
AcDbLine
 62
7
  6
CONTINUOUS
 10
-970.8990187362
 20
245.3653962243
 11
-964.8990187362
 21
245.3653962243
  0
LINE
  5
3C4
100
AcDbEntity
  8
0
100
AcDbLine
 62
9
  6
CONTINUOUS
 10
-739.3990187362
 20
250.3653962243
 11
-736.3990187362
 21
250.3653871948
  0
LINE
  5
3C5
100
AcDbEntity
  8
0
100
AcDbLine
 62
9
  6
CONTINUOUS
 10
-668.3990187362
 20
225.0112246968
 11
-671.3501581037
 21
225.5504615963
  0
LINE
  5
3C6
100
AcDbEntity
  8
0
100
AcDbLine
 62
9
  6
CONTINUOUS
 10
-672.3990187362
 20
136.762070663
 11
-672.3990187362
 21
175.3653962243
  0
LINE
  5
3C7
100
AcDbEntity
  8
0
100
AcDbLine
 62
9
  6
CONTINUOUS
 10
-672.3990187362
 20
185.3653962243
 11
-672.3990187362
 21
223.9687217855
  0
LINE
  5
3C8
100
AcDbEntity
  8
0
100
AcDbLine
 62
9
  6
CONTINUOUS
 10
-671.3990187362
 20
185.3653962243
 11
-671.3990187365
 21
183.3653962243
  0
LINE
  5
3C9
100
AcDbEntity
  8
0
100
AcDbLine
 62
9
  6
CONTINUOUS
 10
-671.3990187365
 20
80.3653962243
 11
-671.3990187362
 21
134.9533934056
  0
LINE
  5
3CA
100
AcDbEntity
  8
0
100
AcDbLine
 62
9
  6
CONTINUOUS
 10
-671.3990187362
 20
175.3653962243
 11
-671.3990187362
 21
177.3653962243
  0
LINE
  5
3CB
100
AcDbEntity
  8
0
100
AcDbLine
 62
9
  6
CONTINUOUS
 10
-671.3990187362
 20
225.7773990429
 11
-671.3990187362
 21
280.3653962243
  0
LINE
  5
3CC
100
AcDbEntity
  8
0
100
AcDbLine
 62
7
  6
CONTINUOUS
 10
-668.3990187362
 20
82.3653962243
 11
-668.3990187362
 21
172.3653962243
  0
LINE
  5
3CD
100
AcDbEntity
  8
0
100
AcDbLine
 62
7
  6
CONTINUOUS
 10
-668.3990187362
 20
188.3653962243
 11
-668.3990187362
 21
278.3653962243
  0
LINE
  5
3CE
100
AcDbEntity
  8
0
100
AcDbLine
 62
9
  6
CONTINUOUS
 10
-666.3990187362
 20
80.3653962243
 11
-666.3990187362
 21
172.3653962243
  0
LINE
  5
3CF
100
AcDbEntity
  8
0
100
AcDbLine
 62
9
  6
CONTINUOUS
 10
-666.3990187362
 20
188.3653962243
 11
-666.3990187362
 21
280.3653962243
  0
LINE
  5
3D0
100
AcDbEntity
  8
0
100
AcDbLine
 62
9
  6
CONTINUOUS
 10
-654.3990187362
 20
280.3653962243
 11
-654.3990187362
 21
80.3653962243
  0
LINE
  5
3D1
100
AcDbEntity
  8
0
100
AcDbLine
 62
7
  6
CONTINUOUS
 10
-653.3990187362
 20
70.3666744118
 11
-653.3990187362
 21
290.3641180368
  0
LINE
  5
3D2
100
AcDbEntity
  8
0
100
AcDbLine
 62
9
  6
CONTINUOUS
 10
-701.7990956746
 20
222.9810973088
 11
-699.9929166559
 21
225.2890910015
  0
LINE
  5
3D3
100
AcDbEntity
  8
0
100
AcDbLine
 62
7
  6
CONTINUOUS
 10
-653.399029489
 20
290.3654069263
 11
-633.3990313826
 21
310.3654089336
  0
LINE
  5
3D4
100
AcDbEntity
  8
0
100
AcDbLine
 62
9
  6
CONTINUOUS
 10
-736.3990187362
 20
256.3969094835
 11
-733.4036396395
 21
256.563354871
  0
LINE
  5
3D5
100
AcDbEntity
  8
0
100
AcDbLine
 62
7
  6
CONTINUOUS
 10
-982.8990187362
 20
260.3653962243
 11
-960.8990187362
 21
260.3653962243
  0
LINE
  5
3D6
100
AcDbEntity
  8
0
100
AcDbLine
 62
9
  6
CONTINUOUS
 10
-668.3990187362
 20
267.3653962243
 11
-736.3990187362
 21
267.3653962243
  0
LINE
  5
3D7
100
AcDbEntity
  8
0
100
AcDbLine
 62
9
  6
CONTINUOUS
 10
-739.3990187362
 20
269.2383795708
 11
-737.396840026
 21
269.2383795705
  0
LINE
  5
3D8
100
AcDbEntity
  8
0
100
AcDbLine
 62
7
  6
CONTINUOUS
 10
-671.3990187362
 20
270.3653962243
 11
-733.3990187362
 21
270.3653962243
  0
LINE
  5
3D9
100
AcDbEntity
  8
0
100
AcDbLine
 62
9
  6
CONTINUOUS
 10
-985.8990187362
 20
275.3653962243
 11
-970.8990187362
 21
275.3653962243
  0
LINE
  5
3DA
100
AcDbEntity
  8
0
100
AcDbLine
 62
9
  6
CONTINUOUS
 10
-750.8990187362
 20
277.2029019332
 11
-960.8990187362
 21
277.2029019332
  0
LINE
  5
3DB
100
AcDbEntity
  8
0
100
AcDbLine
 62
9
  6
CONTINUOUS
 10
-668.3990187362
 20
278.3653962243
 11
-739.3990187362
 21
278.3653962245
  0
LINE
  5
3DC
100
AcDbEntity
  8
0
100
AcDbLine
 62
9
  6
CONTINUOUS
 10
-970.8990187362
 20
280.3653962243
 11
-960.8990187362
 21
280.3653962243
  0
LINE
  5
3DD
100
AcDbEntity
  8
3_ALL_AXES
100
AcDbLine
 62
7
  6
CONTINUOUS
 10
-666.3990187362
 20
280.3653962243
 11
-654.3990187362
 21
280.3653962243
  0
LINE
  5
3DE
100
AcDbEntity
  8
0
100
AcDbLine
 62
7
  6
CONTINUOUS
 10
-654.3990187362
 20
280.3653962243
 11
-735.3990187362
 21
280.3653962243
  0
LINE
  5
3DF
100
AcDbEntity
  8
02___PRT_ALL_AXES
100
AcDbLine
 62
7
  6
CONTINUOUS
 10
-987.8990187362
 20
282.3653962243
 11
-1053.8990187362
 21
282.3653962243
  0
LINE
  5
3E0
100
AcDbEntity
  8
0
100
AcDbLine
 62
7
  6
CONTINUOUS
 10
-633.3990187971
 20
50.3653962243
 11
-633.3990187971
 21
310.3653962243
  0
LINE
  5
3E1
100
AcDbEntity
  8
0
100
AcDbLine
 62
7
  6
CONTINUOUS
 10
-630.3990187362
 20
20.3653962243
 11
-630.3990187362
 21
24.3653962243
  0
LINE
  5
3E2
100
AcDbEntity
  8
0
100
AcDbLine
 62
7
  6
CONTINUOUS
 10
-463.3990187362
 20
289.9099077253
 11
-603.3990187362
 21
289.9099077253
  0
LINE
  5
3E3
100
AcDbEntity
  8
3_ALL_AXES
100
AcDbLine
 62
7
  6
CONTINUOUS
 10
-750.8990187362
 20
302.8653962243
 11
-750.3990187362
 21
302.8653962243
  0
LINE
  5
3E4
100
AcDbEntity
  8
02___PRT_ALL_AXES
100
AcDbLine
 62
7
  6
CONTINUOUS
 10
-263.6832653727
 20
310.3653962243
 11
-305.3990187362
 21
310.3653962243
  0
LINE
  5
3E5
100
AcDbEntity
  8
02___PRT_ALL_AXES
100
AcDbLine
 62
7
  6
CONTINUOUS
 10
-315.3990187362
 20
310.3653962243
 11
-463.3990187362
 21
310.3653962243
  0
LINE
  5
3E6
100
AcDbEntity
  8
02___PRT_ALL_AXES
100
AcDbLine
 62
7
  6
CONTINUOUS
 10
-603.3990187362
 20
310.3653962243
 11
-633.3990186732
 21
310.3653962243
  0
LINE
  5
3E7
100
AcDbEntity
  8
0
100
AcDbLine
 62
7
  6
CONTINUOUS
 10
-750.3990187362
 20
315.3653962243
 11
-741.3990187362
 21
315.3653962243
  0
LINE
  5
3E8
100
AcDbEntity
  8
0
100
AcDbLine
 62
9
  6
CONTINUOUS
 10
-615.3990187362
 20
20.3653962243
 11
-615.3990187362
 21
24.3653962243
  0
LINE
  5
3E9
100
AcDbEntity
  8
0
100
AcDbLine
 62
7
  6
CONTINUOUS
 10
-603.3990187362
 20
289.9099077253
 11
-603.3990187362
 21
360.3653962243
  0
LINE
  5
3EA
100
AcDbEntity
  8
0
100
AcDbLine
 62
9
  6
CONTINUOUS
 10
-594.3990187362
 20
24.3653962243
 11
-594.3990187362
 21
20.3653962243
  0
LINE
  5
3EB
100
AcDbEntity
  8
0
100
AcDbLine
 62
3
  6
CONTINUOUS
 10
-590.3990187362
 20
28.3653962243
 11
-590.3990187362
 21
40.3653962243
  0
LINE
  5
3EC
100
AcDbEntity
  8
0
100
AcDbLine
 62
7
  6
CONTINUOUS
 10
-586.3990187362
 20
28.3653962243
 11
-586.3990187362
 21
40.3653962243
  0
LINE
  5
3ED
100
AcDbEntity
  8
0
100
AcDbLine
 62
7
  6
CONTINUOUS
 10
-584.3990187362
 20
48.3653962243
 11
-584.3990187362
 21
63.3653962243
  0
LINE
  5
3EE
100
AcDbEntity
  8
0
100
AcDbLine
 62
9
  6
CONTINUOUS
 10
-582.3990187362
 20
48.3653962243
 11
-582.3990187362
 21
44.3653962243
  0
LINE
  5
3EF
100
AcDbEntity
  8
0
100
AcDbLine
 62
7
  6
CONTINUOUS
 10
-603.3990187362
 20
360.3653962243
 11
-463.3990187362
 21
360.3653962243
  0
LINE
  5
3F0
100
AcDbEntity
  8
0
100
AcDbLine
 62
7
  6
CONTINUOUS
 10
-890.8990187362
 20
389.2252211379
 11
-810.8990187362
 21
389.2252211379
  0
LINE
  5
3F1
100
AcDbEntity
  8
02___PRT_ALL_AXES
100
AcDbLine
 62
7
  6
CONTINUOUS
 10
-987.8990187362
 20
398.3653962243
 11
-1053.8990187362
 21
398.3653962243
  0
LINE
  5
3F2
100
AcDbEntity
  8
0
100
AcDbLine
 62
9
  6
CONTINUOUS
 10
-956.000386732
 20
400.3653962243
 11
-970.8990187362
 21
400.3653962243
  0
LINE
  5
3F3
100
AcDbEntity
  8
0
100
AcDbLine
 62
9
  6
CONTINUOUS
 10
-985.8990187362
 20
405.3653962243
 11
-970.8990187362
 21
405.3653962243
  0
LINE
  5
3F4
100
AcDbEntity
  8
0
100
AcDbLine
 62
9
  6
CONTINUOUS
 10
-910.8990187362
 20
418.3453223982
 11
-935.8990187362
 21
418.3453223982
  0
LINE
  5
3F5
100
AcDbEntity
  8
0
100
AcDbLine
 62
9
  6
CONTINUOUS
 10
-775.8990187699
 20
418.345351956
 11
-790.8990187362
 21
418.3453223982
  0
LINE
  5
3F6
100
AcDbEntity
  8
0
100
AcDbLine
 62
7
  6
CONTINUOUS
 10
-770.8990187362
 20
420.3653962243
 11
-982.8990187362
 21
420.3653962243
  0
LINE
  5
3F7
100
AcDbEntity
  8
0
100
AcDbLine
 62
7
  6
CONTINUOUS
 10
-770.8990187362
 20
435.3653962243
 11
-930.8990187362
 21
435.3653962243
  0
LINE
  5
3F8
100
AcDbEntity
  8
0
100
AcDbLine
 62
9
  6
CONTINUOUS
 10
-930.8990187362
 20
447.3653962243
 11
-770.8990187362
 21
447.3653962243
  0
LINE
  5
3F9
100
AcDbEntity
  8
0
100
AcDbLine
 62
7
  6
CONTINUOUS
 10
-463.3990187362
 20
289.9099077253
 11
-463.3990187362
 21
360.3653962243
  0
LINE
  5
3FA
100
AcDbEntity
  8
0
100
AcDbLine
 62
7
  6
CONTINUOUS
 10
-927.8990187362
 20
450.3653962243
 11
-773.8990187362
 21
450.3653962243
  0
LINE
  5
3FB
100
AcDbEntity
  8
0
100
AcDbLine
 62
9
  6
CONTINUOUS
 10
-908.8990187362
 20
452.3653962243
 11
-792.8990187362
 21
452.3653962243
  0
LINE
  5
3FC
100
AcDbEntity
  8
02___PRT_ALL_AXES
100
AcDbLine
 62
7
  6
CONTINUOUS
 10
-1058.8990187362
 20
454.3653962243
 11
-1075.8990187362
 21
454.3653962243
  0
LINE
  5
3FD
100
AcDbEntity
  8
0
100
AcDbLine
 62
9
  6
CONTINUOUS
 10
-792.8990187362
 20
518.3653962243
 11
-908.8990187362
 21
518.3653962243
  0
LINE
  5
3FE
100
AcDbEntity
  8
0
100
AcDbLine
 62
7
  6
CONTINUOUS
 10
-961.8990187362
 20
520.3653962243
 11
-739.8990187362
 21
520.3653962243
  0
LINE
  5
3FF
100
AcDbEntity
  8
0
100
AcDbLine
 62
9
  6
CONTINUOUS
 10
-736.8990187362
 20
523.3653962243
 11
-964.8990187362
 21
523.3653962243
  0
LINE
  5
400
100
AcDbEntity
  8
02___PRT_ALL_AXES
100
AcDbLine
 62
7
  6
CONTINUOUS
 10
-964.8983533343
 20
540.3653962243
 11
-736.8996841382
 21
540.3653962243
  0
LINE
  5
401
100
AcDbEntity
  8
0
100
AcDbLine
 62
7
  6
CONTINUOUS
 10
-305.3990187362
 20
300.3653962243
 11
-315.3990187362
 21
310.3653962243
  0
LINE
  5
402
100
AcDbEntity
  8
0
100
AcDbLine
 62
9
  6
CONTINUOUS
 10
-368.3990187362
 20
48.3653962243
 11
-368.3990187362
 21
44.3653962243
  0
LINE
  5
403
100
AcDbEntity
  8
0
100
AcDbLine
 62
7
  6
CONTINUOUS
 10
-366.3990187362
 20
48.3653962243
 11
-366.3990187362
 21
63.3653962243
  0
LINE
  5
404
100
AcDbEntity
  8
0
100
AcDbLine
 62
7
  6
CONTINUOUS
 10
-364.3990187362
 20
40.3653962243
 11
-364.3990187362
 21
28.3653962243
  0
LINE
  5
405
100
AcDbEntity
  8
0
100
AcDbLine
 62
3
  6
CONTINUOUS
 10
-360.3990187362
 20
40.3653962243
 11
-360.3990187362
 21
28.3653962243
  0
LINE
  5
406
100
AcDbEntity
  8
0
100
AcDbLine
 62
9
  6
CONTINUOUS
 10
-356.3990187362
 20
24.3653962243
 11
-356.3990187362
 21
20.3653962243
  0
LINE
  5
407
100
AcDbEntity
  8
0
100
AcDbLine
 62
9
  6
CONTINUOUS
 10
-335.3990187362
 20
20.3653962243
 11
-335.3990187362
 21
24.3653962243
  0
LINE
  5
408
100
AcDbEntity
  8
0
100
AcDbLine
 62
7
  6
CONTINUOUS
 10
-241.2568816648
 20
296.2232821253
 11
-249.5411283539
 21
304.507530457
  0
LINE
  5
409
100
AcDbEntity
  8
0
100
AcDbLine
 62
7
  6
CONTINUOUS
 10
-320.3990187362
 20
20.3653962243
 11
-320.3990187362
 21
24.3653962243
  0
LINE
  5
40A
100
AcDbEntity
  8
0
100
AcDbLine
 62
7
  6
CONTINUOUS
 10
-315.3990187362
 20
50.3653962243
 11
-315.3990187362
 21
310.3653962243
  0
LINE
  5
40B
100
AcDbEntity
  8
0
100
AcDbLine
 62
7
  6
CONTINUOUS
 10
-305.3990187362
 20
50.3669198614
 11
-305.3990187362
 21
310.3638725871
  0
LINE
  5
40C
100
AcDbEntity
  8
0
100
AcDbLine
 62
9
  6
CONTINUOUS
 10
-263.6832653815
 20
50.3653962371
 11
-263.6832653815
 21
310.3653962114
  0
LINE
  5
40D
100
AcDbEntity
  8
0
100
AcDbLine
 62
9
  6
CONTINUOUS
 10
-249.5411283782
 20
56.2232619796
 11
-249.5411283782
 21
304.5075304689
  0
LINE
  5
40E
100
AcDbEntity
  8
0
100
AcDbLine
 62
9
  6
CONTINUOUS
 10
-241.2568816648
 20
296.2232821253
 11
-241.2568816648
 21
64.5075103233
  0
LINE
  5
40F
100
AcDbEntity
  8
0
100
AcDbLine
 62
7
  6
CONTINUOUS
 10
-235.3990187362
 20
282.081147925
 11
-235.3990187362
 21
78.6496445235
  0
LINE
  5
410
100
AcDbEntity
  8
0
100
AcDbLine
 62
7
  6
CONTINUOUS
 10
-305.3990187362
 20
60.3653962243
 11
-315.3990187362
 21
50.3653962243
  0
LINE
  5
411
100
AcDbEntity
  8
0
100
AcDbLine
 62
7
  6
CONTINUOUS
 10
-241.2568816648
 20
64.5075103233
 11
-249.5411283539
 21
56.2232619916
  0
LINE
  5
412
100
AcDbEntity
  8
0
100
AcDbLine
 62
7
  6
CONTINUOUS
 10
1754.6685360305
 20
20.3653962243
 11
2044.6685360305
 21
20.3653962243
  0
LINE
  5
413
100
AcDbEntity
  8
0
100
AcDbLine
 62
3
  6
CONTINUOUS
 10
1769.6685360305
 20
24.3653962243
 11
2029.6685360305
 21
24.3653962243
  0
LINE
  5
414
100
AcDbEntity
  8
0
100
AcDbLine
 62
9
  6
CONTINUOUS
 10
1769.6685360305
 20
28.3653962243
 11
2029.6685360305
 21
28.3653962243
  0
LINE
  5
415
100
AcDbEntity
  8
0
100
AcDbLine
 62
9
  6
CONTINUOUS
 10
1754.6685360305
 20
35.3653962243
 11
1769.6685360305
 21
35.3653962243
  0
LINE
  5
416
100
AcDbEntity
  8
0
100
AcDbLine
 62
9
  6
CONTINUOUS
 10
2029.6685360305
 20
35.3653962243
 11
2044.6685360305
 21
35.3653962243
  0
LINE
  5
417
100
AcDbEntity
  8
0
100
AcDbLine
 62
7
  6
CONTINUOUS
 10
1757.6685360305
 20
38.3653962243
 11
1769.6685360305
 21
38.3653962243
  0
LINE
  5
418
100
AcDbEntity
  8
0
100
AcDbLine
 62
7
  6
CONTINUOUS
 10
2029.6685360305
 20
38.3653962243
 11
2041.6685360305
 21
38.3653962243
  0
LINE
  5
419
100
AcDbEntity
  8
0
100
AcDbLine
 62
9
  6
CONTINUOUS
 10
1769.6685360305
 20
40.3653962243
 11
2029.6685360305
 21
40.3653962243
  0
LINE
  5
41A
100
AcDbEntity
  8
0
100
AcDbLine
 62
7
  6
CONTINUOUS
 10
1769.6685360305
 20
48.3653962243
 11
2029.6685360305
 21
48.3653962243
  0
LINE
  5
41B
100
AcDbEntity
  8
0
100
AcDbLine
 62
7
  6
CONTINUOUS
 10
1769.6685360305
 20
63.3653962243
 11
1843.0028497645
 21
63.3653962243
  0
LINE
  5
41C
100
AcDbEntity
  8
0
100
AcDbLine
 62
7
  6
CONTINUOUS
 10
1956.3342222965
 20
63.3653962243
 11
2029.6685360305
 21
63.3653962243
  0
LINE
  5
41D
100
AcDbEntity
  8
0
100
AcDbLine
 62
7
  6
CONTINUOUS
 10
1718.1685360305
 20
540.3653962243
 11
1718.1685360305
 21
523.3653962243
  0
LINE
  5
41E
100
AcDbEntity
  8
02___PRT_ALL_AXES
100
AcDbLine
 62
7
  6
CONTINUOUS
 10
1718.1685360305
 20
523.3653962243
 11
1718.1685360305
 21
540.3653962243
  0
LINE
  5
41F
100
AcDbEntity
  8
0
100
AcDbLine
 62
7
  6
CONTINUOUS
 10
1725.1685360305
 20
277.2029019332
 11
1725.1685360305
 21
180.3653962243
  0
LINE
  5
420
100
AcDbEntity
  8
0
100
AcDbLine
 62
9
  6
CONTINUOUS
 10
1750.1685360305
 20
277.2029019332
 11
1750.1685360305
 21
180.3653962243
  0
LINE
  5
421
100
AcDbEntity
  8
0
100
AcDbLine
 62
7
  6
CONTINUOUS
 10
1752.1685360305
 20
447.3653962243
 11
1752.1685360305
 21
420.3653962243
  0
LINE
  5
422
100
AcDbEntity
  8
0
100
AcDbLine
 62
7
  6
CONTINUOUS
 10
1754.6685360305
 20
20.3653962243
 11
1754.6685360305
 21
35.3653962243
  0
LINE
  5
423
100
AcDbEntity
  8
0
100
AcDbLine
 62
9
  6
CONTINUOUS
 10
1766.6685360305
 20
20.3653962243
 11
1766.6685360305
 21
38.3653962243
  0
LINE
  5
424
100
AcDbEntity
  8
0
100
AcDbLine
 62
9
  6
CONTINUOUS
 10
1767.1685360305
 20
450.3653962243
 11
1767.1685360305
 21
435.3653962243
  0
LINE
  5
425
100
AcDbEntity
  8
0
100
AcDbLine
 62
3
  6
CONTINUOUS
 10
1769.6685360305
 20
48.3653962243
 11
1769.6685360305
 21
24.3653962243
  0
LINE
  5
426
100
AcDbEntity
  8
0
100
AcDbLine
 62
7
  6
CONTINUOUS
 10
1769.6685360305
 20
20.3653962243
 11
1769.6685360305
 21
24.3653962243
  0
LINE
  5
427
100
AcDbEntity
  8
0
100
AcDbLine
 62
7
  6
CONTINUOUS
 10
1769.6685360305
 20
48.3653962243
 11
1769.6685360305
 21
63.3653962243
  0
LINE
  5
428
100
AcDbEntity
  8
0
100
AcDbLine
 62
9
  6
CONTINUOUS
 10
1772.1685360305
 20
435.3653962243
 11
1772.1685360305
 21
420.3653962243
  0
LINE
  5
429
100
AcDbEntity
  8
0
100
AcDbLine
 62
7
  6
CONTINUOUS
 10
1772.1685360305
 20
389.2252211379
 11
1772.1685360305
 21
420.3653962243
  0
LINE
  5
42A
100
AcDbEntity
  8
0
100
AcDbLine
 62
7
  6
CONTINUOUS
 10
1774.1685360305
 20
452.3653962243
 11
1774.1685360305
 21
518.3653962243
  0
LINE
  5
42B
100
AcDbEntity
  8
02___PRT_ALL_AXES
100
AcDbLine
 62
7
  6
CONTINUOUS
 10
1774.1685360305
 20
452.3653962243
 11
1774.1685360305
 21
518.3653962243
  0
LINE
  5
42C
100
AcDbEntity
  8
0
100
AcDbLine
 62
9
  6
CONTINUOUS
 10
1750.1685360305
 20
180.3653962243
 11
1725.1685360305
 21
180.3653962243
  0
LINE
  5
42D
100
AcDbEntity
  8
0
100
AcDbLine
 62
9
  6
CONTINUOUS
 10
2034.5862976791
 20
180.3653962243
 11
2039.1685360305
 21
180.3653962243
  0
LINE
  5
42E
100
AcDbEntity
  8
0
100
AcDbLine
 62
9
  6
CONTINUOUS
 10
1784.6685360305
 20
20.3653962243
 11
1784.6685360305
 21
24.3653962243
  0
LINE
  5
42F
100
AcDbEntity
  8
0
100
AcDbLine
 62
9
  6
CONTINUOUS
 10
1792.1685360305
 20
405.8458185668
 11
1792.1685360305
 21
420.3653962243
  0
LINE
  5
430
100
AcDbEntity
  8
0
100
AcDbLine
 62
7
  6
CONTINUOUS
 10
1829.6685360305
 20
289.9099077253
 11
1829.6685360305
 21
360.3653962243
  0
LINE
  5
431
100
AcDbEntity
  8
0
100
AcDbLine
 62
9
  6
CONTINUOUS
 10
1750.1685360305
 20
277.2029019332
 11
1725.1685360305
 21
277.2029019332
  0
LINE
  5
432
100
AcDbEntity
  8
0
100
AcDbLine
 62
9
  6
CONTINUOUS
 10
2014.1685360305
 20
277.2029019332
 11
2039.1685360305
 21
277.2029019327
  0
LINE
  5
433
100
AcDbEntity
  8
0
100
AcDbLine
 62
7
  6
CONTINUOUS
 10
1890.1685360305
 20
452.3653962243
 11
1890.1685360305
 21
518.3653962243
  0
LINE
  5
434
100
AcDbEntity
  8
02___PRT_ALL_AXES
100
AcDbLine
 62
7
  6
CONTINUOUS
 10
1890.1685360305
 20
452.3653962243
 11
1890.1685360305
 21
518.3653962243
  0
LINE
  5
435
100
AcDbEntity
  8
0
100
AcDbLine
 62
9
  6
CONTINUOUS
 10
1892.1685360305
 20
435.3653962243
 11
1892.1685360305
 21
420.3653962243
  0
LINE
  5
436
100
AcDbEntity
  8
0
100
AcDbLine
 62
9
  6
CONTINUOUS
 10
1897.1685360305
 20
450.3653962243
 11
1897.1685360305
 21
435.3653962243
  0
LINE
  5
437
100
AcDbEntity
  8
0
100
AcDbLine
 62
7
  6
CONTINUOUS
 10
1912.1685360305
 20
447.3653962243
 11
1912.1685360305
 21
420.3653962243
  0
LINE
  5
438
100
AcDbEntity
  8
0
100
AcDbLine
 62
7
  6
CONTINUOUS
 10
1946.1685360305
 20
540.3653962243
 11
1946.1685360305
 21
523.3653962243
  0
LINE
  5
439
100
AcDbEntity
  8
02___PRT_ALL_AXES
100
AcDbLine
 62
7
  6
CONTINUOUS
 10
1946.1685360305
 20
523.3653962243
 11
1946.1685360305
 21
540.3653962243
  0
LINE
  5
43A
100
AcDbEntity
  8
0
100
AcDbLine
 62
7
  6
CONTINUOUS
 10
1829.6685360305
 20
360.3653962243
 11
1969.6685360305
 21
360.3653962243
  0
LINE
  5
43B
100
AcDbEntity
  8
0
100
AcDbLine
 62
7
  6
CONTINUOUS
 10
1969.6685360305
 20
289.9099077253
 11
1969.6685360305
 21
360.3653962243
  0
LINE
  5
43C
100
AcDbEntity
  8
0
100
AcDbLine
 62
9
  6
CONTINUOUS
 10
1941.0038139111
 20
395.3653962243
 11
1823.3332662438
 21
395.3653962243
  0
LINE
  5
43D
100
AcDbEntity
  8
0
100
AcDbLine
 62
9
  6
CONTINUOUS
 10
2014.1685360305
 20
251.7276908049
 11
2014.1685360305
 21
277.2029019332
  0
LINE
  5
43E
100
AcDbEntity
  8
0
100
AcDbLine
 62
9
  6
CONTINUOUS
 10
2014.6685360305
 20
20.3653962243
 11
2014.6685360305
 21
24.3653962243
  0
LINE
  5
43F
100
AcDbEntity
  8
02___PRT_ALL_AXES
100
AcDbLine
 62
7
  6
CONTINUOUS
 10
2017.1685360305
 20
358.4433467295
 11
2017.1685360305
 21
435.3653962243
  0
LINE
  5
440
100
AcDbEntity
  8
0
100
AcDbLine
 62
7
  6
CONTINUOUS
 10
1942.1685329974
 20
420.3653962243
 11
1752.1685360305
 21
420.3653962243
  0
LINE
  5
441
100
AcDbEntity
  8
0
100
AcDbLine
 62
9
  6
CONTINUOUS
 10
1912.1685367106
 20
424.3653962243
 11
1942.4471103523
 21
424.3653962243
  0
LINE
  5
442
100
AcDbEntity
  8
0
100
AcDbLine
 62
3
  6
CONTINUOUS
 10
2029.6685360305
 20
48.3653962243
 11
2029.6685360305
 21
24.3653962243
  0
LINE
  5
443
100
AcDbEntity
  8
0
100
AcDbLine
 62
7
  6
CONTINUOUS
 10
2029.6685360305
 20
20.3653962243
 11
2029.6685360305
 21
24.3653962243
  0
LINE
  5
444
100
AcDbEntity
  8
0
100
AcDbLine
 62
7
  6
CONTINUOUS
 10
2029.6685360305
 20
48.3653962243
 11
2029.6685360305
 21
63.3653962243
  0
LINE
  5
445
100
AcDbEntity
  8
0
100
AcDbLine
 62
9
  6
CONTINUOUS
 10
2032.6685360305
 20
20.3653962243
 11
2032.6685360305
 21
38.3653962243
  0
LINE
  5
446
100
AcDbEntity
  8
0
100
AcDbLine
 62
7
  6
CONTINUOUS
 10
2039.1685360305
 20
180.3653962243
 11
2039.1685360305
 21
277.2029019332
  0
LINE
  5
447
100
AcDbEntity
  8
0
100
AcDbLine
 62
7
  6
CONTINUOUS
 10
2044.6685360305
 20
20.3653962243
 11
2044.6685360305
 21
35.3653962243
  0
LINE
  5
448
100
AcDbEntity
  8
0
100
AcDbLine
 62
7
  6
CONTINUOUS
 10
1912.1685360305
 20
435.3653962243
 11
1752.1685360305
 21
435.3653962243
  0
LINE
  5
449
100
AcDbEntity
  8
02___PRT_ALL_AXES
100
AcDbLine
 62
7
  6
CONTINUOUS
 10
1912.1685360305
 20
435.3653962243
 11
2017.1735850974
 21
435.3653962243
  0
LWPOLYLINE
  5
44A
100
AcDbEntity
  8
0
100
AcDbPolyline
 62
7
  6
CONTINUOUS
 90
4
 70
0
 10
2017.6948485815
 20
356.4600493957
 10
2017.3208572197
 20
357.3499671563
 10
2017.1708197472
 20
358.3075352453
 10
2017.1685134272
 20
358.4433433416
  0
LINE
  5
44B
100
AcDbEntity
  8
0
100
AcDbLine
 62
9
  6
CONTINUOUS
 10
1752.1685360305
 20
447.3653962243
 11
1912.1685360305
 21
447.3653962243
  0
LINE
  5
44C
100
AcDbEntity
  8
0
100
AcDbLine
 62
7
  6
CONTINUOUS
 10
1755.1685360305
 20
450.3653962243
 11
1909.1685360305
 21
450.3653962243
  0
LINE
  5
44D
100
AcDbEntity
  8
0
100
AcDbLine
 62
9
  6
CONTINUOUS
 10
1774.1685360305
 20
452.3653962243
 11
1890.1685360305
 21
452.3653962243
  0
LINE
  5
44E
100
AcDbEntity
  8
0
100
AcDbLine
 62
9
  6
CONTINUOUS
 10
1890.1685360305
 20
518.3653962243
 11
1774.1685360305
 21
518.3653962243
  0
LINE
  5
44F
100
AcDbEntity
  8
0
100
AcDbLine
 62
7
  6
CONTINUOUS
 10
1943.1685360305
 20
520.3653962243
 11
1721.1685360305
 21
520.3653962243
  0
LINE
  5
450
100
AcDbEntity
  8
0
100
AcDbLine
 62
9
  6
CONTINUOUS
 10
1946.1685360305
 20
523.3653962243
 11
1718.1685360305
 21
523.3653962243
  0
LINE
  5
451
100
AcDbEntity
  8
02___PRT_ALL_AXES
100
AcDbLine
 62
7
  6
CONTINUOUS
 10
1718.1685360305
 20
540.3653962243
 11
1946.1685360305
 21
540.3653962243
  0
LINE
  5
452
100
AcDbEntity
  8
0
100
AcDbLine
 62
7
  6
CONTINUOUS
 10
618.7132198867
 20
-435.336704605
 11
618.7132198867
 21
-231.9052011559
  0
LINE
  5
453
100
AcDbEntity
  8
0
100
AcDbLine
 62
9
  6
CONTINUOUS
 10
624.5710828609
 20
-449.4788388274
 11
624.5710828609
 21
-217.7630669342
  0
LINE
  5
454
100
AcDbEntity
  8
0
100
AcDbLine
 62
9
  6
CONTINUOUS
 10
632.8553294933
 20
-209.4788186591
 11
632.8553294933
 21
-457.7630871025
  0
LINE
  5
455
100
AcDbEntity
  8
0
100
AcDbLine
 62
9
  6
CONTINUOUS
 10
646.9974665191
 20
-203.6209528808
 11
646.9974665191
 21
-463.6209528808
  0
LINE
  5
456
100
AcDbEntity
  8
0
100
AcDbLine
 62
7
  6
CONTINUOUS
 10
624.5710828609
 20
-449.4788388274
 11
632.8553294933
 21
-457.7630871025
  0
LINE
  5
457
100
AcDbEntity
  8
0
100
AcDbLine
 62
7
  6
CONTINUOUS
 10
624.5710828609
 20
-217.7630669342
 11
632.8553294933
 21
-209.4788186591
  0
LINE
  5
458
100
AcDbEntity
  8
0
100
AcDbLine
 62
7
  6
CONTINUOUS
 10
688.7132198867
 20
-203.6209528808
 11
688.7132198867
 21
-463.6209528808
  0
LINE
  5
459
100
AcDbEntity
  8
0
100
AcDbLine
 62
7
  6
CONTINUOUS
 10
698.7132198867
 20
-203.6209528808
 11
698.7132198867
 21
-463.6209528808
  0
LINE
  5
45A
100
AcDbEntity
  8
0
100
AcDbLine
 62
7
  6
CONTINUOUS
 10
688.7132198867
 20
-453.6209528808
 11
698.7132198867
 21
-463.6209528808
  0
LINE
  5
45B
100
AcDbEntity
  8
0
100
AcDbLine
 62
7
  6
CONTINUOUS
 10
688.7132198867
 20
-213.6209528808
 11
698.7132198867
 21
-203.6209528808
  0
LINE
  5
45C
100
AcDbEntity
  8
0
100
AcDbLine
 62
7
  6
CONTINUOUS
 10
846.7132198867
 20
-263.6209528808
 11
846.7132198867
 21
-403.6209528808
  0
LINE
  5
45D
100
AcDbEntity
  8
0
100
AcDbLine
 62
7
  6
CONTINUOUS
 10
1226.2132198867
 20
-478.6209528808
 11
1252.2132198867
 21
-478.6209528808
  0
LINE
  5
45E
100
AcDbEntity
  8
0
100
AcDbLine
 62
9
  6
CONTINUOUS
 10
1226.2132198867
 20
-475.6209528808
 11
1252.2132198867
 21
-475.6209528808
  0
LINE
  5
45F
100
AcDbEntity
  8
0
100
AcDbLine
 62
7
  6
CONTINUOUS
 10
1319.2132198867
 20
-473.1209528808
 11
1159.2132198867
 21
-473.1209528808
  0
LINE
  5
460
100
AcDbEntity
  8
0
100
AcDbLine
 62
7
  6
CONTINUOUS
 10
1133.7132198867
 20
-468.6209528808
 11
1124.7132198867
 21
-468.6209528808
  0
LINE
  5
461
100
AcDbEntity
  8
0
100
AcDbLine
 62
7
  6
CONTINUOUS
 10
646.9974665191
 20
-463.6209528808
 11
688.7132198867
 21
-463.6209528808
  0
LINE
  5
462
100
AcDbEntity
  8
02___PRT_ALL_AXES
100
AcDbLine
 62
7
  6
CONTINUOUS
 10
646.9974665191
 20
-463.6209528808
 11
688.7132198867
 21
-463.6209528808
  0
LINE
  5
463
100
AcDbEntity
  8
02___PRT_ALL_AXES
100
AcDbLine
 62
7
  6
CONTINUOUS
 10
698.7132198867
 20
-463.6209528808
 11
1016.7132198867
 21
-463.6209528808
  0
LINE
  5
464
100
AcDbEntity
  8
0
100
AcDbLine
 62
7
  6
CONTINUOUS
 10
698.7132198867
 20
-463.6209528808
 11
1016.7132198867
 21
-463.6209528808
  0
LINE
  5
465
100
AcDbEntity
  8
3_ALL_AXES
100
AcDbLine
 62
7
  6
CONTINUOUS
 10
1133.7132198867
 20
-456.1209528808
 11
1134.2132198867
 21
-456.1209528808
  0
LINE
  5
466
100
AcDbEntity
  8
3_ALL_AXES
100
AcDbLine
 62
7
  6
CONTINUOUS
 10
1049.7132198867
 20
-433.6209528808
 11
1037.7132198867
 21
-433.6209528808
  0
LINE
  5
467
100
AcDbEntity
  8
0
100
AcDbLine
 62
7
  6
CONTINUOUS
 10
1037.7132198867
 20
-433.6209528808
 11
1119.7132198867
 21
-433.6209528808
  0
LINE
  5
468
100
AcDbEntity
  8
0
100
AcDbLine
 62
9
  6
CONTINUOUS
 10
1051.7132198867
 20
-431.6209528808
 11
1122.7132198867
 21
-431.6209528808
  0
LINE
  5
469
100
AcDbEntity
  8
0
100
AcDbLine
 62
7
  6
CONTINUOUS
 10
1459.2132198867
 20
-430.1209528808
 11
1442.2132198867
 21
-430.1209528808
  0
LINE
  5
46A
100
AcDbEntity
  8
02___PRT_ALL_AXES
100
AcDbLine
 62
7
  6
CONTINUOUS
 10
1442.2132198867
 20
-430.1209528808
 11
1459.2132198867
 21
-430.1209528808
  0
LINE
  5
46B
100
AcDbEntity
  8
0
100
AcDbLine
 62
9
  6
CONTINUOUS
 10
1122.7132198867
 20
-422.493936227
 11
1119.7132198867
 21
-422.493936227
  0
LINE
  5
46C
100
AcDbEntity
  8
0
100
AcDbLine
 62
9
  6
CONTINUOUS
 10
1119.7132198867
 20
-416.2489382286
 11
1116.7132198867
 21
-416.2489382286
  0
LINE
  5
46D
100
AcDbEntity
  8
0
100
AcDbLine
 62
9
  6
CONTINUOUS
 10
1119.7132198867
 20
-410.3398619482
 11
1116.7132198867
 21
-410.3398619482
  0
LINE
  5
46E
100
AcDbEntity
  8
0
100
AcDbLine
 62
7
  6
CONTINUOUS
 10
1354.2132198867
 20
-406.1209528808
 11
1348.2132198867
 21
-406.1209528808
  0
LINE
  5
46F
100
AcDbEntity
  8
0
100
AcDbLine
 62
7
  6
CONTINUOUS
 10
846.7132198867
 20
-403.6209528808
 11
986.7132198867
 21
-403.6209528808
  0
LINE
  5
470
100
AcDbEntity
  8
0
100
AcDbLine
 62
9
  6
CONTINUOUS
 10
1119.7132198867
 20
-403.6209438514
 11
1122.7132198867
 21
-403.6209528808
  0
LINE
  5
471
100
AcDbEntity
  8
0
100
AcDbLine
 62
9
  6
CONTINUOUS
 10
1267.8660853985
 20
-376.1209528629
 11
1263.8757984094
 21
-376.3995271499
  0
LINE
  5
472
100
AcDbEntity
  8
0
100
AcDbLine
 62
7
  6
CONTINUOUS
 10
1366.2132198867
 20
-396.1209528808
 11
1339.3145878825
 21
-396.1209528808
  0
LINE
  5
473
100
AcDbEntity
  8
0
100
AcDbLine
 62
9
  6
CONTINUOUS
 10
1036.7132198867
 20
-393.6209528808
 11
1051.7132198867
 21
-393.6209528808
  0
LINE
  5
474
100
AcDbEntity
  8
0
100
AcDbLine
 62
9
  6
CONTINUOUS
 10
1268.2123186006
 20
-384.8800769684
 11
1319.2132198867
 21
-384.8800769684
  0
LINE
  5
475
100
AcDbEntity
  8
0
100
AcDbLine
 62
9
  6
CONTINUOUS
 10
1159.2132199203
 20
-384.8800162875
 11
1200.2141211727
 21
-384.8800769684
  0
LINE
  5
476
100
AcDbEntity
  8
0
100
AcDbLine
 62
9
  6
CONTINUOUS
 10
1369.2132198867
 20
-381.1209528808
 11
1354.2132198867
 21
-381.1209528808
  0
LINE
  5
477
100
AcDbEntity
  8
0
100
AcDbLine
 62
9
  6
CONTINUOUS
 10
1051.7132198867
 20
-379.4276117854
 11
1054.7132198867
 21
-379.4276117854
  0
LINE
  5
478
100
AcDbEntity
  8
0
100
AcDbLine
 62
9
  6
CONTINUOUS
 10
1079.9709959476
 20
-378.4121350487
 11
1055.7132198867
 21
-378.4121350487
  0
LINE
  5
479
100
AcDbEntity
  8
0
100
AcDbLine
 62
9
  6
CONTINUOUS
 10
1119.7132198867
 20
-377.6209528808
 11
1122.7132198867
 21
-377.6209528808
  0
LINE
  5
47A
100
AcDbEntity
  8
0
100
AcDbLine
 62
9
  6
CONTINUOUS
 10
1051.7132198867
 20
-376.6209528808
 11
1049.7132198867
 21
-376.6209528808
  0
LINE
  5
47B
100
AcDbEntity
  8
0
100
AcDbLine
 62
9
  6
CONTINUOUS
 10
1354.2132198867
 20
-376.1209528808
 11
1267.8660853998
 21
-376.1209528808
  0
LINE
  5
47C
100
AcDbEntity
  8
0
100
AcDbLine
 62
9
  6
CONTINUOUS
 10
1200.5603543735
 20
-376.1209528808
 11
1159.2132198867
 21
-376.1209498477
  0
LINE
  5
47D
100
AcDbEntity
  8
0
100
AcDbLine
 62
9
  6
CONTINUOUS
 10
1079.9709959476
 20
-375.4588702904
 11
1055.7132198867
 21
-375.4588702904
  0
LINE
  5
47E
100
AcDbEntity
  8
0
100
AcDbLine
 62
7
  6
CONTINUOUS
 10
1371.2132198867
 20
-374.1209528808
 11
1437.2132198867
 21
-374.1209528808
  0
LINE
  5
47F
100
AcDbEntity
  8
02___PRT_ALL_AXES
100
AcDbLine
 62
7
  6
CONTINUOUS
 10
1371.2132198867
 20
-374.1209528808
 11
1437.2132198867
 21
-374.1209528808
  0
LINE
  5
480
100
AcDbEntity
  8
0
100
AcDbLine
 62
7
  6
CONTINUOUS
 10
1118.7132198867
 20
-373.6209528808
 11
1054.7132198867
 21
-373.6209528808
  0
LINE
  5
481
100
AcDbEntity
  8
0
100
AcDbLine
 62
9
  6
CONTINUOUS
 10
1054.7132198867
 20
-371.6209528808
 11
1122.7132198867
 21
-371.6209528808
  0
LINE
  5
482
100
AcDbEntity
  8
0
100
AcDbLine
 62
7
  6
CONTINUOUS
 10
986.7132198867
 20
-403.6209528808
 11
986.7132198867
 21
-263.6209528808
  0
LINE
  5
483
100
AcDbEntity
  8
0
100
AcDbLine
 62
7
  6
CONTINUOUS
 10
1191.3898726197
 20
-346.1209528808
 11
1207.7513637666
 21
-346.1209528808
  0
LINE
  5
484
100
AcDbEntity
  8
0
100
AcDbLine
 62
7
  6
CONTINUOUS
 10
1260.6749820457
 20
-346.1209528808
 11
1277.0364962745
 21
-346.1209528808
  0
LINE
  5
485
100
AcDbEntity
  8
0
100
AcDbLine
 62
9
  6
CONTINUOUS
 10
1193.5095337964
 20
-343.1209528808
 11
1205.6567290885
 21
-343.1209528808
  0
LINE
  5
486
100
AcDbEntity
  8
0
100
AcDbLine
 62
9
  6
CONTINUOUS
 10
1262.7689544512
 20
-343.1209528808
 11
1274.9174774079
 21
-343.1209528808
  0
LINE
  5
487
100
AcDbEntity
  8
0
100
AcDbLine
 62
9
  6
CONTINUOUS
 10
1200.5603543734
 20
-376.1209528621
 11
1204.5506446839
 21
-376.3995273812
  0
LINE
  5
488
100
AcDbEntity
  8
0
100
AcDbLine
 62
7
  6
CONTINUOUS
 10
1016.7132198867
 20
-203.6209528808
 11
1016.7132198867
 21
-463.6209528808
  0
LINE
  5
489
100
AcDbEntity
  8
0
100
AcDbLine
 62
7
  6
CONTINUOUS
 10
1036.7132198867
 20
-223.6209528809
 11
1036.7132198867
 21
-443.6209528808
  0
LINE
  5
48A
100
AcDbEntity
  8
0
100
AcDbLine
 62
9
  6
CONTINUOUS
 10
1037.7132198867
 20
-433.6209528808
 11
1037.7132198867
 21
-233.6209528808
  0
LINE
  5
48B
100
AcDbEntity
  8
0
100
AcDbLine
 62
9
  6
CONTINUOUS
 10
1049.7132198867
 20
-233.6209528808
 11
1049.7132198867
 21
-290.6209528808
  0
LINE
  5
48C
100
AcDbEntity
  8
0
100
AcDbLine
 62
9
  6
CONTINUOUS
 10
1049.7132198867
 20
-376.6209528808
 11
1049.7132198867
 21
-433.6209528808
  0
LINE
  5
48D
100
AcDbEntity
  8
0
100
AcDbLine
 62
7
  6
CONTINUOUS
 10
1051.7132198867
 20
-235.6209528808
 11
1051.7132198867
 21
-290.6209528808
  0
LINE
  5
48E
100
AcDbEntity
  8
0
100
AcDbLine
 62
7
  6
CONTINUOUS
 10
1051.7132198867
 20
-376.6209528808
 11
1051.7132198867
 21
-431.6209528808
  0
LINE
  5
48F
100
AcDbEntity
  8
0
100
AcDbLine
 62
9
  6
CONTINUOUS
 10
1054.7132198867
 20
-373.6209528808
 11
1054.7132198869
 21
-371.6209528809
  0
LINE
  5
490
100
AcDbEntity
  8
0
100
AcDbLine
 62
9
  6
CONTINUOUS
 10
1054.7132198869
 20
-233.6209528808
 11
1054.7132198867
 21
-287.8142939762
  0
LINE
  5
491
100
AcDbEntity
  8
0
100
AcDbLine
 62
9
  6
CONTINUOUS
 10
1054.7132198867
 20
-293.6209528808
 11
1054.7132198867
 21
-295.6209528808
  0
LINE
  5
492
100
AcDbEntity
  8
0
100
AcDbLine
 62
9
  6
CONTINUOUS
 10
1054.7132198867
 20
-379.4276117854
 11
1054.7132198867
 21
-433.6209528808
  0
LINE
  5
493
100
AcDbEntity
  8
0
100
AcDbLine
 62
9
  6
CONTINUOUS
 10
1055.7132198867
 20
-288.8297707129
 11
1055.7132198867
 21
-293.6209528808
  0
LINE
  5
494
100
AcDbEntity
  8
0
100
AcDbLine
 62
9
  6
CONTINUOUS
 10
1055.7132198867
 20
-373.6209528808
 11
1055.7132198867
 21
-378.4121350487
  0
LINE
  5
495
100
AcDbEntity
  8
0
100
AcDbLine
 62
9
  6
CONTINUOUS
 10
1054.7132198867
 20
-295.6209528808
 11
1122.7132198867
 21
-295.6209528808
  0
LINE
  5
496
100
AcDbEntity
  8
0
100
AcDbLine
 62
7
  6
CONTINUOUS
 10
1054.7132198867
 20
-293.6209528808
 11
1118.7132198867
 21
-293.6209528808
  0
LINE
  5
497
100
AcDbEntity
  8
0
100
AcDbLine
 62
9
  6
CONTINUOUS
 10
1055.7132198867
 20
-291.7830354712
 11
1079.9709959476
 21
-291.7830354712
  0
LINE
  5
498
100
AcDbEntity
  8
0
100
AcDbLine
 62
9
  6
CONTINUOUS
 10
1051.7132198867
 20
-290.6209528808
 11
1049.7132198867
 21
-290.6209528806
  0
LINE
  5
499
100
AcDbEntity
  8
0
100
AcDbLine
 62
9
  6
CONTINUOUS
 10
1119.7132198867
 20
-289.6209528808
 11
1122.6833750558
 21
-289.6209528808
  0
LINE
  5
49A
100
AcDbEntity
  8
0
100
AcDbLine
 62
9
  6
CONTINUOUS
 10
1055.7132198867
 20
-288.8297707129
 11
1079.9709959476
 21
-288.8297707129
  0
LINE
  5
49B
100
AcDbEntity
  8
0
100
AcDbLine
 62
9
  6
CONTINUOUS
 10
1051.7132198867
 20
-287.8142939762
 11
1054.7132198867
 21
-287.8142939762
  0
LINE
  5
49C
100
AcDbEntity
  8
0
100
AcDbLine
 62
9
  6
CONTINUOUS
 10
1079.9709959476
 20
-293.6209528808
 11
1079.9709959476
 21
-288.8297707129
  0
LINE
  5
49D
100
AcDbEntity
  8
0
100
AcDbLine
 62
9
  6
CONTINUOUS
 10
1079.9709959476
 20
-373.6209528808
 11
1079.9709959476
 21
-378.4121350487
  0
LINE
  5
49E
100
AcDbEntity
  8
0
100
AcDbLine
 62
9
  6
CONTINUOUS
 10
1085.1132968251
 20
-377.3358322078
 11
1085.1132968251
 21
-373.6209528808
  0
LINE
  5
49F
100
AcDbEntity
  8
0
100
AcDbLine
 62
9
  6
CONTINUOUS
 10
1085.1132968251
 20
-293.6209528808
 11
1085.1132968251
 21
-289.9060735539
  0
LINE
  5
4A0
100
AcDbEntity
  8
0
100
AcDbLine
 62
9
  6
CONTINUOUS
 10
1036.7132198867
 20
-273.6209528808
 11
1051.7132198867
 21
-273.6209528808
  0
LINE
  5
4A1
100
AcDbEntity
  8
0
100
AcDbLine
 62
9
  6
CONTINUOUS
 10
1119.7132198867
 20
-263.6209618734
 11
1120.4381728458
 21
-263.6209522526
  0
LINE
  5
4A2
100
AcDbEntity
  8
0
100
AcDbLine
 62
7
  6
CONTINUOUS
 10
986.7132198867
 20
-263.6209528808
 11
846.7132198867
 21
-263.6209528808
  0
LINE
  5
4A3
100
AcDbEntity
  8
0
100
AcDbLine
 62
7
  6
CONTINUOUS
 10
1371.2132198867
 20
-258.1209528808
 11
1437.2132198867
 21
-258.1209528808
  0
LINE
  5
4A4
100
AcDbEntity
  8
02___PRT_ALL_AXES
100
AcDbLine
 62
7
  6
CONTINUOUS
 10
1371.2132198867
 20
-258.1209528808
 11
1437.2132198867
 21
-258.1209528808
  0
LINE
  5
4A5
100
AcDbEntity
  8
0
100
AcDbLine
 62
9
  6
CONTINUOUS
 10
1119.7132198867
 20
-256.9020438135
 11
1116.7132198867
 21
-256.9020438135
  0
LINE
  5
4A6
100
AcDbEntity
  8
0
100
AcDbLine
 62
9
  6
CONTINUOUS
 10
1354.2132198867
 20
-256.1209528808
 11
1347.6292538957
 21
-256.1209528808
  0
LINE
  5
4A7
100
AcDbEntity
  8
0
100
AcDbLine
 62
7
  6
CONTINUOUS
 10
1036.7132306145
 20
-223.6209421538
 11
1016.713232565
 21
-203.6209402034
  0
LINE
  5
4A8
100
AcDbEntity
  8
0
100
AcDbLine
 62
9
  6
CONTINUOUS
 10
1085.11329682
 20
-289.9060735479
 11
1083.184933996
 21
-287.6419559535
  0
LINE
  5
4A9
100
AcDbEntity
  8
0
100
AcDbLine
 62
9
  6
CONTINUOUS
 10
1116.7132198867
 20
-416.2489382286
 11
1116.7132198867
 21
-410.3398619482
  0
LINE
  5
4AA
100
AcDbEntity
  8
0
100
AcDbLine
 62
9
  6
CONTINUOUS
 10
1116.7132198867
 20
-256.9020438135
 11
1116.7132198867
 21
-250.992967533
  0
LINE
  5
4AB
100
AcDbEntity
  8
0
100
AcDbLine
 62
9
  6
CONTINUOUS
 10
1116.8555207641
 20
-404.2033703915
 11
1116.8555207641
 21
-373.6209528808
  0
LINE
  5
4AC
100
AcDbEntity
  8
0
100
AcDbLine
 62
9
  6
CONTINUOUS
 10
1116.8555207641
 20
-293.6209528808
 11
1116.8555207641
 21
-263.0385353701
  0
LINE
  5
4AD
100
AcDbEntity
  8
0
100
AcDbLine
 62
9
  6
CONTINUOUS
 10
1118.7132198867
 20
-293.6209528808
 11
1118.7132198867
 21
-373.6209528808
  0
LINE
  5
4AE
100
AcDbEntity
  8
0
100
AcDbLine
 62
7
  6
CONTINUOUS
 10
1119.7132198867
 20
-416.2489382231
 11
1119.7132198867
 21
-373.748302113
  0
LINE
  5
4AF
100
AcDbEntity
  8
0
100
AcDbLine
 62
7
  6
CONTINUOUS
 10
1119.7132198867
 20
-293.4935947864
 11
1119.7132198867
 21
-250.9929675384
  0
LINE
  5
4B0
100
AcDbEntity
  8
0
100
AcDbLine
 62
9
  6
CONTINUOUS
 10
1119.7132198867
 20
-233.6209528808
 11
1119.7132198867
 21
-244.7479695346
  0
LINE
  5
4B1
100
AcDbEntity
  8
0
100
AcDbLine
 62
9
  6
CONTINUOUS
 10
1119.7132198867
 20
-422.493936227
 11
1119.7132198867
 21
-433.6209528808
  0
LINE
  5
4B2
100
AcDbEntity
  8
0
100
AcDbLine
 62
9
  6
CONTINUOUS
 10
1121.2132198853
 20
-403.6209528808
 11
1121.2132103424
 21
-377.6209528808
  0
LINE
  5
4B3
100
AcDbEntity
  8
0
100
AcDbLine
 62
7
  6
CONTINUOUS
 10
1122.7132198867
 20
-466.6209528808
 11
1122.7132198867
 21
-289.7274704749
  0
LINE
  5
4B4
100
AcDbEntity
  8
0
100
AcDbLine
 62
7
  6
CONTINUOUS
 10
1122.7132198867
 20
-242.5144365269
 11
1122.7132198867
 21
-200.6209528808
  0
LINE
  5
4B5
100
AcDbEntity
  8
0
100
AcDbLine
 62
9
  6
CONTINUOUS
 10
1124.7132198867
 20
-198.6209528808
 11
1124.7132198867
 21
-235.0976129887
  0
LINE
  5
4B6
100
AcDbEntity
  8
0
100
AcDbLine
 62
9
  6
CONTINUOUS
 10
1124.7132198867
 20
-297.1442927729
 11
1124.7132198867
 21
-468.6209528808
  0
LINE
  5
4B7
100
AcDbEntity
  8
0
100
AcDbLine
 62
9
  6
CONTINUOUS
 10
1085.113294794
 20
-377.3358345926
 11
1083.184933996
 21
-379.5999498082
  0
LINE
  5
4B8
100
AcDbEntity
  8
0
100
AcDbLine
 62
7
  6
CONTINUOUS
 10
1036.7132306149
 20
-443.6209636074
 11
1016.7132325654
 21
-463.6209655577
  0
LINE
  5
4B9
100
AcDbEntity
  8
0
100
AcDbLine
 62
9
  6
CONTINUOUS
 10
1369.2132198867
 20
-251.1209528808
 11
1354.2132198867
 21
-251.1209528808
  0
LINE
  5
4BA
100
AcDbEntity
  8
0
100
AcDbLine
 62
9
  6
CONTINUOUS
 10
1119.7132198867
 20
-250.992967533
 11
1116.7132198867
 21
-250.992967533
  0
LINE
  5
4BB
100
AcDbEntity
  8
0
100
AcDbLine
 62
9
  6
CONTINUOUS
 10
1122.2354294637
 20
-244.7479695346
 11
1119.7132198867
 21
-244.7479695346
  0
LINE
  5
4BC
100
AcDbEntity
  8
0
100
AcDbLine
 62
7
  6
CONTINUOUS
 10
1343.9759689128
 20
-236.1209528808
 11
1366.2132198867
 21
-236.1209528808
  0
LINE
  5
4BD
100
AcDbEntity
  8
0
100
AcDbLine
 62
9
  6
CONTINUOUS
 10
1051.7132198867
 20
-235.6209528808
 11
1122.7132198867
 21
-235.6209528808
  0
LINE
  5
4BE
100
AcDbEntity
  8
0
100
AcDbLine
 62
7
  6
CONTINUOUS
 10
1119.7132198867
 20
-233.6209528808
 11
1037.7132198867
 21
-233.6209528808
  0
LINE
  5
4BF
100
AcDbEntity
  8
0
100
AcDbLine
 62
7
  6
CONTINUOUS
 10
1354.2132198867
 20
-226.1209528808
 11
1348.2132198867
 21
-226.1209528808
  0
LINE
  5
4C0
100
AcDbEntity
  8
0
100
AcDbLine
 62
9
  6
CONTINUOUS
 10
1116.8555186085
 20
-263.0385328166
 11
1114.9271579351
 21
-260.754128575
  0
LINE
  5
4C1
100
AcDbEntity
  8
0
100
AcDbLine
 62
7
  6
CONTINUOUS
 10
1133.7132198867
 20
-198.6210280116
 11
1133.7132198867
 21
-212.4913340252
  0
LINE
  5
4C2
100
AcDbEntity
  8
0
100
AcDbLine
 62
7
  6
CONTINUOUS
 10
1133.7132198867
 20
-319.7505722898
 11
1133.7132198867
 21
-468.62087775
  0
LINE
  5
4C3
100
AcDbEntity
  8
0
100
AcDbLine
 62
7
  6
CONTINUOUS
 10
1134.2132198867
 20
-448.1209528808
 11
1134.2132198867
 21
-320.5727872814
  0
LINE
  5
4C4
100
AcDbEntity
  8
0
100
AcDbLine
 62
7
  6
CONTINUOUS
 10
1134.2132198867
 20
-211.6691189498
 11
1134.2132198867
 21
-184.1209528808
  0
LINE
  5
4C5
100
AcDbEntity
  8
3_ALL_AXES
100
AcDbLine
 62
7
  6
CONTINUOUS
 10
1134.2132198867
 20
-448.1209528808
 11
1134.2132198867
 21
-456.1209528808
  0
LINE
  5
4C6
100
AcDbEntity
  8
0
100
AcDbLine
 62
7
  6
CONTINUOUS
 10
1154.2132198867
 20
-223.2976056139
 11
1154.2132198867
 21
-239.6590967607
  0
LINE
  5
4C7
100
AcDbEntity
  8
0
100
AcDbLine
 62
7
  6
CONTINUOUS
 10
1154.2132198867
 20
-292.5827150398
 11
1154.2132198867
 21
-308.9442292687
  0
LINE
  5
4C8
100
AcDbEntity
  8
0
100
AcDbLine
 62
9
  6
CONTINUOUS
 10
1157.2132198867
 20
-225.4172667906
 11
1157.2132198867
 21
-237.5644620826
  0
LINE
  5
4C9
100
AcDbEntity
  8
0
100
AcDbLine
 62
9
  6
CONTINUOUS
 10
1157.2132198867
 20
-294.6766874454
 11
1157.2132198867
 21
-306.8252104021
  0
LINE
  5
4CA
100
AcDbEntity
  8
0
100
AcDbLine
 62
9
  6
CONTINUOUS
 10
1159.2132198867
 20
-473.1209528808
 11
1159.2132198867
 21
-351.7369347321
  0
LINE
  5
4CB
100
AcDbEntity
  8
0
100
AcDbLine
 62
9
  6
CONTINUOUS
 10
1159.2132198867
 20
-180.5049710295
 11
1159.2132198867
 21
-159.1209528808
  0
LINE
  5
4CC
100
AcDbEntity
  8
0
100
AcDbLine
 62
9
  6
CONTINUOUS
 10
1116.8555207631
 20
-404.2033703928
 11
1114.9271579351
 21
-406.4877771866
  0
LINE
  5
4CD
100
AcDbEntity
  8
3_ALL_AXES
100
AcDbLine
 62
7
  6
CONTINUOUS
 10
1133.7132198867
 20
-211.1209528808
 11
1134.2132198867
 21
-211.1209528808
  0
LINE
  5
4CE
100
AcDbEntity
  8
0
100
AcDbLine
 62
7
  6
CONTINUOUS
 10
646.9974665191
 20
-203.6209528808
 11
688.7132198867
 21
-203.6209528808
  0
LINE
  5
4CF
100
AcDbEntity
  8
02___PRT_ALL_AXES
100
AcDbLine
 62
7
  6
CONTINUOUS
 10
646.9974665191
 20
-203.6209528808
 11
688.7132198867
 21
-203.6209528808
  0
LINE
  5
4D0
100
AcDbEntity
  8
0
100
AcDbLine
 62
7
  6
CONTINUOUS
 10
698.7132198867
 20
-203.6209528808
 11
1016.7132198867
 21
-203.6209528808
  0
LINE
  5
4D1
100
AcDbEntity
  8
02___PRT_ALL_AXES
100
AcDbLine
 62
7
  6
CONTINUOUS
 10
698.7132198867
 20
-203.6209528808
 11
1016.7132198867
 21
-203.6209528808
  0
LINE
  5
4D2
100
AcDbEntity
  8
0
100
AcDbLine
 62
7
  6
CONTINUOUS
 10
1459.2132198867
 20
-202.1209528808
 11
1442.2132198867
 21
-202.1209528808
  0
LINE
  5
4D3
100
AcDbEntity
  8
02___PRT_ALL_AXES
100
AcDbLine
 62
7
  6
CONTINUOUS
 10
1442.2132198867
 20
-202.1209528808
 11
1459.2132198867
 21
-202.1209528808
  0
LINE
  5
4D4
100
AcDbEntity
  8
0
100
AcDbLine
 62
7
  6
CONTINUOUS
 10
1133.7132198867
 20
-198.6209528808
 11
1124.7132198867
 21
-198.6209528808
  0
LINE
  5
4D5
100
AcDbEntity
  8
0
100
AcDbLine
 62
9
  6
CONTINUOUS
 10
1121.2132198863
 20
-247.8704685341
 11
1119.3382198867
 21
-245.5285942844
  0
LINE
  5
4D6
100
AcDbEntity
  8
0
100
AcDbLine
 62
9
  6
CONTINUOUS
 10
1121.2132198868
 20
-419.371437228
 11
1119.3382198868
 21
-421.7133114773
  0
LINE
  5
4D7
100
AcDbEntity
  8
0
100
AcDbLine
 62
9
  6
CONTINUOUS
 10
1274.9169059769
 20
-189.1209528808
 11
1262.7697106848
 21
-189.1209528808
  0
LINE
  5
4D8
100
AcDbEntity
  8
0
100
AcDbLine
 62
9
  6
CONTINUOUS
 10
1205.6574853221
 20
-189.1209528808
 11
1193.5089623654
 21
-189.1209528808
  0
LINE
  5
4D9
100
AcDbEntity
  8
0
100
AcDbLine
 62
7
  6
CONTINUOUS
 10
1277.0365671536
 20
-186.1209528808
 11
1260.6750760068
 21
-186.1209528808
  0
LINE
  5
4DA
100
AcDbEntity
  8
0
100
AcDbLine
 62
7
  6
CONTINUOUS
 10
1207.7514577276
 20
-186.1209528808
 11
1191.3899434988
 21
-186.1209528808
  0
LINE
  5
4DB
100
AcDbEntity
  8
0
100
AcDbLine
 62
7
  6
CONTINUOUS
 10
1159.2132198867
 20
-159.1209528808
 11
1195.3415719971
 21
-159.1209528808
  0
LINE
  5
4DC
100
AcDbEntity
  8
0
100
AcDbLine
 62
7
  6
CONTINUOUS
 10
1273.0848677762
 20
-159.1209528808
 11
1319.2132198867
 21
-159.1209528808
  0
LINE
  5
4DD
100
AcDbEntity
  8
0
100
AcDbLine
 62
9
  6
CONTINUOUS
 10
1226.2132198867
 20
-475.6209528808
 11
1226.2132198867
 21
-478.6209528808
  0
LINE
  5
4DE
100
AcDbEntity
  8
0
100
AcDbLine
 62
9
  6
CONTINUOUS
 10
1252.2132198867
 20
-475.6209528808
 11
1252.2132198573
 21
-478.6209528808
  0
LINE
  5
4DF
100
AcDbEntity
  8
0
100
AcDbLine
 62
9
  6
CONTINUOUS
 10
1311.2132198867
 20
-306.824638971
 11
1311.2132198867
 21
-294.677443679
  0
LINE
  5
4E0
100
AcDbEntity
  8
0
100
AcDbLine
 62
9
  6
CONTINUOUS
 10
1311.2132198867
 20
-237.5652183163
 11
1311.2132198867
 21
-225.4166953595
  0
LINE
  5
4E1
100
AcDbEntity
  8
0
100
AcDbLine
 62
7
  6
CONTINUOUS
 10
1314.2132198867
 20
-308.9443001478
 11
1314.2132198867
 21
-292.5828090009
  0
LINE
  5
4E2
100
AcDbEntity
  8
0
100
AcDbLine
 62
7
  6
CONTINUOUS
 10
1314.2132198867
 20
-239.6591907218
 11
1314.2132198867
 21
-223.2976764929
  0
LINE
  5
4E3
100
AcDbEntity
  8
0
100
AcDbLine
 62
9
  6
CONTINUOUS
 10
1319.2132198867
 20
-159.1209528808
 11
1319.2132198867
 21
-190.4319122563
  0
LINE
  5
4E4
100
AcDbEntity
  8
0
100
AcDbLine
 62
9
  6
CONTINUOUS
 10
1319.2132198867
 20
-221.2273071201
 11
1319.2132198867
 21
-240.3551194597
  0
LINE
  5
4E5
100
AcDbEntity
  8
0
100
AcDbLine
 62
9
  6
CONTINUOUS
 10
1319.2132198867
 20
-384.8800769684
 11
1319.2132198867
 21
-473.1209528808
  0
LINE
  5
4E6
100
AcDbEntity
  8
0
100
AcDbLine
 62
7
  6
CONTINUOUS
 10
1344.2132198867
 20
-236.1209528808
 11
1344.2132198867
 21
-184.1209528808
  0
LINE
  5
4E7
100
AcDbEntity
  8
0
100
AcDbLine
 62
7
  6
CONTINUOUS
 10
1344.2132198867
 20
-396.1209528808
 11
1344.2132198867
 21
-448.1209528808
  0
LINE
  5
4E8
100
AcDbEntity
  8
0
100
AcDbLine
 62
9
  6
CONTINUOUS
 10
1348.2132198867
 20
-226.1209528808
 11
1348.2132198867
 21
-236.1209528808
  0
LINE
  5
4E9
100
AcDbEntity
  8
0
100
AcDbLine
 62
9
  6
CONTINUOUS
 10
1348.2132198867
 20
-396.1209528808
 11
1348.2132198867
 21
-406.1209528808
  0
LINE
  5
4EA
100
AcDbEntity
  8
02___PRT_ALL_AXES
100
AcDbLine
 62
7
  6
CONTINUOUS
 10
1354.2132198867
 20
-226.1209528808
 11
1354.2132198867
 21
-236.1209528808
  0
LINE
  5
4EB
100
AcDbEntity
  8
0
100
AcDbLine
 62
7
  6
CONTINUOUS
 10
1354.2132198867
 20
-236.1209528808
 11
1354.2132198867
 21
-396.1209528808
  0
LINE
  5
4EC
100
AcDbEntity
  8
02___PRT_ALL_AXES
100
AcDbLine
 62
7
  6
CONTINUOUS
 10
1354.2132198867
 20
-396.1209528808
 11
1354.2132198867
 21
-406.1209528808
  0
LINE
  5
4ED
100
AcDbEntity
  8
0
100
AcDbLine
 62
9
  6
CONTINUOUS
 10
1366.2132198867
 20
-236.1209528808
 11
1366.2132198867
 21
-396.1209528808
  0
LINE
  5
4EE
100
AcDbEntity
  8
0
100
AcDbLine
 62
7
  6
CONTINUOUS
 10
1369.2132198867
 20
-239.1209528808
 11
1369.2132198867
 21
-393.1209528808
  0
LINE
  5
4EF
100
AcDbEntity
  8
0
100
AcDbLine
 62
9
  6
CONTINUOUS
 10
1371.2132198867
 20
-258.1209528808
 11
1371.2132198867
 21
-374.1209528808
  0
LINE
  5
4F0
100
AcDbEntity
  8
0
100
AcDbLine
 62
9
  6
CONTINUOUS
 10
1437.2132198867
 20
-374.1209528808
 11
1437.2132198867
 21
-258.1209528808
  0
LINE
  5
4F1
100
AcDbEntity
  8
0
100
AcDbLine
 62
7
  6
CONTINUOUS
 10
1439.2132198867
 20
-427.1209528808
 11
1439.2132198867
 21
-205.1209528808
  0
LINE
  5
4F2
100
AcDbEntity
  8
0
100
AcDbLine
 62
9
  6
CONTINUOUS
 10
1442.2132198867
 20
-430.1209528808
 11
1442.2132198867
 21
-202.1209528808
  0
LINE
  5
4F3
100
AcDbEntity
  8
02___PRT_ALL_AXES
100
AcDbLine
 62
7
  6
CONTINUOUS
 10
1459.2132198867
 20
-202.1209528808
 11
1459.2132198867
 21
-430.1209528808
  0
ARC
  5
4F4
100
AcDbEntity
  8
0
100
AcDbCircle
 62
7
  6
CONTINUOUS
 10
638.7132198867
 20
78.6496444993
 40
20.0
100
AcDbArc
 50
179.999999797
 51
224.999994135
  0
ARC
  5
4F5
100
AcDbEntity
  8
0
100
AcDbCircle
 62
7
  6
CONTINUOUS
 10
646.9974665191
 20
70.3653962243
 40
20.0
100
AcDbArc
 50
224.9999943643
 51
270.0
  0
ARC
  5
4F6
100
AcDbEntity
  8
0
100
AcDbCircle
 62
7
  6
CONTINUOUS
 10
739.7132198867
 20
28.3653962243
 40
8.0
100
AcDbArc
 50
270.0
 51
360.0
  0
ARC
  5
4F7
100
AcDbEntity
  8
0
100
AcDbCircle
 62
7
  6
CONTINUOUS
 10
977.7132198867
 20
28.3653962243
 40
8.0
100
AcDbArc
 50
180.0
 51
270.0
  0
ARC
  5
4F8
100
AcDbEntity
  8
0
100
AcDbCircle
 62
3
  6
CONTINUOUS
 10
751.7132198867
 20
40.3653962243
 40
8.0
100
AcDbArc
 50
90.0
 51
180.0
  0
ARC
  5
4F9
100
AcDbEntity
  8
0
100
AcDbCircle
 62
3
  6
CONTINUOUS
 10
965.7132198867
 20
40.3653962243
 40
8.0
100
AcDbArc
 50
0.0
 51
90.0
  0
ARC
  5
4FA
100
AcDbEntity
  8
0
100
AcDbCircle
 62
7
  6
CONTINUOUS
 10
751.7132198867
 20
40.3653962243
 40
4.0
100
AcDbArc
 50
90.0
 51
180.0
  0
ARC
  5
4FB
100
AcDbEntity
  8
0
100
AcDbCircle
 62
7
  6
CONTINUOUS
 10
965.7132198867
 20
40.3653962243
 40
4.0
100
AcDbArc
 50
0.0
 51
90.0
  0
ARC
  5
4FC
100
AcDbEntity
  8
0
100
AcDbCircle
 62
3
  6
CONTINUOUS
 10
739.7132198867
 20
28.3653962243
 40
4.0
100
AcDbArc
 50
270.0
 51
360.0
  0
ARC
  5
4FD
100
AcDbEntity
  8
0
100
AcDbCircle
 62
3
  6
CONTINUOUS
 10
977.7132198867
 20
28.3653962243
 40
4.0
100
AcDbArc
 50
180.0
 51
270.0
  0
ARC
  5
4FE
100
AcDbEntity
  8
0
100
AcDbCircle
 62
9
  6
CONTINUOUS
 10
1136.7238737953
 20
-7737.6393176461
 40
7925.7788134195
100
AcDbArc
 50
90.1436292879
 51
90.3730976105
  0
ARC
  5
4FF
100
AcDbEntity
  8
0
100
AcDbCircle
 62
7
  6
CONTINUOUS
 10
1054.7139423872
 20
93.3654538615
 40
3.0007225011
100
AcDbArc
 50
180.0011005244
 51
189.001436173
  0
ARC
  5
500
100
AcDbEntity
  8
0
100
AcDbCircle
 62
7
  6
CONTINUOUS
 10
1037.7132198867
 20
83.3653962243
 40
3.0
100
AcDbArc
 50
250.5287793655
 51
270.0
  0
ARC
  5
501
100
AcDbEntity
  8
0
100
AcDbCircle
 62
7
  6
CONTINUOUS
 10
1054.7132192951
 20
93.3653956327
 40
2.9999994084
100
AcDbArc
 50
179.9999887013
 51
270.0000112987
  0
ARC
  5
502
100
AcDbEntity
  8
0
100
AcDbCircle
 62
7
  6
CONTINUOUS
 10
1049.7132198867
 20
82.3653962243
 40
2.0
100
AcDbArc
 50
270.0
 51
360.0
  0
ARC
  5
503
100
AcDbEntity
  8
0
100
AcDbCircle
 62
7
  6
CONTINUOUS
 10
1159.2132198867
 20
48.3653962243
 40
25.0
100
AcDbArc
 50
179.9999999296
 51
270.0
  0
ARC
  5
504
100
AcDbEntity
  8
0
100
AcDbCircle
 62
7
  6
CONTINUOUS
 10
1124.7132198867
 20
47.3653962243
 40
2.0
100
AcDbArc
 50
180.0
 51
270.0
  0
ARC
  5
505
100
AcDbEntity
  8
0
100
AcDbCircle
 62
9
  6
CONTINUOUS
 10
1111.6522748805
 20
104.3338181735
 40
8.0609450064
100
AcDbArc
 50
0.0004605273
 51
3.7487991539
  0
ARC
  5
506
100
AcDbEntity
  8
0
100
AcDbCircle
 62
9
  6
CONTINUOUS
 10
1111.6550270702
 20
104.3339269572
 40
8.0581915934
100
AcDbArc
 50
3.7493067782
 51
4.5876920568
  0
ARC
  5
507
100
AcDbEntity
  8
0
100
AcDbCircle
 62
9
  6
CONTINUOUS
 10
1109.7384446781
 20
102.1237072433
 40
8.0075042218
100
AcDbArc
 50
47.614387124
 51
49.5483357646
  0
ARC
  5
508
100
AcDbEntity
  8
0
100
AcDbCircle
 62
9
  6
CONTINUOUS
 10
1111.7284846462
 20
104.39580016
 40
7.9597210103
100
AcDbArc
 50
47.9552407641
 51
49.9000778349
  0
ARC
  5
509
100
AcDbEntity
  8
0
100
AcDbCircle
 62
7
  6
CONTINUOUS
 10
1116.7132198315
 20
93.3653962761
 40
3.0000000693
100
AcDbArc
 50
270.0000004485
 51
359.9999919412
  0
ARC
  5
50A
100
AcDbEntity
  8
0
100
AcDbCircle
 62
7
  6
CONTINUOUS
 10
1118.7132198867
 20
76.3653962243
 40
4.0
100
AcDbArc
 50
0.0
 51
90.0
  0
ARC
  5
50B
100
AcDbEntity
  8
0
100
AcDbCircle
 62
9
  6
CONTINUOUS
 10
1125.5596977325
 20
103.8815423349
 40
8.8464778462
100
AcDbArc
 50
178.1480263931
 51
180.0004700902
  0
ARC
  5
50C
100
AcDbEntity
  8
0
100
AcDbCircle
 62
7
  6
CONTINUOUS
 10
1118.7132198867
 20
91.4924128781
 40
4.0
100
AcDbArc
 50
0.0
 51
51.3179876763
  0
ARC
  5
50D
100
AcDbEntity
  8
0
100
AcDbCircle
 62
7
  6
CONTINUOUS
 10
1123.7131689793
 20
97.7373864213
 40
3.9999490926
100
AcDbArc
 50
180.0
 51
231.3179876942
  0
ARC
  5
50E
100
AcDbEntity
  8
0
100
AcDbCircle
 62
9
  6
CONTINUOUS
 10
1090.4758037782
 20
143.1931842477
 40
10.5581979605
100
AcDbArc
 50
227.2368936971
 51
228.6664716416
  0
ARC
  5
50F
100
AcDbEntity
  8
0
100
AcDbCircle
 62
9
  6
CONTINUOUS
 10
1054.7132198867
 20
172.3653962243
 40
5.0
100
AcDbArc
 50
90.0
 51
180.0
  0
ARC
  5
510
100
AcDbEntity
  8
0
100
AcDbCircle
 62
7
  6
CONTINUOUS
 10
1054.7132198867
 20
172.3653962243
 40
3.0
100
AcDbArc
 50
90.0
 51
180.0
  0
ARC
  5
511
100
AcDbEntity
  8
0
100
AcDbCircle
 62
7
  6
CONTINUOUS
 10
1116.7132198867
 20
172.3653962243
 40
3.0
100
AcDbArc
 50
0.0
 51
90.0
  0
ARC
  5
512
100
AcDbEntity
  8
0
100
AcDbCircle
 62
7
  6
CONTINUOUS
 10
1119.7132198867
 20
172.3653962243
 40
3.0
100
AcDbArc
 50
0.0
 51
90.0
  0
ARC
  5
513
100
AcDbEntity
  8
0
100
AcDbCircle
 62
9
  6
CONTINUOUS
 10
1119.3220032686
 20
174.1079501593
 40
1.2591502096
100
AcDbArc
 50
73.0336775365
 51
74.2489304771
  0
ARC
  5
514
100
AcDbEntity
  8
0
100
AcDbCircle
 62
7
  6
CONTINUOUS
 10
1319.2132198867
 20
48.3653962243
 40
25.0
100
AcDbArc
 50
270.0
 51
310.6602078004
  0
ARC
  5
515
100
AcDbEntity
  8
0
100
AcDbCircle
 62
7
  6
CONTINUOUS
 10
1348.2132198867
 20
94.3653972157
 40
4.0000001127
100
AcDbArc
 50
180.000488292
 51
270.0
  0
ARC
  5
516
100
AcDbEntity
  8
0
100
AcDbCircle
 62
7
  6
CONTINUOUS
 10
1261.2132198867
 20
35.3653962243
 40
3.0
100
AcDbArc
 50
0.0
 51
90.0
  0
ARC
  5
517
100
AcDbEntity
  8
0
100
AcDbCircle
 62
7
  6
CONTINUOUS
 10
1217.2132198867
 20
35.3653962243
 40
3.0
100
AcDbArc
 50
90.0
 51
180.0
  0
ARC
  5
518
100
AcDbEntity
  8
0
100
AcDbCircle
 62
7
  6
CONTINUOUS
 10
1348.2132198867
 20
121.3653962243
 40
4.0
100
AcDbArc
 50
90.0
 51
180.0
  0
ARC
  5
519
100
AcDbEntity
  8
0
100
AcDbCircle
 62
7
  6
CONTINUOUS
 10
638.7132198867
 20
282.0811479492
 40
20.0
100
AcDbArc
 50
135.000005865
 51
180.000000203
  0
ARC
  5
51A
100
AcDbEntity
  8
0
100
AcDbCircle
 62
7
  6
CONTINUOUS
 10
646.9974665191
 20
290.3653962243
 40
20.0
100
AcDbArc
 50
90.0
 51
135.0000056357
  0
ARC
  5
51B
100
AcDbEntity
  8
0
100
AcDbCircle
 62
7
  6
CONTINUOUS
 10
1037.7132198867
 20
277.3653962243
 40
3.0
100
AcDbArc
 50
90.0
 51
109.4712206345
  0
ARC
  5
51C
100
AcDbEntity
  8
0
100
AcDbCircle
 62
9
  6
CONTINUOUS
 10
1054.7132198867
 20
188.3653962243
 40
5.0
100
AcDbArc
 50
180.0
 51
270.0
  0
ARC
  5
51D
100
AcDbEntity
  8
0
100
AcDbCircle
 62
7
  6
CONTINUOUS
 10
1054.7132198867
 20
188.3653962243
 40
3.0
100
AcDbArc
 50
180.0
 51
270.0
  0
ARC
  5
51E
100
AcDbEntity
  8
0
100
AcDbCircle
 62
7
  6
CONTINUOUS
 10
1054.7139379914
 20
267.365340453
 40
3.0007181052
100
AcDbArc
 50
170.9985765913
 51
179.9989351026
  0
ARC
  5
51F
100
AcDbEntity
  8
0
100
AcDbCircle
 62
7
  6
CONTINUOUS
 10
1054.7132197567
 20
267.3653963542
 40
2.99999987
100
AcDbArc
 50
89.9999975178
 51
180.0000024822
  0
ARC
  5
520
100
AcDbEntity
  8
0
100
AcDbCircle
 62
7
  6
CONTINUOUS
 10
1054.7130810012
 20
267.3667276954
 40
2.9986621882
100
AcDbArc
 50
93.9123904454
 51
99.5825752563
  0
ARC
  5
521
100
AcDbEntity
  8
0
100
AcDbCircle
 62
7
  6
CONTINUOUS
 10
1049.7132198867
 20
278.3653962243
 40
2.0
100
AcDbArc
 50
0.0
 51
90.0
  0
ARC
  5
522
100
AcDbEntity
  8
0
100
AcDbCircle
 62
9
  6
CONTINUOUS
 10
1090.4704359862
 20
217.5435783224
 40
10.5501700183
100
AcDbArc
 50
131.333052395
 51
132.7636975953
  0
ARC
  5
523
100
AcDbEntity
  8
0
100
AcDbCircle
 62
7
  6
CONTINUOUS
 10
1119.7132198867
 20
188.3653962243
 40
3.0
100
AcDbArc
 50
270.0
 51
360.0
  0
ARC
  5
524
100
AcDbEntity
  8
0
100
AcDbCircle
 62
7
  6
CONTINUOUS
 10
1116.7132198867
 20
188.3653962243
 40
3.0
100
AcDbArc
 50
270.0
 51
360.0
  0
ARC
  5
525
100
AcDbEntity
  8
0
100
AcDbCircle
 62
9
  6
CONTINUOUS
 10
1119.322003268
 20
186.6228422911
 40
1.2591502115
100
AcDbArc
 50
285.7510699031
 51
286.9663224512
  0
ARC
  5
526
100
AcDbEntity
  8
0
100
AcDbCircle
 62
9
  6
CONTINUOUS
 10
1125.5453364294
 20
256.8490180519
 40
8.832116548
100
AcDbArc
 50
179.9980237126
 51
181.8534798042
  0
ARC
  5
527
100
AcDbEntity
  8
0
100
AcDbCircle
 62
9
  6
CONTINUOUS
 10
1111.6524383566
 20
256.3969692891
 40
8.0607815303
100
AcDbArc
 50
356.2516062747
 51
359.9995749031
  0
ARC
  5
528
100
AcDbEntity
  8
0
100
AcDbCircle
 62
9
  6
CONTINUOUS
 10
1111.6550398418
 20
256.3968633134
 40
8.0581786823
100
AcDbArc
 50
355.4184332808
 51
356.2511489182
  0
ARC
  5
529
100
AcDbEntity
  8
0
100
AcDbCircle
 62
9
  6
CONTINUOUS
 10
1109.7384334523
 20
258.6070979344
 40
8.0075211914
100
AcDbArc
 50
310.4516660215
 51
312.3856108056
  0
ARC
  5
52A
100
AcDbEntity
  8
0
100
AcDbCircle
 62
9
  6
CONTINUOUS
 10
1111.7284857233
 20
256.3349910526
 40
7.9597193712
100
AcDbArc
 50
310.0999219651
 51
312.0447594365
  0
ARC
  5
52B
100
AcDbEntity
  8
0
100
AcDbCircle
 62
7
  6
CONTINUOUS
 10
1118.7132198867
 20
269.2383795705
 40
4.0
100
AcDbArc
 50
308.6821874282
 51
360.0
  0
ARC
  5
52C
100
AcDbEntity
  8
0
100
AcDbCircle
 62
7
  6
CONTINUOUS
 10
1118.7132198867
 20
284.3653962243
 40
4.0
100
AcDbArc
 50
270.0
 51
360.0
  0
ARC
  5
52D
100
AcDbEntity
  8
0
100
AcDbCircle
 62
7
  6
CONTINUOUS
 10
1123.7131689793
 20
262.9934060272
 40
3.9999490926
100
AcDbArc
 50
128.6820123237
 51
180.0
  0
ARC
  5
52E
100
AcDbEntity
  8
0
100
AcDbCircle
 62
7
  6
CONTINUOUS
 10
1116.7132233841
 20
267.3653968227
 40
2.9999965026
100
AcDbArc
 50
359.9999885715
 51
89.9999993565
  0
ARC
  5
52F
100
AcDbEntity
  8
0
100
AcDbCircle
 62
7
  6
CONTINUOUS
 10
1124.7132198867
 20
313.3653962243
 40
2.0
100
AcDbArc
 50
90.0
 51
180.0
  0
ARC
  5
530
100
AcDbEntity
  8
0
100
AcDbCircle
 62
7
  6
CONTINUOUS
 10
1159.2132198867
 20
395.3653962243
 40
25.0
100
AcDbArc
 50
89.9883388047
 51
180.0
  0
ARC
  5
531
100
AcDbEntity
  8
0
100
AcDbCircle
 62
7
  6
CONTINUOUS
 10
1157.2132198867
 20
447.3653962243
 40
3.0
100
AcDbArc
 50
90.0
 51
180.0
  0
ARC
  5
532
100
AcDbEntity
  8
0
100
AcDbCircle
 62
7
  6
CONTINUOUS
 10
1123.2132198867
 20
523.3653962243
 40
3.0
100
AcDbArc
 50
180.0
 51
270.0
  0
ARC
  5
533
100
AcDbEntity
  8
0
100
AcDbCircle
 62
7
  6
CONTINUOUS
 10
1174.2132198867
 20
452.3653962243
 40
2.0
100
AcDbArc
 50
270.000006527
 51
360.0
  0
ARC
  5
534
100
AcDbEntity
  8
0
100
AcDbCircle
 62
7
  6
CONTINUOUS
 10
1174.2132198867
 20
518.3653962243
 40
2.0
100
AcDbArc
 50
0.0
 51
89.9999941235
  0
ARC
  5
535
100
AcDbEntity
  8
0
100
AcDbCircle
 62
7
  6
CONTINUOUS
 10
1348.2132198867
 20
249.3653962243
 40
4.0
100
AcDbArc
 50
180.0
 51
270.0
  0
ARC
  5
536
100
AcDbEntity
  8
0
100
AcDbCircle
 62
7
  6
CONTINUOUS
 10
1366.2132198867
 20
263.3653962243
 40
3.0
100
AcDbArc
 50
270.0
 51
360.0
  0
ARC
  5
537
100
AcDbEntity
  8
0
100
AcDbCircle
 62
7
  6
CONTINUOUS
 10
1442.2132198867
 20
229.3653962243
 40
3.0
100
AcDbArc
 50
180.0
 51
270.0
  0
ARC
  5
538
100
AcDbEntity
  8
0
100
AcDbCircle
 62
7
  6
CONTINUOUS
 10
1371.2132198867
 20
280.3653962243
 40
2.0
100
AcDbArc
 50
90.0
 51
179.999993473
  0
ARC
  5
539
100
AcDbEntity
  8
0
100
AcDbCircle
 62
7
  6
CONTINUOUS
 10
1437.2132198867
 20
280.3653962243
 40
2.0
100
AcDbArc
 50
0.0000058765
 51
90.0
  0
ARC
  5
53A
100
AcDbEntity
  8
0
100
AcDbCircle
 62
7
  6
CONTINUOUS
 10
1311.2132198867
 20
447.3653962243
 40
3.0
100
AcDbArc
 50
0.0
 51
90.0
  0
ARC
  5
53B
100
AcDbEntity
  8
0
100
AcDbCircle
 62
7
  6
CONTINUOUS
 10
1345.2132198867
 20
523.3653962243
 40
3.0
100
AcDbArc
 50
270.0
 51
360.0
  0
ARC
  5
53C
100
AcDbEntity
  8
0
100
AcDbCircle
 62
7
  6
CONTINUOUS
 10
1366.2132198867
 20
417.3653962243
 40
3.0
100
AcDbArc
 50
0.0
 51
90.0
  0
ARC
  5
53D
100
AcDbEntity
  8
0
100
AcDbCircle
 62
7
  6
CONTINUOUS
 10
1442.2132198867
 20
451.3653962243
 40
3.0
100
AcDbArc
 50
90.0
 51
180.0
  0
ARC
  5
53E
100
AcDbEntity
  8
0
100
AcDbCircle
 62
7
  6
CONTINUOUS
 10
1294.2132198867
 20
452.3653962243
 40
2.0
100
AcDbArc
 50
180.0
 51
269.999993473
  0
ARC
  5
53F
100
AcDbEntity
  8
0
100
AcDbCircle
 62
7
  6
CONTINUOUS
 10
1294.2132198867
 20
518.3653962243
 40
2.0
100
AcDbArc
 50
90.0000058765
 51
180.0
  0
ARC
  5
540
100
AcDbEntity
  8
0
100
AcDbCircle
 62
7
  6
CONTINUOUS
 10
1371.2132198867
 20
400.3653962243
 40
2.0
100
AcDbArc
 50
180.000006527
 51
270.0
  0
ARC
  5
541
100
AcDbEntity
  8
0
100
AcDbCircle
 62
7
  6
CONTINUOUS
 10
1437.2132198867
 20
400.3653962243
 40
2.0
100
AcDbArc
 50
270.0
 51
359.9999941235
  0
ARC
  5
542
100
AcDbEntity
  8
0
100
AcDbCircle
 62
9
  6
CONTINUOUS
 10
1136.7238737882
 20
8098.3701085107
 40
7925.7788118355
100
AcDbArc
 50
269.6269023894
 51
269.8563707121
  0
ARC
  5
543
100
AcDbEntity
  8
0
100
AcDbCircle
 62
9
  6
CONTINUOUS
 10
3810.0229531212
 20
-2917.3021259352
 40
4157.7054534077
100
AcDbArc
 50
130.3724238013
 51
130.9435448796
  0
ARC
  5
544
100
AcDbEntity
  8
0
100
AcDbCircle
 62
9
  6
CONTINUOUS
 10
3810.0229478058
 20
3278.0329121946
 40
4157.7054452495
100
AcDbArc
 50
229.0564551198
 51
229.6275761992
  0
ARC
  5
545
100
AcDbEntity
  8
0
100
AcDbCircle
 62
7
  6
CONTINUOUS
 10
25.8506689624
 20
35.3653962243
 40
3.0
100
AcDbArc
 50
90.0
 51
180.0
  0
ARC
  5
546
100
AcDbEntity
  8
0
100
AcDbCircle
 62
9
  6
CONTINUOUS
 10
120.3506689624
 20
150.3653962243
 40
29.0
100
AcDbArc
 50
180.0
 51
270.0
  0
ARC
  5
547
100
AcDbEntity
  8
02___PRT_ALL_AXES
100
AcDbCircle
 62
7
  6
CONTINUOUS
 10
120.3506689624
 20
150.3653962243
 40
25.0
100
AcDbArc
 50
180.0
 51
270.0
  0
ARC
  5
548
100
AcDbEntity
  8
0
100
AcDbCircle
 62
7
  6
CONTINUOUS
 10
185.3506689624
 20
277.2029019332
 40
157.0
100
AcDbArc
 50
0.0
 51
51.9165628123
  0
ARC
  5
549
100
AcDbEntity
  8
0
100
AcDbCircle
 62
7
  6
CONTINUOUS
 10
185.3506689624
 20
180.3653962243
 40
157.0
100
AcDbArc
 50
180.0
 51
360.0
  0
ARC
  5
54A
100
AcDbEntity
  8
0
100
AcDbCircle
 62
7
  6
CONTINUOUS
 10
185.3506689624
 20
277.2029019332
 40
157.0
100
AcDbArc
 50
128.0834365358
 51
180.0
  0
ARC
  5
54B
100
AcDbEntity
  8
0
100
AcDbCircle
 62
9
  6
CONTINUOUS
 10
185.3506689624
 20
277.2029019332
 40
132.0
100
AcDbArc
 50
0.0
 51
30.4367861572
  0
ARC
  5
54C
100
AcDbEntity
  8
0
100
AcDbCircle
 62
9
  6
CONTINUOUS
 10
185.3506689624
 20
277.2029019332
 40
132.0
100
AcDbArc
 50
44.6620404753
 51
52.6947990342
  0
ARC
  5
54D
100
AcDbEntity
  8
0
100
AcDbCircle
 62
9
  6
CONTINUOUS
 10
185.3506689624
 20
180.3653962243
 40
132.0
100
AcDbArc
 50
300.8686807376
 51
360.0
  0
ARC
  5
54E
100
AcDbEntity
  8
0
100
AcDbCircle
 62
9
  6
CONTINUOUS
 10
185.3506689624
 20
180.3653962243
 40
132.0
100
AcDbArc
 50
180.0
 51
239.1313192549
  0
ARC
  5
54F
100
AcDbEntity
  8
0
100
AcDbCircle
 62
9
  6
CONTINUOUS
 10
185.3506689624
 20
277.2029019332
 40
132.0
100
AcDbArc
 50
127.3052009658
 51
135.3364015556
  0
ARC
  5
550
100
AcDbEntity
  8
0
100
AcDbCircle
 62
9
  6
CONTINUOUS
 10
185.3506689624
 20
277.2029019332
 40
132.0
100
AcDbArc
 50
149.563154014
 51
180.0
  0
ARC
  5
551
100
AcDbEntity
  8
0
100
AcDbCircle
 62
9
  6
CONTINUOUS
 10
120.3506689624
 20
220.3653962243
 40
29.0
100
AcDbArc
 50
95.9872519432
 51
180.0
  0
ARC
  5
552
100
AcDbEntity
  8
02___PRT_ALL_AXES
100
AcDbCircle
 62
7
  6
CONTINUOUS
 10
120.3506689624
 20
220.3653962243
 40
25.0
100
AcDbArc
 50
90.0
 51
180.0
  0
ARC
  5
553
100
AcDbEntity
  8
02___PRT_ALL_AXES
100
AcDbCircle
 62
7
  6
CONTINUOUS
 10
150.7178183333
 20
256.754298532
 40
9.0
100
AcDbArc
 50
321.3723797868
 51
173.6276202132
  0
ARC
  5
554
100
AcDbEntity
  8
02___PRT_ALL_AXES
100
AcDbCircle
 62
7
  6
CONTINUOUS
 10
148.8044011715
 20
252.1349008694
 40
9.0
100
AcDbArc
 50
141.3723797868
 51
353.6276202132
  0
CIRCLE
  5
555
100
AcDbEntity
  8
02___PRT_ALL_AXES
100
AcDbCircle
 62
7
  6
CONTINUOUS
 10
185.3506689624
 20
340.3653962243
 40
114.0
  0
CIRCLE
  5
556
100
AcDbEntity
  8
0
100
AcDbCircle
 62
7
  6
CONTINUOUS
 10
185.3506689624
 20
340.3653962243
 40
50.0
  0
ARC
  5
557
100
AcDbEntity
  8
02___PRT_ALL_AXES
100
AcDbCircle
 62
7
  6
CONTINUOUS
 10
101.7395712701
 20
305.7325455952
 40
9.0
100
AcDbArc
 50
276.3723797868
 51
128.6276202132
  0
ARC
  5
558
100
AcDbEntity
  8
02___PRT_ALL_AXES
100
AcDbCircle
 62
7
  6
CONTINUOUS
 10
101.7395712701
 20
374.9982468533
 40
9.0
100
AcDbArc
 50
231.3723797868
 51
83.6276202132
  0
ARC
  5
559
100
AcDbEntity
  8
02___PRT_ALL_AXES
100
AcDbCircle
 62
7
  6
CONTINUOUS
 10
150.7178183333
 20
423.9764939165
 40
9.0
100
AcDbArc
 50
186.3723797868
 51
38.6276202132
  0
ARC
  5
55A
100
AcDbEntity
  8
02___PRT_ALL_AXES
100
AcDbCircle
 62
7
  6
CONTINUOUS
 10
97.1201736075
 20
303.8191284334
 40
9.0
100
AcDbArc
 50
96.3723797868
 51
308.6276202132
  0
ARC
  5
55B
100
AcDbEntity
  8
02___PRT_ALL_AXES
100
AcDbCircle
 62
7
  6
CONTINUOUS
 10
97.1201736075
 20
376.9116640151
 40
9.0
100
AcDbArc
 50
51.3723797868
 51
263.6276202132
  0
ARC
  5
55C
100
AcDbEntity
  8
02___PRT_ALL_AXES
100
AcDbCircle
 62
7
  6
CONTINUOUS
 10
148.8044011715
 20
428.5958915791
 40
9.0
100
AcDbArc
 50
6.3723797868
 51
218.6276202132
  0
ARC
  5
55D
100
AcDbEntity
  8
0
100
AcDbCircle
 62
7
  6
CONTINUOUS
 10
124.3506689624
 20
523.3653962243
 40
3.0
100
AcDbArc
 50
180.0
 51
270.0
  0
ARC
  5
55E
100
AcDbEntity
  8
0
100
AcDbCircle
 62
7
  6
CONTINUOUS
 10
175.3506689624
 20
518.3653962243
 40
2.0
100
AcDbArc
 50
0.0
 51
90.0
  0
ARC
  5
55F
100
AcDbEntity
  8
0
100
AcDbCircle
 62
9
  6
CONTINUOUS
 10
250.3506689624
 20
150.3653962243
 40
29.0
100
AcDbArc
 50
270.0
 51
360.0
  0
ARC
  5
560
100
AcDbEntity
  8
0
100
AcDbCircle
 62
9
  6
CONTINUOUS
 10
250.3506689624
 20
220.3653962243
 40
29.0
100
AcDbArc
 50
0.0
 51
84.0128284195
  0
ARC
  5
561
100
AcDbEntity
  8
02___PRT_ALL_AXES
100
AcDbCircle
 62
7
  6
CONTINUOUS
 10
250.3506689624
 20
150.3653962243
 40
25.0
100
AcDbArc
 50
270.0
 51
360.0
  0
ARC
  5
562
100
AcDbEntity
  8
02___PRT_ALL_AXES
100
AcDbCircle
 62
7
  6
CONTINUOUS
 10
250.3506689624
 20
220.3653962243
 40
25.0
100
AcDbArc
 50
0.0
 51
90.0
  0
ARC
  5
563
100
AcDbEntity
  8
02___PRT_ALL_AXES
100
AcDbCircle
 62
7
  6
CONTINUOUS
 10
219.9835195914
 20
256.754298532
 40
9.0
100
AcDbArc
 50
6.3723797868
 51
218.6276202132
  0
ARC
  5
564
100
AcDbEntity
  8
02___PRT_ALL_AXES
100
AcDbCircle
 62
7
  6
CONTINUOUS
 10
221.8969367532
 20
252.1349008694
 40
9.0
100
AcDbArc
 50
186.3723797868
 51
38.6276202132
  0
ARC
  5
565
100
AcDbEntity
  8
0
100
AcDbCircle
 62
7
  6
CONTINUOUS
 10
309.8506689624
 20
35.3653962243
 40
3.0
100
AcDbArc
 50
0.0
 51
90.0
  0
ARC
  5
566
100
AcDbEntity
  8
02___PRT_ALL_AXES
100
AcDbCircle
 62
7
  6
CONTINUOUS
 10
219.9835195914
 20
423.9764939165
 40
9.0
100
AcDbArc
 50
141.3723797868
 51
353.6276202132
  0
ARC
  5
567
100
AcDbEntity
  8
02___PRT_ALL_AXES
100
AcDbCircle
 62
7
  6
CONTINUOUS
 10
268.9617666546
 20
374.9982468533
 40
9.0
100
AcDbArc
 50
96.3723797868
 51
308.6276202132
  0
ARC
  5
568
100
AcDbEntity
  8
02___PRT_ALL_AXES
100
AcDbCircle
 62
7
  6
CONTINUOUS
 10
268.9617666546
 20
305.7325455952
 40
9.0
100
AcDbArc
 50
51.3723797868
 51
263.6276202132
  0
ARC
  5
569
100
AcDbEntity
  8
02___PRT_ALL_AXES
100
AcDbCircle
 62
7
  6
CONTINUOUS
 10
221.8969367532
 20
428.5958915791
 40
9.0
100
AcDbArc
 50
321.3723797868
 51
173.6276202132
  0
ARC
  5
56A
100
AcDbEntity
  8
02___PRT_ALL_AXES
100
AcDbCircle
 62
7
  6
CONTINUOUS
 10
273.5811643172
 20
376.9116640151
 40
9.0
100
AcDbArc
 50
276.3723797868
 51
128.6276202132
  0
ARC
  5
56B
100
AcDbEntity
  8
02___PRT_ALL_AXES
100
AcDbCircle
 62
7
  6
CONTINUOUS
 10
273.5811643172
 20
303.8191284334
 40
9.0
100
AcDbArc
 50
231.3723797868
 51
83.6276202132
  0
ARC
  5
56C
100
AcDbEntity
  8
0
100
AcDbCircle
 62
7
  6
CONTINUOUS
 10
346.3506689624
 20
523.3653962243
 40
3.0
100
AcDbArc
 50
270.0
 51
360.0
  0
ARC
  5
56D
100
AcDbEntity
  8
0
100
AcDbCircle
 62
7
  6
CONTINUOUS
 10
312.3506689624
 20
447.3653962243
 40
3.0
100
AcDbArc
 50
0.0
 51
90.0
  0
ARC
  5
56E
100
AcDbEntity
  8
0
100
AcDbCircle
 62
7
  6
CONTINUOUS
 10
295.3506689624
 20
518.3653962243
 40
2.0
100
AcDbArc
 50
90.0
 51
180.0
  0
ARC
  5
56F
100
AcDbEntity
  8
0
100
AcDbCircle
 62
7
  6
CONTINUOUS
 10
295.3506689624
 20
452.3653962243
 40
2.0
100
AcDbArc
 50
180.0
 51
270.0
  0
ARC
  5
570
100
AcDbEntity
  8
0
100
AcDbCircle
 62
9
  6
CONTINUOUS
 10
-3426.7087466538
 20
-2917.3021197442
 40
4157.705445247
100
AcDbArc
 50
49.0564551198
 51
49.6275761992
  0
ARC
  5
571
100
AcDbEntity
  8
0
100
AcDbCircle
 62
9
  6
CONTINUOUS
 10
-3426.70875197
 20
3278.0329183829
 40
4157.7054534065
100
AcDbArc
 50
310.3724238013
 51
310.9435448796
  0
ARC
  5
572
100
AcDbEntity
  8
0
100
AcDbCircle
 62
9
  6
CONTINUOUS
 10
-753.4096726379
 20
-7737.6393160815
 40
7925.7788118549
100
AcDbArc
 50
89.6269023894
 51
89.8563707121
  0
ARC
  5
573
100
AcDbEntity
  8
0
100
AcDbCircle
 62
7
  6
CONTINUOUS
 10
-935.8990187362
 20
48.3653962243
 40
25.0
100
AcDbArc
 50
229.3397921996
 51
270.0
  0
ARC
  5
574
100
AcDbEntity
  8
0
100
AcDbCircle
 62
7
  6
CONTINUOUS
 10
-964.8990187362
 20
94.3653972157
 40
4.0000001127
100
AcDbArc
 50
270.0
 51
359.999511708
  0
ARC
  5
575
100
AcDbEntity
  8
0
100
AcDbCircle
 62
7
  6
CONTINUOUS
 10
-877.8990187362
 20
35.3653962243
 40
3.0
100
AcDbArc
 50
90.0
 51
180.0
  0
ARC
  5
576
100
AcDbEntity
  8
0
100
AcDbCircle
 62
7
  6
CONTINUOUS
 10
-833.8990187362
 20
35.3653962243
 40
3.0
100
AcDbArc
 50
0.0
 51
90.0
  0
ARC
  5
577
100
AcDbEntity
  8
0
100
AcDbCircle
 62
7
  6
CONTINUOUS
 10
-964.8990187362
 20
121.3653962243
 40
4.0
100
AcDbArc
 50
0.0
 51
90.0
  0
ARC
  5
578
100
AcDbEntity
  8
0
100
AcDbCircle
 62
7
  6
CONTINUOUS
 10
-775.8990187362
 20
48.3653962243
 40
25.0
100
AcDbArc
 50
270.0
 51
0.0000000704
  0
ARC
  5
579
100
AcDbEntity
  8
0
100
AcDbCircle
 62
9
  6
CONTINUOUS
 10
-742.2311352796
 20
103.8817743966
 40
8.8321165486
100
AcDbArc
 50
359.9980237126
 51
1.8534798041
  0
ARC
  5
57A
100
AcDbEntity
  8
0
100
AcDbCircle
 62
9
  6
CONTINUOUS
 10
-728.3382372059
 20
104.3338231594
 40
8.0607815305
100
AcDbArc
 50
176.2516062747
 51
179.9995749031
  0
ARC
  5
57B
100
AcDbEntity
  8
0
100
AcDbCircle
 62
9
  6
CONTINUOUS
 10
-728.3408386928
 20
104.3339291353
 40
8.0581786809
100
AcDbArc
 50
175.4184332807
 51
176.2511489183
  0
ARC
  5
57C
100
AcDbEntity
  8
0
100
AcDbCircle
 62
9
  6
CONTINUOUS
 10
-726.4242323018
 20
102.1236945141
 40
8.0075211915
100
AcDbArc
 50
130.4516660215
 51
132.3856108056
  0
ARC
  5
57D
100
AcDbEntity
  8
0
100
AcDbCircle
 62
9
  6
CONTINUOUS
 10
-728.4142845735
 20
104.3958013967
 40
7.9597193702
100
AcDbArc
 50
130.099921965
 51
132.0447594366
  0
ARC
  5
57E
100
AcDbEntity
  8
0
100
AcDbCircle
 62
7
  6
CONTINUOUS
 10
-735.3990187362
 20
91.4924128781
 40
4.0
100
AcDbArc
 50
128.6821874282
 51
180.0
  0
ARC
  5
57F
100
AcDbEntity
  8
0
100
AcDbCircle
 62
7
  6
CONTINUOUS
 10
-735.3990187362
 20
76.3653962243
 40
4.0
100
AcDbArc
 50
90.0
 51
180.0
  0
ARC
  5
580
100
AcDbEntity
  8
0
100
AcDbCircle
 62
7
  6
CONTINUOUS
 10
-740.3989678341
 20
97.7373864238
 40
3.9999490979
100
AcDbArc
 50
308.6820123237
 51
360.0
  0
ARC
  5
581
100
AcDbEntity
  8
0
100
AcDbCircle
 62
7
  6
CONTINUOUS
 10
-671.3997368409
 20
93.3654519955
 40
3.0007181052
100
AcDbArc
 50
350.9985765911
 51
359.9989351026
  0
ARC
  5
582
100
AcDbEntity
  8
0
100
AcDbCircle
 62
7
  6
CONTINUOUS
 10
-654.3990187362
 20
83.3653962243
 40
3.0
100
AcDbArc
 50
270.0
 51
289.4712206345
  0
ARC
  5
583
100
AcDbEntity
  8
0
100
AcDbCircle
 62
7
  6
CONTINUOUS
 10
-671.3990186063
 20
93.3653960943
 40
2.99999987
100
AcDbArc
 50
269.9999975178
 51
0.0000024822
  0
ARC
  5
584
100
AcDbEntity
  8
0
100
AcDbCircle
 62
7
  6
CONTINUOUS
 10
-733.3990222336
 20
93.3653956259
 40
2.9999965026
100
AcDbArc
 50
179.9999885715
 51
269.9999993565
  0
ARC
  5
585
100
AcDbEntity
  8
0
100
AcDbCircle
 62
7
  6
CONTINUOUS
 10
-671.3988798508
 20
93.3640647531
 40
2.9986621882
100
AcDbArc
 50
273.9123904454
 51
279.5825752563
  0
ARC
  5
586
100
AcDbEntity
  8
0
100
AcDbCircle
 62
7
  6
CONTINUOUS
 10
-741.3990187362
 20
47.3653962243
 40
2.0
100
AcDbArc
 50
270.0
 51
360.0
  0
ARC
  5
587
100
AcDbEntity
  8
0
100
AcDbCircle
 62
7
  6
CONTINUOUS
 10
-666.3990187362
 20
82.3653962243
 40
2.0
100
AcDbArc
 50
180.0
 51
270.0
  0
ARC
  5
588
100
AcDbEntity
  8
0
100
AcDbCircle
 62
9
  6
CONTINUOUS
 10
-707.1562348361
 20
143.1872141265
 40
10.5501700187
100
AcDbArc
 50
311.3330523951
 51
312.7636975953
  0
ARC
  5
589
100
AcDbEntity
  8
0
100
AcDbCircle
 62
9
  6
CONTINUOUS
 10
-671.3990187362
 20
172.3653962243
 40
5.0
100
AcDbArc
 50
0.0
 51
90.0
  0
ARC
  5
58A
100
AcDbEntity
  8
0
100
AcDbCircle
 62
7
  6
CONTINUOUS
 10
-671.3990187362
 20
172.3653962243
 40
3.0
100
AcDbArc
 50
0.0
 51
90.0
  0
ARC
  5
58B
100
AcDbEntity
  8
0
100
AcDbCircle
 62
7
  6
CONTINUOUS
 10
-733.3990187362
 20
172.3653962243
 40
3.0
100
AcDbArc
 50
90.0
 51
180.0
  0
ARC
  5
58C
100
AcDbEntity
  8
0
100
AcDbCircle
 62
7
  6
CONTINUOUS
 10
-736.3990187362
 20
172.3653962243
 40
3.0
100
AcDbArc
 50
90.0
 51
180.0
  0
ARC
  5
58D
100
AcDbEntity
  8
0
100
AcDbCircle
 62
9
  6
CONTINUOUS
 10
-736.0078021175
 20
174.1079501574
 40
1.2591502116
100
AcDbArc
 50
105.7510699033
 51
106.9663224513
  0
ARC
  5
58E
100
AcDbEntity
  8
0
100
AcDbCircle
 62
7
  6
CONTINUOUS
 10
-255.3990187362
 20
78.6496444993
 40
20.0
100
AcDbArc
 50
315.000005865
 51
0.000000203
  0
ARC
  5
58F
100
AcDbEntity
  8
0
100
AcDbCircle
 62
7
  6
CONTINUOUS
 10
-263.6832653687
 20
70.3653962243
 40
20.0
100
AcDbArc
 50
270.0
 51
315.0000056357
  0
ARC
  5
590
100
AcDbEntity
  8
0
100
AcDbCircle
 62
7
  6
CONTINUOUS
 10
-356.3990187362
 20
28.3653962243
 40
8.0
100
AcDbArc
 50
180.0
 51
270.0
  0
ARC
  5
591
100
AcDbEntity
  8
0
100
AcDbCircle
 62
7
  6
CONTINUOUS
 10
-594.3990187362
 20
28.3653962243
 40
8.0
100
AcDbArc
 50
270.0
 51
360.0
  0
ARC
  5
592
100
AcDbEntity
  8
0
100
AcDbCircle
 62
3
  6
CONTINUOUS
 10
-368.3990187362
 20
40.3653962243
 40
8.0
100
AcDbArc
 50
0.0
 51
90.0
  0
ARC
  5
593
100
AcDbEntity
  8
0
100
AcDbCircle
 62
3
  6
CONTINUOUS
 10
-582.3990187362
 20
40.3653962243
 40
8.0
100
AcDbArc
 50
90.0
 51
180.0
  0
ARC
  5
594
100
AcDbEntity
  8
0
100
AcDbCircle
 62
7
  6
CONTINUOUS
 10
-368.3990187362
 20
40.3653962243
 40
4.0
100
AcDbArc
 50
0.0
 51
90.0
  0
ARC
  5
595
100
AcDbEntity
  8
0
100
AcDbCircle
 62
7
  6
CONTINUOUS
 10
-582.3990187362
 20
40.3653962243
 40
4.0
100
AcDbArc
 50
90.0
 51
180.0
  0
ARC
  5
596
100
AcDbEntity
  8
0
100
AcDbCircle
 62
3
  6
CONTINUOUS
 10
-356.3990187362
 20
28.3653962243
 40
4.0
100
AcDbArc
 50
180.0
 51
270.0
  0
ARC
  5
597
100
AcDbEntity
  8
0
100
AcDbCircle
 62
3
  6
CONTINUOUS
 10
-594.3990187362
 20
28.3653962243
 40
4.0
100
AcDbArc
 50
270.0
 51
360.0
  0
ARC
  5
598
100
AcDbEntity
  8
0
100
AcDbCircle
 62
7
  6
CONTINUOUS
 10
-964.8990187362
 20
249.3653962243
 40
4.0
100
AcDbArc
 50
270.0
 51
360.0
  0
ARC
  5
599
100
AcDbEntity
  8
0
100
AcDbCircle
 62
7
  6
CONTINUOUS
 10
-982.8990187362
 20
263.3653962243
 40
3.0
100
AcDbArc
 50
180.0
 51
270.0
  0
ARC
  5
59A
100
AcDbEntity
  8
0
100
AcDbCircle
 62
7
  6
CONTINUOUS
 10
-1058.8990187362
 20
229.3653962243
 40
3.0
100
AcDbArc
 50
270.0
 51
360.0
  0
ARC
  5
59B
100
AcDbEntity
  8
0
100
AcDbCircle
 62
7
  6
CONTINUOUS
 10
-987.8990187362
 20
280.3653962243
 40
2.0
100
AcDbArc
 50
0.000006527
 51
90.0
  0
ARC
  5
59C
100
AcDbEntity
  8
0
100
AcDbCircle
 62
7
  6
CONTINUOUS
 10
-1053.8990187362
 20
280.3653962243
 40
2.0
100
AcDbArc
 50
90.0
 51
179.9999941235
  0
ARC
  5
59D
100
AcDbEntity
  8
0
100
AcDbCircle
 62
7
  6
CONTINUOUS
 10
-982.8990187362
 20
417.3653962243
 40
3.0
100
AcDbArc
 50
90.0
 51
180.0
  0
ARC
  5
59E
100
AcDbEntity
  8
0
100
AcDbCircle
 62
7
  6
CONTINUOUS
 10
-1058.8990187362
 20
451.3653962243
 40
3.0
100
AcDbArc
 50
0.0
 51
90.0
  0
ARC
  5
59F
100
AcDbEntity
  8
0
100
AcDbCircle
 62
7
  6
CONTINUOUS
 10
-927.8990187362
 20
447.3653962243
 40
3.0
100
AcDbArc
 50
90.0
 51
180.0
  0
ARC
  5
5A0
100
AcDbEntity
  8
0
100
AcDbCircle
 62
7
  6
CONTINUOUS
 10
-961.8990187362
 20
523.3653962243
 40
3.0
100
AcDbArc
 50
180.0
 51
270.0
  0
ARC
  5
5A1
100
AcDbEntity
  8
0
100
AcDbCircle
 62
7
  6
CONTINUOUS
 10
-987.8990187362
 20
400.3653962243
 40
2.0
100
AcDbArc
 50
270.0
 51
359.999993473
  0
ARC
  5
5A2
100
AcDbEntity
  8
0
100
AcDbCircle
 62
7
  6
CONTINUOUS
 10
-1053.8990187362
 20
400.3653962243
 40
2.0
100
AcDbArc
 50
180.0000058765
 51
270.0
  0
ARC
  5
5A3
100
AcDbEntity
  8
0
100
AcDbCircle
 62
7
  6
CONTINUOUS
 10
-910.8990187362
 20
452.3653962243
 40
2.0
100
AcDbArc
 50
270.000006527
 51
360.0
  0
ARC
  5
5A4
100
AcDbEntity
  8
0
100
AcDbCircle
 62
7
  6
CONTINUOUS
 10
-910.8990187362
 20
518.3653962243
 40
2.0
100
AcDbArc
 50
0.0
 51
89.9999941235
  0
ARC
  5
5A5
100
AcDbEntity
  8
0
100
AcDbCircle
 62
9
  6
CONTINUOUS
 10
-707.1615776157
 20
217.5376359324
 40
10.5581606185
100
AcDbArc
 50
47.2368911689
 51
48.6664741698
  0
ARC
  5
5A6
100
AcDbEntity
  8
0
100
AcDbCircle
 62
7
  6
CONTINUOUS
 10
-736.3990187362
 20
188.3653962243
 40
3.0
100
AcDbArc
 50
180.0
 51
270.0
  0
ARC
  5
5A7
100
AcDbEntity
  8
0
100
AcDbCircle
 62
7
  6
CONTINUOUS
 10
-733.3990187362
 20
188.3653962243
 40
3.0
100
AcDbArc
 50
180.0
 51
270.0
  0
ARC
  5
5A8
100
AcDbEntity
  8
0
100
AcDbCircle
 62
9
  6
CONTINUOUS
 10
-736.0078021181
 20
186.6228422894
 40
1.2591502098
100
AcDbArc
 50
253.0336775365
 51
254.2489304769
  0
ARC
  5
5A9
100
AcDbEntity
  8
0
100
AcDbCircle
 62
9
  6
CONTINUOUS
 10
-742.2454965821
 20
256.8492501137
 40
8.8464778462
100
AcDbArc
 50
358.1480263931
 51
0.0004700902
  0
ARC
  5
5AA
100
AcDbEntity
  8
0
100
AcDbCircle
 62
9
  6
CONTINUOUS
 10
-728.3380737565
 20
256.396974274
 40
8.06094498
100
AcDbArc
 50
180.0004605196
 51
183.7487991038
  0
ARC
  5
5AB
100
AcDbEntity
  8
0
100
AcDbCircle
 62
9
  6
CONTINUOUS
 10
-728.3408258768
 20
256.3968654957
 40
8.0581916366
100
AcDbArc
 50
183.7493067346
 51
184.5876603111
  0
ARC
  5
5AC
100
AcDbEntity
  8
0
100
AcDbCircle
 62
9
  6
CONTINUOUS
 10
-726.4242396647
 20
258.6070895839
 40
8.0075100601
100
AcDbArc
 50
227.614387829
 51
229.5483350595
  0
ARC
  5
5AD
100
AcDbEntity
  8
0
100
AcDbCircle
 62
9
  6
CONTINUOUS
 10
-728.4142789714
 20
256.33499748
 40
7.9597278956
100
AcDbArc
 50
227.9552416054
 51
229.9000769937
  0
ARC
  5
5AE
100
AcDbEntity
  8
0
100
AcDbCircle
 62
7
  6
CONTINUOUS
 10
-735.3990187362
 20
269.2383795705
 40
4.0
100
AcDbArc
 50
180.0
 51
231.3179876942
  0
ARC
  5
5AF
100
AcDbEntity
  8
0
100
AcDbCircle
 62
7
  6
CONTINUOUS
 10
-735.3990187362
 20
284.3653962243
 40
4.0
100
AcDbArc
 50
180.0
 51
270.0
  0
ARC
  5
5B0
100
AcDbEntity
  8
0
100
AcDbCircle
 62
7
  6
CONTINUOUS
 10
-740.3989678289
 20
262.9934060272
 40
3.9999490926
100
AcDbArc
 50
0.0
 51
51.3179876942
  0
ARC
  5
5B1
100
AcDbEntity
  8
0
100
AcDbCircle
 62
7
  6
CONTINUOUS
 10
-733.399018681
 20
267.3653961725
 40
3.0000000693
100
AcDbArc
 50
90.0000004485
 51
179.9999919412
  0
ARC
  5
5B2
100
AcDbEntity
  8
0
100
AcDbCircle
 62
7
  6
CONTINUOUS
 10
-741.3990187362
 20
313.3653962243
 40
2.0
100
AcDbArc
 50
0.0
 51
90.0
  0
ARC
  5
5B3
100
AcDbEntity
  8
0
100
AcDbCircle
 62
9
  6
CONTINUOUS
 10
-671.3990187362
 20
188.3653962243
 40
5.0
100
AcDbArc
 50
270.0
 51
360.0
  0
ARC
  5
5B4
100
AcDbEntity
  8
0
100
AcDbCircle
 62
7
  6
CONTINUOUS
 10
-671.3990187362
 20
188.3653962243
 40
3.0
100
AcDbArc
 50
270.0
 51
360.0
  0
ARC
  5
5B5
100
AcDbEntity
  8
0
100
AcDbCircle
 62
7
  6
CONTINUOUS
 10
-671.4074942568
 20
267.3642325303
 40
3.0085530934
100
AcDbArc
 50
8.9991394989
 51
9.5433290822
  0
ARC
  5
5B6
100
AcDbEntity
  8
0
100
AcDbCircle
 62
7
  6
CONTINUOUS
 10
-671.3997412369
 20
267.3653385871
 40
3.0007225012
100
AcDbArc
 50
0.0011005245
 51
9.0014361727
  0
ARC
  5
5B7
100
AcDbEntity
  8
0
100
AcDbCircle
 62
7
  6
CONTINUOUS
 10
-671.3990941349
 20
267.3648988186
 40
3.0005013524
100
AcDbArc
 50
80.4122201983
 51
86.0859102689
  0
ARC
  5
5B8
100
AcDbEntity
  8
0
100
AcDbCircle
 62
7
  6
CONTINUOUS
 10
-671.3990181446
 20
267.3653968159
 40
2.9999994084
100
AcDbArc
 50
359.9999887013
 51
90.0000112987
  0
ARC
  5
5B9
100
AcDbEntity
  8
0
100
AcDbCircle
 62
7
  6
CONTINUOUS
 10
-666.3990187362
 20
278.3653962243
 40
2.0
100
AcDbArc
 50
90.0
 51
180.0
  0
ARC
  5
5BA
100
AcDbEntity
  8
0
100
AcDbCircle
 62
7
  6
CONTINUOUS
 10
-775.8990187362
 20
395.3653962243
 40
25.0
100
AcDbArc
 50
0.0
 51
90.0116611953
  0
ARC
  5
5BB
100
AcDbEntity
  8
0
100
AcDbCircle
 62
7
  6
CONTINUOUS
 10
-773.8990187362
 20
447.3653962243
 40
3.0
100
AcDbArc
 50
0.0
 51
90.0
  0
ARC
  5
5BC
100
AcDbEntity
  8
0
100
AcDbCircle
 62
7
  6
CONTINUOUS
 10
-739.8990187362
 20
523.3653962243
 40
3.0
100
AcDbArc
 50
270.0
 51
360.0
  0
ARC
  5
5BD
100
AcDbEntity
  8
0
100
AcDbCircle
 62
7
  6
CONTINUOUS
 10
-790.8990187362
 20
452.3653962243
 40
2.0
100
AcDbArc
 50
180.0
 51
269.999993473
  0
ARC
  5
5BE
100
AcDbEntity
  8
0
100
AcDbCircle
 62
7
  6
CONTINUOUS
 10
-790.8990187362
 20
518.3653962243
 40
2.0
100
AcDbArc
 50
90.0000058765
 51
180.0
  0
ARC
  5
5BF
100
AcDbEntity
  8
0
100
AcDbCircle
 62
9
  6
CONTINUOUS
 10
-753.4096726446
 20
8098.37011004
 40
7925.7788133648
100
AcDbArc
 50
270.1436292879
 51
270.3730976105
  0
ARC
  5
5C0
100
AcDbEntity
  8
0
100
AcDbCircle
 62
7
  6
CONTINUOUS
 10
-255.3990187362
 20
282.0811479492
 40
20.0
100
AcDbArc
 50
359.999999797
 51
44.999994135
  0
ARC
  5
5C1
100
AcDbEntity
  8
0
100
AcDbCircle
 62
7
  6
CONTINUOUS
 10
-263.6832653687
 20
290.3653962243
 40
20.0
100
AcDbArc
 50
44.9999943643
 51
90.0
  0
ARC
  5
5C2
100
AcDbEntity
  8
0
100
AcDbCircle
 62
7
  6
CONTINUOUS
 10
-654.3990187362
 20
277.3653962243
 40
3.0
100
AcDbArc
 50
70.5287793655
 51
90.0
  0
ARC
  5
5C3
100
AcDbEntity
  8
3_ALL_AXES
100
AcDbCircle
 62
7
  6
CONTINUOUS
 10
1784.1835944666
 20
132.5299671786
 40
5.5
100
AcDbArc
 50
172.2140392775
 51
230.4968713939
  0
ARC
  5
5C4
100
AcDbEntity
  8
3_ALL_AXES
100
AcDbCircle
 62
7
  6
CONTINUOUS
 10
1784.1835944666
 20
228.2008252699
 40
5.5
100
AcDbArc
 50
129.3846007652
 51
188.403464439
  0
ARC
  5
5C5
100
AcDbEntity
  8
0
100
AcDbCircle
 62
7
  6
CONTINUOUS
 10
1757.6685360305
 20
35.3653962243
 40
3.0
100
AcDbArc
 50
90.0
 51
180.0
  0
ARC
  5
5C6
100
AcDbEntity
  8
0
100
AcDbCircle
 62
7
  6
CONTINUOUS
 10
1822.1685360305
 20
400.3653962243
 40
20.0
100
AcDbArc
 50
90.0
 51
115.9733581319
  0
ARC
  5
5C7
100
AcDbEntity
  8
0
100
AcDbCircle
 62
7
  6
CONTINUOUS
 10
1721.1685360305
 20
523.3653962243
 40
3.0
100
AcDbArc
 50
180.0
 51
270.0
  0
ARC
  5
5C8
100
AcDbEntity
  8
0
100
AcDbCircle
 62
7
  6
CONTINUOUS
 10
1755.1685360305
 20
447.3653962243
 40
3.0
100
AcDbArc
 50
90.0
 51
180.0
  0
ARC
  5
5C9
100
AcDbEntity
  8
0
100
AcDbCircle
 62
7
  6
CONTINUOUS
 10
1772.1685360305
 20
518.3653962243
 40
2.0
100
AcDbArc
 50
0.0
 51
90.0
  0
ARC
  5
5CA
100
AcDbEntity
  8
0
100
AcDbCircle
 62
7
  6
CONTINUOUS
 10
1772.1685360305
 20
452.3653962243
 40
2.0
100
AcDbArc
 50
270.0
 51
360.0
  0
ARC
  5
5CB
100
AcDbEntity
  8
0
100
AcDbCircle
 62
7
  6
CONTINUOUS
 10
1882.1685360305
 20
180.3653962243
 40
157.0
100
AcDbArc
 50
311.7627739363
 51
360.0
  0
ARC
  5
5CC
100
AcDbEntity
  8
0
100
AcDbCircle
 62
7
  6
CONTINUOUS
 10
1882.1685360305
 20
180.3653962243
 40
157.0
100
AcDbArc
 50
180.0
 51
228.2372260637
  0
ARC
  5
5CD
100
AcDbEntity
  8
0
100
AcDbCircle
 62
9
  6
CONTINUOUS
 10
1882.1685360305
 20
180.3653962243
 40
131.9999998705
100
AcDbArc
 50
180.0
 51
242.4728907975
  0
ARC
  5
5CE
100
AcDbEntity
  8
0
100
AcDbCircle
 62
7
  6
CONTINUOUS
 10
1882.1685360305
 20
277.2029019332
 40
157.0
100
AcDbArc
 50
115.9735268484
 51
180.0
  0
ARC
  5
5CF
100
AcDbEntity
  8
0
100
AcDbCircle
 62
7
  6
CONTINUOUS
 10
1882.1685360305
 20
277.2029019332
 40
157.0
100
AcDbArc
 50
0.0
 51
64.0264731544
  0
ARC
  5
5D0
100
AcDbEntity
  8
0
100
AcDbCircle
 62
9
  6
CONTINUOUS
 10
1882.1685360305
 20
277.2029019332
 40
132.0
100
AcDbArc
 50
0.0
 51
63.5304426229
  0
ARC
  5
5D1
100
AcDbEntity
  8
0
100
AcDbCircle
 62
9
  6
CONTINUOUS
 10
1882.1685360305
 20
277.2029019332
 40
132.0
100
AcDbArc
 50
116.4695542322
 51
180.0
  0
ARC
  5
5D2
100
AcDbEntity
  8
0
100
AcDbCircle
 62
7
  6
CONTINUOUS
 10
1899.6685360305
 20
180.3653962243
 40
135.0
100
AcDbArc
 50
121.2455795379
 51
240.133964357
  0
ARC
  5
5D3
100
AcDbEntity
  8
0
100
AcDbCircle
 62
7
  6
CONTINUOUS
 10
1899.6685360305
 20
180.3653962243
 40
135.0
100
AcDbArc
 50
299.866035643
 51
58.7544204621
  0
ARC
  5
5D4
100
AcDbEntity
  8
0
100
AcDbCircle
 62
9
  6
CONTINUOUS
 10
1899.6685360305
 20
180.3653962243
 40
133.0
100
AcDbArc
 50
121.7616627414
 51
241.6280456692
  0
ARC
  5
5D5
100
AcDbEntity
  8
0
100
AcDbCircle
 62
9
  6
CONTINUOUS
 10
1899.6685360305
 20
180.3653962243
 40
133.0
100
AcDbArc
 50
298.3719542882
 51
58.2383372421
  0
CIRCLE
  5
5D6
100
AcDbEntity
  8
0
100
AcDbCircle
 62
7
  6
CONTINUOUS
 10
1899.6685360305
 20
180.3653962243
 40
130.0
  0
CIRCLE
  5
5D7
100
AcDbEntity
  8
0
100
AcDbCircle
 62
9
  6
CONTINUOUS
 10
1899.6685360305
 20
180.3653962243
 40
124.142132737
  0
CIRCLE
  5
5D8
100
AcDbEntity
  8
0
100
AcDbCircle
 62
9
  6
CONTINUOUS
 10
1899.6685360305
 20
180.3653962243
 40
115.8578858013
  0
CIRCLE
  5
5D9
100
AcDbEntity
  8
0
100
AcDbCircle
 62
9
  6
CONTINUOUS
 10
1899.6685360305
 20
180.3653962243
 40
101.7157515143
  0
ARC
  5
5DA
100
AcDbEntity
  8
3_ALL_AXES
100
AcDbCircle
 62
7
  6
CONTINUOUS
 10
2015.1534775944
 20
132.5299671786
 40
5.5
100
AcDbArc
 50
309.3846007652
 51
8.4034644597
  0
ARC
  5
5DB
100
AcDbEntity
  8
0
100
AcDbCircle
 62
7
  6
CONTINUOUS
 10
2041.6685360305
 20
35.3653962243
 40
3.0
100
AcDbArc
 50
0.0
 51
90.0
  0
ARC
  5
5DC
100
AcDbEntity
  8
3_ALL_AXES
100
AcDbCircle
 62
7
  6
CONTINUOUS
 10
2015.1534775944
 20
228.2008252699
 40
5.5
100
AcDbArc
 50
352.2140394306
 51
50.4968713939
  0
ARC
  5
5DD
100
AcDbEntity
  8
0
100
AcDbCircle
 62
7
  6
CONTINUOUS
 10
1882.1685360305
 20
340.3653962243
 40
114.0
100
AcDbArc
 50
32.1152404868
 51
32.3182259255
  0
ARC
  5
5DE
100
AcDbEntity
  8
0
100
AcDbCircle
 62
7
  6
CONTINUOUS
 10
1882.1685360305
 20
340.3653962243
 40
114.0
100
AcDbArc
 50
56.5884482892
 51
85.9750741187
  0
ARC
  5
5DF
100
AcDbEntity
  8
0
100
AcDbCircle
 62
9
  6
CONTINUOUS
 10
1882.1685360305
 20
340.3653962243
 40
111.0
100
AcDbArc
 50
59.0745826191
 51
74.2820709052
  0
ARC
  5
5E0
100
AcDbEntity
  8
0
100
AcDbCircle
 62
9
  6
CONTINUOUS
 10
1882.1685360305
 20
340.3653962243
 40
111.0
100
AcDbArc
 50
82.2349866096
 51
85.5674879916
  0
ARC
  5
5E1
100
AcDbEntity
  8
0
100
AcDbCircle
 62
9
  6
CONTINUOUS
 10
1942.4339080832
 20
401.5611738009
 40
22.804226245
100
AcDbArc
 50
63.3419163531
 51
89.9668292038
  0
ARC
  5
5E2
100
AcDbEntity
  8
0
100
AcDbCircle
 62
7
  6
CONTINUOUS
 10
1942.1685360305
 20
400.3653962243
 40
20.0
100
AcDbArc
 50
64.0266418903
 51
90.0000086892
  0
ARC
  5
5E3
100
AcDbEntity
  8
02___PRT_ALL_AXES
100
AcDbCircle
 62
7
  6
CONTINUOUS
 10
1918.7148038214
 20
428.5958915791
 40
9.0
100
AcDbArc
 50
49.099100065
 51
131.1972220968
  0
ARC
  5
5E4
100
AcDbEntity
  8
0
100
AcDbCircle
 62
7
  6
CONTINUOUS
 10
1943.1685360305
 20
523.3653962243
 40
3.0
100
AcDbArc
 50
270.0
 51
360.0
  0
ARC
  5
5E5
100
AcDbEntity
  8
0
100
AcDbCircle
 62
7
  6
CONTINUOUS
 10
1909.1685360305
 20
447.3653962243
 40
3.0
100
AcDbArc
 50
0.0
 51
90.0
  0
ARC
  5
5E6
100
AcDbEntity
  8
0
100
AcDbCircle
 62
7
  6
CONTINUOUS
 10
1892.1685360305
 20
518.3653962243
 40
2.0
100
AcDbArc
 50
90.0
 51
180.0
  0
ARC
  5
5E7
100
AcDbEntity
  8
0
100
AcDbCircle
 62
7
  6
CONTINUOUS
 10
1892.1685360305
 20
452.3653962243
 40
2.0
100
AcDbArc
 50
180.0
 51
270.0
  0
ARC
  5
5E8
100
AcDbEntity
  8
0
100
AcDbCircle
 62
7
  6
CONTINUOUS
 10
646.9974665191
 20
-443.6209528808
 40
20.0
100
AcDbArc
 50
224.9999943197
 51
270.0
  0
ARC
  5
5E9
100
AcDbEntity
  8
0
100
AcDbCircle
 62
7
  6
CONTINUOUS
 10
638.7132198867
 20
-435.3367046057
 40
20.0
100
AcDbArc
 50
180.0
 51
224.9999943197
  0
ARC
  5
5EA
100
AcDbEntity
  8
0
100
AcDbCircle
 62
7
  6
CONTINUOUS
 10
1037.7132198867
 20
-430.6209528808
 40
3.0
100
AcDbArc
 50
250.5287793655
 51
270.0
  0
ARC
  5
5EB
100
AcDbEntity
  8
0
100
AcDbCircle
 62
7
  6
CONTINUOUS
 10
1159.2132198867
 20
-448.1209528808
 40
25.0
100
AcDbArc
 50
180.0
 51
270.0
  0
ARC
  5
5EC
100
AcDbEntity
  8
0
100
AcDbCircle
 62
7
  6
CONTINUOUS
 10
1226.2132198867
 20
-466.6209528808
 40
12.0
100
AcDbArc
 50
213.0177669636
 51
270.0
  0
ARC
  5
5ED
100
AcDbEntity
  8
0
100
AcDbCircle
 62
9
  6
CONTINUOUS
 10
1226.2132198867
 20
-466.6209528808
 40
9.0
100
AcDbArc
 50
226.4152229275
 51
270.0
  0
ARC
  5
5EE
100
AcDbEntity
  8
0
100
AcDbCircle
 62
7
  6
CONTINUOUS
 10
1124.7132198867
 20
-466.6209528808
 40
2.0
100
AcDbArc
 50
180.0
 51
270.0
  0
ARC
  5
5EF
100
AcDbEntity
  8
0
100
AcDbCircle
 62
9
  6
CONTINUOUS
 10
1111.679682948
 20
-410.3407404448
 40
8.0335369867
100
AcDbArc
 50
0.0062655027
 51
8.5826575895
  0
ARC
  5
5F0
100
AcDbEntity
  8
0
100
AcDbCircle
 62
9
  6
CONTINUOUS
 10
1111.7000153627
 20
-410.3374439411
 40
8.0129054238
100
AcDbArc
 50
8.5810468988
 51
49.9539524809
  0
ARC
  5
5F1
100
AcDbEntity
  8
0
100
AcDbCircle
 62
9
  6
CONTINUOUS
 10
1123.7132198867
 20
-416.2489382286
 40
7.0
100
AcDbArc
 50
180.0
 51
231.3178125465
  0
ARC
  5
5F2
100
AcDbEntity
  8
0
100
AcDbCircle
 62
7
  6
CONTINUOUS
 10
1118.7132198867
 20
-422.493936227
 40
4.0
100
AcDbArc
 50
0.0
 51
51.3178125465
  0
ARC
  5
5F3
100
AcDbEntity
  8
0
100
AcDbCircle
 62
7
  6
CONTINUOUS
 10
1123.7132198867
 20
-416.2489382192
 40
4.0
100
AcDbArc
 50
180.0000000571
 51
231.3178126055
  0
ARC
  5
5F4
100
AcDbEntity
  8
0
100
AcDbCircle
 62
7
  6
CONTINUOUS
 10
1119.7132198867
 20
-436.6209528808
 40
3.0
100
AcDbArc
 50
0.0
 51
90.0
  0
ARC
  5
5F5
100
AcDbEntity
  8
0
100
AcDbCircle
 62
7
  6
CONTINUOUS
 10
1049.7132198867
 20
-431.6209528808
 40
2.0
100
AcDbArc
 50
270.0
 51
360.0
  0
ARC
  5
5F6
100
AcDbEntity
  8
0
100
AcDbCircle
 62
9
  6
CONTINUOUS
 10
1118.7132198867
 20
-422.493936227
 40
1.0
100
AcDbArc
 50
0.0
 51
51.3178125465
  0
ARC
  5
5F7
100
AcDbEntity
  8
0
100
AcDbCircle
 62
7
  6
CONTINUOUS
 10
1319.2132198867
 20
-448.1209528808
 40
25.0
100
AcDbArc
 50
270.0
 51
360.0
  0
ARC
  5
5F8
100
AcDbEntity
  8
0
100
AcDbCircle
 62
7
  6
CONTINUOUS
 10
1252.2132198867
 20
-466.6209528808
 40
12.0
100
AcDbArc
 50
270.0
 51
326.9822330364
  0
ARC
  5
5F9
100
AcDbEntity
  8
0
100
AcDbCircle
 62
9
  6
CONTINUOUS
 10
1252.2132198867
 20
-466.6209528808
 40
9.0
100
AcDbArc
 50
270.0
 51
313.5847770728
  0
ARC
  5
5FA
100
AcDbEntity
  8
0
100
AcDbCircle
 62
7
  6
CONTINUOUS
 10
1348.2132198867
 20
-410.1209528808
 40
4.0
100
AcDbArc
 50
90.0
 51
180.0
  0
ARC
  5
5FB
100
AcDbEntity
  8
0
100
AcDbCircle
 62
7
  6
CONTINUOUS
 10
1442.2132198867
 20
-427.1209528808
 40
3.0
100
AcDbArc
 50
180.0
 51
270.0
  0
ARC
  5
5FC
100
AcDbEntity
  8
0
100
AcDbCircle
 62
9
  6
CONTINUOUS
 10
1127.5725603262
 20
-385.9142669592
 40
140.6349251723
100
AcDbArc
 50
3.9931052158
 51
4.512428504
  0
ARC
  5
5FD
100
AcDbEntity
  8
0
100
AcDbCircle
 62
9
  6
CONTINUOUS
 10
1168.0255435351
 20
-384.4538838635
 40
100.1876815712
100
AcDbArc
 50
359.7562660455
 51
4.7709854403
  0
ARC
  5
5FE
100
AcDbEntity
  8
0
100
AcDbCircle
 62
9
  6
CONTINUOUS
 10
1079.9696888161
 20
-383.4447425361
 40
7.9859094114
100
AcDbArc
 50
49.9031399537
 51
89.9906217986
  0
ARC
  5
5FF
100
AcDbEntity
  8
0
100
AcDbCircle
 62
9
  6
CONTINUOUS
 10
1054.7132198867
 20
-376.6209528808
 40
5.0
100
AcDbArc
 50
90.0
 51
180.0
  0
ARC
  5
600
100
AcDbEntity
  8
0
100
AcDbCircle
 62
7
  6
CONTINUOUS
 10
1118.7132198867
 20
-377.6209528808
 40
4.0
100
AcDbArc
 50
0.0
 51
90.0
  0
ARC
  5
601
100
AcDbEntity
  8
0
100
AcDbCircle
 62
7
  6
CONTINUOUS
 10
1054.7132198867
 20
-376.6209528808
 40
3.0
100
AcDbArc
 50
90.0
 51
180.0
  0
ARC
  5
602
100
AcDbEntity
  8
0
100
AcDbCircle
 62
9
  6
CONTINUOUS
 10
1122.3684124369
 20
-372.2289026301
 40
2.6692627896
100
AcDbArc
 50
229.5005707199
 51
238.4838985373
  0
ARC
  5
603
100
AcDbEntity
  8
0
100
AcDbCircle
 62
9
  6
CONTINUOUS
 10
1122.3500727506
 20
-372.2514260577
 40
2.6402252487
100
AcDbArc
 50
228.7788664407
 51
229.4857727436
  0
ARC
  5
604
100
AcDbEntity
  8
0
100
AcDbCircle
 62
9
  6
CONTINUOUS
 10
1122.3473237757
 20
-372.2546536825
 40
2.6359860371
100
AcDbArc
 50
221.4000896358
 51
228.777579749
  0
ARC
  5
605
100
AcDbEntity
  8
0
100
AcDbCircle
 62
9
  6
CONTINUOUS
 10
1122.3391111612
 20
-372.2622900372
 40
2.6247756684
100
AcDbArc
 50
220.8356643329
 51
221.3936065338
  0
ARC
  5
606
100
AcDbEntity
  8
0
100
AcDbCircle
 62
9
  6
CONTINUOUS
 10
1120.4439264976
 20
-374.6578405995
 40
0.5674494642
100
AcDbArc
 50
47.7642369323
 51
51.2454361044
  0
ARC
  5
607
100
AcDbEntity
  8
02___PRT_ALL_AXES
100
AcDbCircle
 62
7
  6
CONTINUOUS
 10
1199.5803692576
 20
-349.7320505731
 40
9.0
100
AcDbArc
 50
321.3723797868
 51
173.6276202132
  0
ARC
  5
608
100
AcDbEntity
  8
02___PRT_ALL_AXES
100
AcDbCircle
 62
7
  6
CONTINUOUS
 10
1197.6669520958
 20
-354.3514482356
 40
9.0
100
AcDbArc
 50
141.3723797868
 51
353.6276202132
  0
ARC
  5
609
100
AcDbEntity
  8
0
100
AcDbCircle
 62
9
  6
CONTINUOUS
 10
1340.8685967986
 20
-385.9151252404
 40
140.6496665642
100
AcDbArc
 50
175.4881241938
 51
176.0069634929
  0
ARC
  5
60A
100
AcDbEntity
  8
0
100
AcDbCircle
 62
9
  6
CONTINUOUS
 10
1300.0113671514
 20
-384.4384864446
 40
99.7982229658
100
AcDbArc
 50
175.2192234002
 51
180.2535251139
  0
ARC
  5
60B
100
AcDbEntity
  8
0
100
AcDbCircle
 62
7
  6
CONTINUOUS
 10
1366.2132198867
 20
-393.1209528808
 40
3.0
100
AcDbArc
 50
270.0
 51
360.0
  0
ARC
  5
60C
100
AcDbEntity
  8
0
100
AcDbCircle
 62
7
  6
CONTINUOUS
 10
1437.2132198867
 20
-376.1209528808
 40
2.0
100
AcDbArc
 50
0.0
 51
90.0
  0
ARC
  5
60D
100
AcDbEntity
  8
0
100
AcDbCircle
 62
7
  6
CONTINUOUS
 10
1371.2132198867
 20
-376.1209528808
 40
2.0
100
AcDbArc
 50
90.0
 51
180.0
  0
ARC
  5
60E
100
AcDbEntity
  8
02___PRT_ALL_AXES
100
AcDbCircle
 62
7
  6
CONTINUOUS
 10
1268.8460705157
 20
-349.7320505731
 40
9.0
100
AcDbArc
 50
6.3723797868
 51
218.6276202132
  0
ARC
  5
60F
100
AcDbEntity
  8
02___PRT_ALL_AXES
100
AcDbCircle
 62
7
  6
CONTINUOUS
 10
1270.7594876775
 20
-354.3514482356
 40
9.0
100
AcDbArc
 50
186.3723797868
 51
38.6276202132
  0
ARC
  5
610
100
AcDbEntity
  8
0
100
AcDbCircle
 62
7
  6
CONTINUOUS
 10
646.9974665191
 20
-223.6209528808
 40
20.0
100
AcDbArc
 50
90.0
 51
135.0000056803
  0
ARC
  5
611
100
AcDbEntity
  8
0
100
AcDbCircle
 62
7
  6
CONTINUOUS
 10
638.7132198867
 20
-231.9052011559
 40
20.0
100
AcDbArc
 50
135.0000056803
 51
180.0
  0
ARC
  5
612
100
AcDbEntity
  8
0
100
AcDbCircle
 62
7
  6
CONTINUOUS
 10
1037.7132198867
 20
-236.6209528808
 40
3.0
100
AcDbArc
 50
90.0
 51
109.4712206345
  0
ARC
  5
613
100
AcDbEntity
  8
02___PRT_ALL_AXES
100
AcDbCircle
 62
7
  6
CONTINUOUS
 10
1150.6021221944
 20
-300.7538035099
 40
9.0
100
AcDbArc
 50
276.3723797868
 51
128.6276202132
  0
ARC
  5
614
100
AcDbEntity
  8
02___PRT_ALL_AXES
100
AcDbCircle
 62
7
  6
CONTINUOUS
 10
1145.9827245318
 20
-302.6672206717
 40
9.0
100
AcDbArc
 50
96.3723797868
 51
308.6276202132
  0
ARC
  5
615
100
AcDbEntity
  8
0
100
AcDbCircle
 62
2
  6
CONTINUOUS
 10
1060.2132198867
 20
-333.6209528808
 40
6.6
100
AcDbArc
 50
255.0
 51
195.0
  0
CIRCLE
  5
616
100
AcDbEntity
  8
3_ALL_AXES
100
AcDbCircle
 62
7
  6
CONTINUOUS
 10
1060.2132198867
 20
-333.6209528808
 40
5.875
  0
CIRCLE
  5
617
100
AcDbEntity
  8
3_ALL_AXES
100
AcDbCircle
 62
7
  6
CONTINUOUS
 10
1060.2132198867
 20
-333.6209528808
 40
3.0
  0
ARC
  5
618
100
AcDbEntity
  8
0
100
AcDbCircle
 62
9
  6
CONTINUOUS
 10
1122.3615414407
 20
-295.0068869528
 40
2.6604583961
100
AcDbArc
 50
121.458811303
 51
130.4699096225
  0
ARC
  5
619
100
AcDbEntity
  8
0
100
AcDbCircle
 62
9
  6
CONTINUOUS
 10
1122.3438784043
 20
-294.9851648794
 40
2.6324693093
100
AcDbArc
 50
130.4843089497
 51
131.1883229149
  0
ARC
  5
61A
100
AcDbEntity
  8
0
100
AcDbCircle
 62
9
  6
CONTINUOUS
 10
1122.3418232284
 20
-294.9826938779
 40
2.6292563529
100
AcDbArc
 50
131.1900798185
 51
138.6155755876
  0
ARC
  5
61B
100
AcDbEntity
  8
0
100
AcDbCircle
 62
9
  6
CONTINUOUS
 10
1122.3343053676
 20
-294.9756942698
 40
2.6189882897
100
AcDbArc
 50
138.6217367011
 51
139.1821758002
  0
CIRCLE
  5
61C
100
AcDbEntity
  8
02___PRT_ALL_AXES
100
AcDbCircle
 62
7
  6
CONTINUOUS
 10
1234.2132198867
 20
-266.1209528808
 40
114.0
  0
CIRCLE
  5
61D
100
AcDbEntity
  8
0
100
AcDbCircle
 62
7
  6
CONTINUOUS
 10
1234.2132198867
 20
-266.1209528808
 40
50.0
  0
ARC
  5
61E
100
AcDbEntity
  8
0
100
AcDbCircle
 62
9
  6
CONTINUOUS
 10
1111.6796838251
 20
-256.9011654324
 40
8.0335361096
100
AcDbArc
 50
351.4177941741
 51
359.9937353204
  0
ARC
  5
61F
100
AcDbEntity
  8
0
100
AcDbCircle
 62
9
  6
CONTINUOUS
 10
1111.7000152856
 20
-256.9044617659
 40
8.0129055162
100
AcDbArc
 50
310.0460476901
 51
351.419405842
  0
ARC
  5
620
100
AcDbEntity
  8
0
100
AcDbCircle
 62
9
  6
CONTINUOUS
 10
1079.9696888458
 20
-283.7971633066
 40
7.9859094111
100
AcDbArc
 50
270.0093779881
 51
310.096860258
  0
ARC
  5
621
100
AcDbEntity
  8
0
100
AcDbCircle
 62
9
  6
CONTINUOUS
 10
1054.7132198867
 20
-290.6209528808
 40
5.0
100
AcDbArc
 50
180.0
 51
270.0
  0
ARC
  5
622
100
AcDbEntity
  8
0
100
AcDbCircle
 62
7
  6
CONTINUOUS
 10
1118.7132198867
 20
-289.6209528808
 40
4.0
100
AcDbArc
 50
270.0
 51
358.8039218177
  0
ARC
  5
623
100
AcDbEntity
  8
0
100
AcDbCircle
 62
7
  6
CONTINUOUS
 10
1054.7132198867
 20
-290.6209528808
 40
3.0
100
AcDbArc
 50
180.0
 51
270.0
  0
ARC
  5
624
100
AcDbEntity
  8
0
100
AcDbCircle
 62
9
  6
CONTINUOUS
 10
1120.4484857897
 20
-292.589045618
 40
0.5607645242
100
AcDbArc
 50
309.0171425934
 51
312.2939938134
  0
ARC
  5
625
100
AcDbEntity
  8
02___PRT_ALL_AXES
100
AcDbCircle
 62
7
  6
CONTINUOUS
 10
1317.8243175789
 20
-300.7538035099
 40
9.0
100
AcDbArc
 50
51.3723797868
 51
263.6276202132
  0
ARC
  5
626
100
AcDbEntity
  8
02___PRT_ALL_AXES
100
AcDbCircle
 62
7
  6
CONTINUOUS
 10
1322.4437152415
 20
-302.6672206717
 40
9.0
100
AcDbArc
 50
231.3723797868
 51
83.6276202132
  0
ARC
  5
627
100
AcDbEntity
  8
0
100
AcDbCircle
 62
7
  6
CONTINUOUS
 10
1437.2132198867
 20
-256.1209528808
 40
2.0
100
AcDbArc
 50
270.0
 51
360.0
  0
ARC
  5
628
100
AcDbEntity
  8
0
100
AcDbCircle
 62
7
  6
CONTINUOUS
 10
1371.2132198867
 20
-256.1209528808
 40
2.0
100
AcDbArc
 50
180.0
 51
270.0
  0
ARC
  5
629
100
AcDbEntity
  8
02___PRT_ALL_AXES
100
AcDbCircle
 62
7
  6
CONTINUOUS
 10
1150.6021221944
 20
-231.4881022518
 40
9.0
100
AcDbArc
 50
231.3723797868
 51
83.6276202132
  0
ARC
  5
62A
100
AcDbEntity
  8
02___PRT_ALL_AXES
100
AcDbCircle
 62
7
  6
CONTINUOUS
 10
1145.9827245318
 20
-229.5746850899
 40
9.0
100
AcDbArc
 50
51.3723797868
 51
263.6276202132
  0
ARC
  5
62B
100
AcDbEntity
  8
0
100
AcDbCircle
 62
9
  6
CONTINUOUS
 10
1123.7132198867
 20
-250.992967533
 40
7.0
100
AcDbArc
 50
128.6821874535
 51
180.0
  0
ARC
  5
62C
100
AcDbEntity
  8
0
100
AcDbCircle
 62
7
  6
CONTINUOUS
 10
1118.7132198867
 20
-244.7479695346
 40
4.0
100
AcDbArc
 50
308.6821874535
 51
323.8362547674
  0
ARC
  5
62D
100
AcDbEntity
  8
0
100
AcDbCircle
 62
7
  6
CONTINUOUS
 10
1123.7132198867
 20
-250.992967533
 40
4.0
100
AcDbArc
 50
128.6821874788
 51
180.0000000771
  0
ARC
  5
62E
100
AcDbEntity
  8
0
100
AcDbCircle
 62
7
  6
CONTINUOUS
 10
1119.7132198867
 20
-230.6209528808
 40
3.0
100
AcDbArc
 50
270.0
 51
360.0
  0
ARC
  5
62F
100
AcDbEntity
  8
0
100
AcDbCircle
 62
7
  6
CONTINUOUS
 10
1049.7132198867
 20
-235.6209528808
 40
2.0
100
AcDbArc
 50
0.0
 51
90.0
  0
ARC
  5
630
100
AcDbEntity
  8
0
100
AcDbCircle
 62
9
  6
CONTINUOUS
 10
1118.7132198867
 20
-244.7479695346
 40
1.0
100
AcDbArc
 50
308.6821874535
 51
360.0
  0
ARC
  5
631
100
AcDbEntity
  8
0
100
AcDbCircle
 62
7
  6
CONTINUOUS
 10
1159.2132198867
 20
-184.1209528808
 40
25.0
100
AcDbArc
 50
90.0
 51
180.0
  0
ARC
  5
632
100
AcDbEntity
  8
02___PRT_ALL_AXES
100
AcDbCircle
 62
7
  6
CONTINUOUS
 10
1199.5803692576
 20
-182.5098551885
 40
9.0
100
AcDbArc
 50
186.3723797868
 51
38.6276202132
  0
ARC
  5
633
100
AcDbEntity
  8
02___PRT_ALL_AXES
100
AcDbCircle
 62
7
  6
CONTINUOUS
 10
1197.6669520958
 20
-177.890457526
 40
9.0
100
AcDbArc
 50
6.3723797868
 51
218.6276202132
  0
ARC
  5
634
100
AcDbEntity
  8
0
100
AcDbCircle
 62
7
  6
CONTINUOUS
 10
1124.7132198867
 20
-200.6209528808
 40
2.0
100
AcDbArc
 50
90.0
 51
180.0
  0
ARC
  5
635
100
AcDbEntity
  8
02___PRT_ALL_AXES
100
AcDbCircle
 62
7
  6
CONTINUOUS
 10
1317.8243175789
 20
-231.4881022518
 40
9.0
100
AcDbArc
 50
96.3723797868
 51
308.6276202132
  0
ARC
  5
636
100
AcDbEntity
  8
02___PRT_ALL_AXES
100
AcDbCircle
 62
7
  6
CONTINUOUS
 10
1322.4437152415
 20
-229.5746850899
 40
9.0
100
AcDbArc
 50
276.3723797868
 51
128.6276202132
  0
ARC
  5
637
100
AcDbEntity
  8
0
100
AcDbCircle
 62
7
  6
CONTINUOUS
 10
1348.2132198867
 20
-222.1209528808
 40
4.0
100
AcDbArc
 50
180.0
 51
270.0
  0
ARC
  5
638
100
AcDbEntity
  8
0
100
AcDbCircle
 62
7
  6
CONTINUOUS
 10
1366.2132198867
 20
-239.1209528808
 40
3.0
100
AcDbArc
 50
0.0
 51
90.0
  0
ARC
  5
639
100
AcDbEntity
  8
0
100
AcDbCircle
 62
7
  6
CONTINUOUS
 10
1319.2132198867
 20
-184.1209528808
 40
25.0
100
AcDbArc
 50
0.0
 51
90.0
  0
ARC
  5
63A
100
AcDbEntity
  8
02___PRT_ALL_AXES
100
AcDbCircle
 62
7
  6
CONTINUOUS
 10
1268.8460705157
 20
-182.5098551885
 40
9.0
100
AcDbArc
 50
141.3723797868
 51
353.6276202132
  0
ARC
  5
63B
100
AcDbEntity
  8
02___PRT_ALL_AXES
100
AcDbCircle
 62
7
  6
CONTINUOUS
 10
1270.7594876775
 20
-177.890457526
 40
9.0
100
AcDbArc
 50
321.3723797868
 51
173.6276202132
  0
ARC
  5
63C
100
AcDbEntity
  8
0
100
AcDbCircle
 62
7
  6
CONTINUOUS
 10
1442.2132198867
 20
-205.1209528808
 40
3.0
100
AcDbArc
 50
90.0
 51
180.0
  0
ARC
  5
63D
100
AcDbEntity
  8
0
100
AcDbCircle
 62
9
  6
CONTINUOUS
 10
8381.5808640516
 20
-8878.0167225609
 40
11269.165163364
100
AcDbArc
 50
130.1398246213
 51
130.3512626273
  0
ARC
  5
63E
100
AcDbEntity
  8
0
100
AcDbCircle
 62
9
  6
CONTINUOUS
 10
7533.5288074436
 20
-7870.3668382801
 40
9955.1319793752
100
AcDbArc
 50
130.1471621004
 51
130.3865844811
  0
ARC
  5
63F
100
AcDbEntity
  8
0
100
AcDbCircle
 62
9
  6
CONTINUOUS
 10
8381.5808654124
 20
8210.774818407
 40
11269.1651654703
100
AcDbArc
 50
229.6487373727
 51
229.8601753787
  0
ARC
  5
640
100
AcDbEntity
  8
0
100
AcDbCircle
 62
9
  6
CONTINUOUS
 10
7533.52880877
 20
7203.1249340843
 40
9955.1319814272
100
AcDbArc
 50
229.6134155189
 51
229.8528378996
  0
SPLINE
  5
641
100
AcDbEntity
  8
0
100
AcDbSpline
 62
9
  6
CONTINUOUS
 70
0
 71
3
 72
13
 73
9
 74
0
 42
0.0000001
 43
0.0000001
 44
0.0000000001
 40
0.0
 40
0.0
 40
0.0
 40
0.0
 40
0.2962096918
 40
0.564508425
 40
0.685058441
 40
0.7963874635
 40
0.9002904343
 40
1.0
 40
1.0
 40
1.0
 40
1.0
 10
1085.113294794
 20
187.9714571883
 30
0.0
 10
1085.0835193734
 20
187.624777281
 30
0.0
 10
1084.9520535843
 20
186.967840072
 30
0.0
 10
1084.5913143621
 20
186.233523601
 30
0.0
 10
1084.2020310826
 20
185.7890881503
 30
0.0
 10
1083.8850707711
 20
185.5488997217
 30
0.0
 10
1083.5424449319
 20
185.3995399529
 30
0.0
 10
1083.3020623849
 20
185.3653963719
 30
0.0
 10
1083.184933996
 20
185.3653962243
 30
0.0
  0
SPLINE
  5
642
100
AcDbEntity
  8
0
100
AcDbSpline
 62
9
  6
CONTINUOUS
 70
0
 71
3
 72
11
 73
7
 74
0
 42
0.0000001
 43
0.0000001
 44
0.0000000001
 40
0.0
 40
0.0
 40
0.0
 40
0.0
 40
0.2499922568
 40
0.4999916916
 40
0.7499953028
 40
1.0
 40
1.0
 40
1.0
 40
1.0
 10
1115.1364389068
 20
252.6925453102
 30
0.0
 10
1115.3961726553
 20
252.9393448677
 30
0.0
 10
1115.8641301827
 20
253.4904596697
 30
0.0
 10
1116.3756413027
 20
254.4445911442
 30
0.0
 10
1116.6770643922
 20
255.4843227468
 30
0.0
 10
1116.7294423826
 20
256.2052350287
 30
0.0
 10
1116.71784079
 20
256.563354871
 30
0.0
  0
SPLINE
  5
643
100
AcDbEntity
  8
0
100
AcDbSpline
 62
9
  6
CONTINUOUS
 70
0
 71
3
 72
10
 73
6
 74
0
 42
0.0000001
 43
0.0000001
 44
0.0000000001
 40
0.0
 40
0.0
 40
0.0
 40
0.0
 40
0.2499999497
 40
0.5000000093
 40
1.0
 40
1.0
 40
1.0
 40
1.0
 10
1083.50273506
 20
225.4655244985
 30
0.0
 10
1086.1055730646
 20
227.7385024335
 30
0.0
 10
1091.3240754633
 20
232.26977862
 30
0.0
 10
1101.7950782534
 20
241.2929559537
 30
0.0
 10
1109.6746296286
 20
248.0297412417
 30
0.0
 10
1114.9337640385
 20
252.5137461695
 30
0.0
  0
SPLINE
  5
644
100
AcDbEntity
  8
0
100
AcDbSpline
 62
9
  6
CONTINUOUS
 70
0
 71
3
 72
11
 73
7
 74
0
 42
0.0000001
 43
0.0000001
 44
0.0000000001
 40
0.0
 40
0.0
 40
0.0
 40
0.0
 40
0.249986353
 40
0.4999790986
 40
0.7499828792
 40
1.0
 40
1.0
 40
1.0
 40
1.0
 10
1079.9709959476
 20
223.9687217855
 30
0.0
 10
1080.2766016344
 20
223.9687216757
 30
0.0
 10
1080.8893963782
 20
224.0272377058
 30
0.0
 10
1081.7742567819
 20
224.2866763926
 30
0.0
 10
1082.5953058093
 20
224.7061449286
 30
0.0
 10
1083.0827342844
 20
225.0815637872
 30
0.0
 10
1083.3071208018
 20
225.2890933461
 30
0.0
  0
SPLINE
  5
645
100
AcDbEntity
  8
0
100
AcDbSpline
 62
9
  6
CONTINUOUS
 70
0
 71
3
 72
15
 73
11
 74
0
 42
0.0000001
 43
0.0000001
 44
0.0000000001
 40
0.0
 40
0.0
 40
0.0
 40
0.0
 40
0.125006382
 40
0.2500346131
 40
0.3750465783
 40
0.5000554918
 40
0.6250754523
 40
0.7500595886
 40
0.875032936
 40
1.0
 40
1.0
 40
1.0
 40
1.0
 10
1054.6643592541
 20
225.5504615963
 30
0.0
 10
1054.6311874609
 20
225.4640760229
 30
0.0
 10
1054.5849806907
 20
225.2827286848
 30
0.0
 10
1054.5822787939
 20
225.0025328343
 30
0.0
 10
1054.645492797
 20
224.7296536807
 30
0.0
 10
1054.7685216253
 20
224.4779410921
 30
0.0
 10
1054.9485912836
 20
224.2630739376
 30
0.0
 10
1055.1747371759
 20
224.097335563
 30
0.0
 10
1055.4348443189
 20
223.9926508942
 30
0.0
 10
1055.620713403
 20
223.9687222133
 30
0.0
 10
1055.7132198867
 20
223.9687217855
 30
0.0
  0
SPLINE
  5
646
100
AcDbEntity
  8
0
100
AcDbSpline
 62
9
  6
CONTINUOUS
 70
0
 71
3
 72
9
 73
5
 74
0
 42
0.0000001
 43
0.0000001
 44
0.0000000001
 40
0.0
 40
0.0
 40
0.0
 40
0.0
 40
0.4996362299
 40
1.0
 40
1.0
 40
1.0
 40
1.0
 10
1054.7132198867
 20
225.7773990429
 30
0.0
 10
1054.7132203999
 20
225.7385669006
 30
0.0
 10
1054.7031832665
 20
225.6606515964
 30
0.0
 10
1054.6782845229
 20
225.5867716073
 30
0.0
 10
1054.6643592541
 20
225.5504615963
 30
0.0
  0
LINE
  5
647
100
AcDbEntity
  8
0
100
AcDbLine
 62
9
  6
CONTINUOUS
 10
1085.1132968251
 20
222.9810973207
 11
1085.4158947605
 21
223.2441664839
  0
SPLINE
  5
648
100
AcDbEntity
  8
0
100
AcDbSpline
 62
9
  6
CONTINUOUS
 70
0
 71
3
 72
11
 73
7
 74
0
 42
0.0000001
 43
0.0000001
 44
0.0000000001
 40
0.0
 40
0.0
 40
0.0
 40
0.0
 40
0.2518297471
 40
0.5014044018
 40
0.7501893398
 40
1.0
 40
1.0
 40
1.0
 40
1.0
 10
1118.7132198867
 20
88.6717789842
 30
0.0
 10
1118.9793346714
 20
88.8062878899
 30
0.0
 10
1119.4676276291
 20
89.1616461127
 30
0.0
 10
1120.0321698055
 20
89.8563647657
 30
0.0
 10
1120.4455804745
 20
90.645049434
 30
0.0
 10
1120.6346055524
 20
91.2066728947
 30
0.0
 10
1120.7110411764
 20
91.4924128781
 30
0.0
  0
SPLINE
  5
649
100
AcDbEntity
  8
0
100
AcDbSpline
 62
9
  6
CONTINUOUS
 70
0
 71
3
 72
11
 73
7
 74
0
 42
0.0000001
 43
0.0000001
 44
0.0000000001
 40
0.0
 40
0.0
 40
0.0
 40
0.0
 40
0.2498447431
 40
0.4986303534
 40
0.7481823148
 40
1.0
 40
1.0
 40
1.0
 40
1.0
 10
1120.7110413235
 20
269.2383795705
 30
0.0
 10
1120.635201059
 20
269.5244323141
 30
0.0
 10
1120.447169087
 20
270.0866862383
 30
0.0
 10
1120.0343535541
 20
270.8761369548
 30
0.0
 10
1119.4691647741
 20
271.5708632588
 30
0.0
 10
1118.9797939552
 20
271.9252049106
 30
0.0
 10
1118.7132198867
 20
272.059013704
 30
0.0
  0
SPLINE
  5
64A
100
AcDbEntity
  8
0
100
AcDbSpline
 62
9
  6
CONTINUOUS
 70
0
 71
3
 72
26
 73
22
 74
0
 42
0.0000001
 43
0.0000001
 44
0.0000000001
 40
0.0
 40
0.0
 40
0.0
 40
0.0
 40
0.000262404
 40
0.0010504725
 40
0.0023654235
 40
0.0042082119
 40
0.0094803035
 40
0.0168706783
 40
0.0263800533
 40
0.0380059255
 40
0.0517425554
 40
0.0675809665
 40
0.1055109984
 40
0.1516598511
 40
0.20584038
 40
0.2678153495
 40
0.3372984684
 40
0.4139554088
 40
0.5872180932
 40
0.7840043199
 40
1.0
 40
1.0
 40
1.0
 40
1.0
 10
1121.2132103424
 20
266.1158729298
 30
0.0
 10
1121.2130344307
 20
266.1159081197
 30
0.0
 10
1121.2132333916
 20
266.1169546091
 30
0.0
 10
1121.2125866282
 20
266.1182093103
 30
0.0
 10
1121.2122516397
 20
266.1210436846
 30
0.0
 10
1121.2110364323
 20
266.1265862596
 30
0.0
 10
1121.2092660616
 20
266.1364132493
 30
0.0
 10
1121.2064579168
 20
266.1512755466
 30
0.0
 10
1121.2030007528
 20
266.1704819614
 30
0.0
 10
1121.1988516542
 20
266.1939541751
 30
0.0
 10
1121.1940757367
 20
266.2217157769
 30
0.0
 10
1121.1864335078
 20
266.2672290349
 30
0.0
 10
1121.1755468657
 20
266.3346673243
 30
0.0
 10
1121.1611782678
 20
266.4280928911
 30
0.0
 10
1121.1451008194
 20
266.5378851299
 30
0.0
 10
1121.1275911083
 20
266.6635874709
 30
0.0
 10
1121.1089335633
 20
266.8046414522
 30
0.0
 10
1121.0817919506
 20
267.0213147075
 30
0.0
 10
1121.0471091007
 20
267.3247485703
 30
0.0
 10
1121.0074260711
 20
267.7234520919
 30
0.0
 10
1120.9840215915
 20
268.0047024937
 30
0.0
 10
1120.9730869283
 20
268.1519662201
 30
0.0
  0
SPLINE
  5
64B
100
AcDbEntity
  8
0
100
AcDbSpline
 62
9
  6
CONTINUOUS
 70
0
 71
3
 72
9
 73
5
 74
0
 42
0.0000001
 43
0.0000001
 44
0.0000000001
 40
0.0
 40
0.0
 40
0.0
 40
0.0
 40
0.2457070417
 40
1.0
 40
1.0
 40
1.0
 40
1.0
 10
1120.9730869283
 20
268.1519662201
 30
0.0
 10
1120.9662920267
 20
268.243479541
 30
0.0
 10
1120.9250827736
 20
268.6146386874
 30
0.0
 10
1120.8244167163
 20
268.9804921211
 30
0.0
 10
1120.7110413142
 20
269.2383795928
 30
0.0
  0
SPLINE
  5
64C
100
AcDbEntity
  8
0
100
AcDbSpline
 62
9
  6
CONTINUOUS
 70
0
 71
3
 72
26
 73
22
 74
0
 42
0.0000001
 43
0.0000001
 44
0.0000000001
 40
0.0
 40
0.0
 40
0.0
 40
0.0
 40
0.2158186368
 40
0.4124940168
 40
0.5857231352
 40
0.6623897961
 40
0.7318971924
 40
0.7939078478
 40
0.8481319189
 40
0.8943283627
 40
0.9323060897
 40
0.9481671377
 40
0.9619249371
 40
0.9735700186
 40
0.9830961566
 40
0.9905003691
 40
0.9957829041
 40
0.9976294971
 40
0.998947234
 40
0.9997370134
 40
1.0
 40
1.0
 40
1.0
 40
1.0
 10
1120.9730868198
 20
92.5788262962
 30
0.0
 10
1120.9844718271
 20
92.7259269897
 30
0.0
 10
1121.0085433027
 20
93.0069066336
 30
0.0
 10
1121.0486773054
 20
93.4053216497
 30
0.0
 10
1121.0833802599
 20
93.708643346
 30
0.0
 10
1121.1103797818
 20
93.9253233061
 30
0.0
 10
1121.1288856496
 20
94.0664378884
 30
0.0
 10
1121.1462084068
 20
94.1922309412
 30
0.0
 10
1121.1620790567
 20
94.3021350654
 30
0.0
 10
1121.176235574
 20
94.3956840607
 30
0.0
 10
1121.1869429436
 20
94.4632290693
 30
0.0
 10
1121.1944502072
 20
94.5088258174
 30
0.0
 10
1121.1991386536
 20
94.5366445122
 30
0.0
 10
1121.2032091303
 20
94.5601690279
 30
0.0
 10
1121.206598127
 20
94.5794208054
 30
0.0
 10
1121.2093503578
 20
94.5943221821
 30
0.0
 10
1121.2110819049
 20
94.6041732849
 30
0.0
 10
1121.2122738798
 20
94.6097348536
 30
0.0
 10
1121.212597205
 20
94.6125722915
 30
0.0
 10
1121.2132377863
 20
94.6138402098
 30
0.0
 10
1121.2130349037
 20
94.6148802174
 30
0.0
 10
1121.2132103415
 20
94.6149195195
 30
0.0
  0
SPLINE
  5
64D
100
AcDbEntity
  8
0
100
AcDbSpline
 62
9
  6
CONTINUOUS
 70
0
 71
3
 72
9
 73
5
 74
0
 42
0.0000001
 43
0.0000001
 44
0.0000000001
 40
0.0
 40
0.0
 40
0.0
 40
0.0
 40
0.2545525327
 40
1.0
 40
1.0
 40
1.0
 40
1.0
 10
1120.7110411698
 20
91.4924128624
 30
0.0
 10
1120.7496046677
 20
91.5793458039
 30
0.0
 10
1120.8833577121
 20
91.9287140567
 30
0.0
 10
1120.9515965291
 20
92.3011526794
 30
0.0
 10
1120.9730868198
 20
92.5788262962
 30
0.0
  0
LINE
  5
64E
100
AcDbEntity
  8
0
100
AcDbLine
 62
9
  6
CONTINUOUS
 10
1085.4158947605
 20
137.4866259647
 11
1085.1132968251
 21
137.7496951397
  0
SPLINE
  5
64F
100
AcDbEntity
  8
0
100
AcDbSpline
 62
9
  6
CONTINUOUS
 70
0
 71
3
 72
13
 73
9
 74
0
 42
0.0000001
 43
0.0000001
 44
0.0000000001
 40
0.0
 40
0.0
 40
0.0
 40
0.0
 40
0.1325627091
 40
0.2266627795
 40
0.3419355428
 40
0.4782948565
 40
0.634644537
 40
1.0
 40
1.0
 40
1.0
 40
1.0
 10
1119.7132198867
 20
93.3653962243
 30
0.0
 10
1119.7132198867
 20
93.297568956
 30
0.0
 10
1119.780742206
 20
93.1877764297
 30
0.0
 10
1119.9091478646
 20
93.0723030671
 30
0.0
 10
1120.0557729864
 20
92.9711588481
 30
0.0
 10
1120.2383662527
 20
92.8700906135
 30
0.0
 10
1120.5439480771
 20
92.7279696001
 30
0.0
 10
1120.7953027219
 20
92.6366085276
 30
0.0
 10
1120.9730868198
 20
92.5788262962
 30
0.0
  0
SPLINE
  5
650
100
AcDbEntity
  8
0
100
AcDbSpline
 62
9
  6
CONTINUOUS
 70
0
 71
3
 72
9
 73
5
 74
0
 42
0.0000001
 43
0.0000001
 44
0.0000000001
 40
0.0
 40
0.0
 40
0.0
 40
0.0
 40
0.5003743843
 40
1.0
 40
1.0
 40
1.0
 40
1.0
 10
1054.6643592541
 20
135.1803308522
 30
0.0
 10
1054.6782937917
 20
135.1440233734
 30
0.0
 10
1054.7031874002
 20
135.0701400604
 30
0.0
 10
1054.7132198718
 20
134.9922248538
 30
0.0
 10
1054.7132198867
 20
134.9533934056
 30
0.0
  0
SPLINE
  5
651
100
AcDbEntity
  8
0
100
AcDbSpline
 62
9
  6
CONTINUOUS
 70
0
 71
3
 72
15
 73
11
 74
0
 42
0.0000001
 43
0.0000001
 44
0.0000000001
 40
0.0
 40
0.0
 40
0.0
 40
0.0
 40
0.1249672695
 40
0.2499407784
 40
0.374924957
 40
0.4999450458
 40
0.6249539309
 40
0.749965811
 40
0.874993857
 40
1.0
 40
1.0
 40
1.0
 40
1.0
 10
1055.7132198867
 20
136.762070663
 30
0.0
 10
1055.6207132369
 20
136.7620702685
 30
0.0
 10
1055.4348438719
 20
136.7381414143
 30
0.0
 10
1055.1747363653
 20
136.633456615
 30
0.0
 10
1054.9485905815
 20
136.4677177347
 30
0.0
 10
1054.7685198238
 20
136.252851364
 30
0.0
 10
1054.6454932576
 20
136.0011366212
 30
0.0
 10
1054.5822801429
 20
135.7282607526
 30
0.0
 10
1054.5849662046
 20
135.4480572424
 30
0.0
 10
1054.6312220189
 20
135.2667295134
 30
0.0
 10
1054.6643592541
 20
135.1803308522
 30
0.0
  0
SPLINE
  5
652
100
AcDbEntity
  8
0
100
AcDbSpline
 62
9
  6
CONTINUOUS
 70
0
 71
3
 72
11
 73
7
 74
0
 42
0.0000001
 43
0.0000001
 44
0.0000000001
 40
0.0
 40
0.0
 40
0.0
 40
0.0
 40
0.2500171156
 40
0.5000209093
 40
0.7500136561
 40
1.0
 40
1.0
 40
1.0
 40
1.0
 10
1083.3071178063
 20
135.441701447
 30
0.0
 10
1083.082733302
 20
135.6492327134
 30
0.0
 10
1082.5953035265
 20
136.0246496496
 30
0.0
 10
1081.7742547648
 20
136.4441158442
 30
0.0
 10
1080.8893954696
 20
136.7035549985
 30
0.0
 10
1080.2766013113
 20
136.7620707686
 30
0.0
 10
1079.9709959476
 20
136.762070663
 30
0.0
  0
SPLINE
  5
653
100
AcDbEntity
  8
0
100
AcDbSpline
 62
9
  6
CONTINUOUS
 70
0
 71
3
 72
10
 73
6
 74
0
 42
0.0000001
 43
0.0000001
 44
0.0000000001
 40
0.0
 40
0.0
 40
0.0
 40
0.0
 40
0.4999999908
 40
0.7500000501
 40
1.0
 40
1.0
 40
1.0
 40
1.0
 10
1114.9337640643
 20
108.2170462571
 30
0.0
 10
1109.6746298636
 20
112.7010514413
 30
0.0
 10
1101.7950782248
 20
119.4378364297
 30
0.0
 10
1091.3240754761
 20
128.4610138294
 30
0.0
 10
1086.1055730543
 20
132.9922899954
 30
0.0
 10
1083.50273506
 20
135.26526795
 30
0.0
  0
SPLINE
  5
654
100
AcDbEntity
  8
0
100
AcDbSpline
 62
9
  6
CONTINUOUS
 70
0
 71
3
 72
13
 73
9
 74
0
 42
0.0000001
 43
0.0000001
 44
0.0000000001
 40
0.0
 40
0.0
 40
0.0
 40
0.0
 40
0.2962097236
 40
0.5645084469
 40
0.6850584478
 40
0.7963874562
 40
0.9002904222
 40
1.0
 40
1.0
 40
1.0
 40
1.0
 10
1085.11329682
 20
172.7593356741
 30
0.0
 10
1085.0835213561
 20
173.1060157644
 30
0.0
 10
1084.9520553902
 20
173.7629532695
 30
0.0
 10
1084.5913156817
 20
174.4972699315
 30
0.0
 10
1084.2020319439
 20
174.9417052643
 30
0.0
 10
1083.8850713034
 20
175.1818934834
 30
0.0
 10
1083.5424451524
 20
175.3312529306
 30
0.0
 10
1083.3020624491
 20
175.3653962248
 30
0.0
 10
1083.184933996
 20
175.3653962254
 30
0.0
  0
SPLINE
  5
655
100
AcDbEntity
  8
0
100
AcDbSpline
 62
9
  6
CONTINUOUS
 70
0
 71
3
 72
13
 73
9
 74
0
 42
0.0000001
 43
0.0000001
 44
0.0000000001
 40
0.0
 40
0.0
 40
0.0
 40
0.0
 40
0.2966487467
 40
0.5661206587
 40
0.6869145348
 40
0.7980339789
 40
0.901263824
 40
1.0
 40
1.0
 40
1.0
 40
1.0
 10
1116.8555186085
 20
172.6161994411
 30
0.0
 10
1116.8359626125
 20
172.9775715465
 30
0.0
 10
1116.7187721648
 20
173.6656289461
 30
0.0
 10
1116.3638683813
 20
174.4403902533
 30
0.0
 10
1115.9701077083
 20
174.9130000604
 30
0.0
 10
1115.6468630729
 20
175.1690397562
 30
0.0
 10
1115.295322083
 20
175.328772648
 30
0.0
 10
1115.0476125396
 20
175.3653960607
 30
0.0
 10
1114.9271579351
 20
175.3653962243
 30
0.0
  0
SPLINE
  5
656
100
AcDbEntity
  8
0
100
AcDbSpline
 62
9
  6
CONTINUOUS
 70
0
 71
3
 72
13
 73
9
 74
0
 42
0.0000001
 43
0.0000001
 44
0.0000000001
 40
0.0
 40
0.0
 40
0.0
 40
0.0
 40
0.2907347026
 40
0.5612889991
 40
0.6844884193
 40
0.7982183271
 40
0.9028324914
 40
1.0
 40
1.0
 40
1.0
 40
1.0
 10
1121.2132198863
 20
172.3653962243
 30
0.0
 10
1121.2132198863
 20
172.7061609138
 30
0.0
 10
1121.1440239224
 20
173.3659891626
 30
0.0
 10
1120.8815739879
 20
174.1340523186
 30
0.0
 10
1120.5718332084
 20
174.6444035497
 30
0.0
 10
1120.309084748
 20
174.9493551276
 30
0.0
 10
1120.0158394406
 20
175.1789210005
 30
0.0
 10
1119.7983674167
 20
175.2790662781
 30
0.0
 10
1119.6894353293
 20
175.3122976719
 30
0.0
  0
SPLINE
  5
657
100
AcDbEntity
  8
0
100
AcDbSpline
 62
9
  6
CONTINUOUS
 70
0
 71
3
 72
9
 73
5
 74
0
 42
0.0000001
 43
0.0000001
 44
0.0000000001
 40
0.0
 40
0.0
 40
0.0
 40
0.0
 40
0.2529322865
 40
1.0
 40
1.0
 40
1.0
 40
1.0
 10
1119.6638101896
 20
175.3198194918
 30
0.0
 10
1119.6370852257
 20
175.32735663
 30
0.0
 10
1119.5304717429
 20
175.3536495328
 30
0.0
 10
1119.420234632
 20
175.3653962243
 30
0.0
 10
1119.3382198867
 20
175.3653962243
 30
0.0
  0
SPLINE
  5
658
100
AcDbEntity
  8
0
100
AcDbSpline
 62
9
  6
CONTINUOUS
 70
0
 71
3
 72
11
 73
7
 74
0
 42
0.0000001
 43
0.0000001
 44
0.0000000001
 40
0.0
 40
0.0
 40
0.0
 40
0.0
 40
0.2500047086
 40
0.5000083309
 40
0.7500077669
 40
1.0
 40
1.0
 40
1.0
 40
1.0
 10
1116.71784079
 20
104.1674375775
 30
0.0
 10
1116.7294410583
 20
104.5255575041
 30
0.0
 10
1116.6770662462
 20
105.2464698562
 30
0.0
 10
1116.3756420934
 20
106.2862017526
 30
0.0
 10
1115.8641296561
 20
107.2403323604
 30
0.0
 10
1115.3961726244
 20
107.7914475611
 30
0.0
 10
1115.1364389068
 20
108.0382471383
 30
0.0
  0
SPLINE
  5
659
100
AcDbEntity
  8
0
100
AcDbSpline
 62
9
  6
CONTINUOUS
 70
0
 71
3
 72
13
 73
9
 74
0
 42
0.0000001
 43
0.0000001
 44
0.0000000001
 40
0.0
 40
0.0
 40
0.0
 40
0.0
 40
0.2907347026
 40
0.5612889992
 40
0.6844884193
 40
0.7982183271
 40
0.9028324914
 40
1.0
 40
1.0
 40
1.0
 40
1.0
 10
1121.2132198868
 20
188.3653962243
 30
0.0
 10
1121.2132198868
 20
188.0246315347
 30
0.0
 10
1121.1440239221
 20
187.3648032858
 30
0.0
 10
1120.8815739879
 20
186.5967401297
 30
0.0
 10
1120.5718332083
 20
186.0863888986
 30
0.0
 10
1120.3090847478
 20
185.7814373208
 30
0.0
 10
1120.0158394404
 20
185.5518714479
 30
0.0
 10
1119.7983674164
 20
185.4517261704
 30
0.0
 10
1119.689435329
 20
185.4184947766
 30
0.0
  0
SPLINE
  5
65A
100
AcDbEntity
  8
0
100
AcDbSpline
 62
9
  6
CONTINUOUS
 70
0
 71
3
 72
9
 73
5
 74
0
 42
0.0000001
 43
0.0000001
 44
0.0000000001
 40
0.0
 40
0.0
 40
0.0
 40
0.0
 40
0.2529322867
 40
1.0
 40
1.0
 40
1.0
 40
1.0
 10
1119.6638101976
 20
185.410972959
 30
0.0
 10
1119.637085233
 20
185.4034358204
 30
0.0
 10
1119.5304717478
 20
185.3771429164
 30
0.0
 10
1119.4202346342
 20
185.3653962243
 30
0.0
 10
1119.3382198868
 20
185.3653962243
 30
0.0
  0
SPLINE
  5
65B
100
AcDbEntity
  8
0
100
AcDbSpline
 62
9
  6
CONTINUOUS
 70
0
 71
3
 72
13
 73
9
 74
0
 42
0.0000001
 43
0.0000001
 44
0.0000000001
 40
0.0
 40
0.0
 40
0.0
 40
0.0
 40
0.2966487855
 40
0.5661206922
 40
0.6869145523
 40
0.7980339794
 40
0.9012638156
 40
1.0
 40
1.0
 40
1.0
 40
1.0
 10
1116.8555207631
 20
188.1145927273
 30
0.0
 10
1116.8359647317
 20
187.7532204054
 30
0.0
 10
1116.7187741086
 20
187.0651626464
 30
0.0
 10
1116.3638698125
 20
186.2904010748
 30
0.0
 10
1115.9701086414
 20
185.8177913559
 30
0.0
 10
1115.6468636483
 20
185.5617518697
 30
0.0
 10
1115.2953223186
 20
185.4020193203
 30
0.0
 10
1115.0476126065
 20
185.3653962242
 30
0.0
 10
1114.9271579351
 20
185.3653962241
 30
0.0
  0
SPLINE
  5
65C
100
AcDbEntity
  8
0
100
AcDbSpline
 62
9
  6
CONTINUOUS
 70
0
 71
3
 72
17
 73
13
 74
0
 42
0.0000001
 43
0.0000001
 44
0.0000000001
 40
0.0
 40
0.0
 40
0.0
 40
0.0
 40
0.069366526
 40
0.1375361153
 40
0.2040343917
 40
0.2689775419
 40
0.3951913977
 40
0.5184692822
 40
0.6400027041
 40
0.7604906685
 40
0.88038269
 40
1.0
 40
1.0
 40
1.0
 40
1.0
 10
1054.7132198867
 20
272.3653962243
 30
0.0
 10
1054.5658132763
 20
272.3654037546
 30
0.0
 10
1054.2723636782
 20
272.3287455654
 30
0.0
 10
1053.8631393814
 20
272.1761361516
 30
0.0
 10
1053.5001919916
 20
271.9522610584
 30
0.0
 10
1053.0842799994
 20
271.5935163039
 30
0.0
 10
1052.6664215981
 20
271.0646528211
 30
0.0
 10
1052.2941433326
 20
270.3665173315
 30
0.0
 10
1052.0251499274
 20
269.6361727299
 30
0.0
 10
1051.8425784278
 20
268.8876151776
 30
0.0
 10
1051.7364492628
 20
268.1288670106
 30
0.0
 10
1051.7132318207
 20
267.6195877373
 30
0.0
 10
1051.7132198867
 20
267.3653962243
 30
0.0
  0
SPLINE
  5
65D
100
AcDbEntity
  8
0
100
AcDbSpline
 62
9
  6
CONTINUOUS
 70
0
 71
3
 72
15
 73
11
 74
0
 42
0.0000001
 43
0.0000001
 44
0.0000000001
 40
0.0
 40
0.0
 40
0.0
 40
0.0
 40
0.0314452609
 40
0.0566793922
 40
0.0891336618
 40
0.1761052156
 40
0.2919615575
 40
0.43499023
 40
0.6027193643
 40
1.0
 40
1.0
 40
1.0
 40
1.0
 10
1119.542571058
 20
92.3680136751
 30
0.0
 10
1119.5374186209
 20
92.3533973639
 30
0.0
 10
1119.5496006488
 20
92.323353301
 30
0.0
 10
1119.5742390624
 20
92.2885060768
 30
0.0
 10
1119.6219528982
 20
92.2345885345
 30
0.0
 10
1119.7082442449
 20
92.1573459349
 30
0.0
 10
1119.8426331786
 20
92.0521562093
 30
0.0
 10
1120.0140323615
 20
91.9303633888
 30
0.0
 10
1120.3047679276
 20
91.7372720468
 30
0.0
 10
1120.5424803528
 20
91.5920381106
 30
0.0
 10
1120.7110411764
 20
91.4924128781
 30
0.0
  0
SPLINE
  5
65E
100
AcDbEntity
  8
0
100
AcDbSpline
 62
9
  6
CONTINUOUS
 70
0
 71
3
 72
15
 73
11
 74
0
 42
0.0000001
 43
0.0000001
 44
0.0000000001
 40
0.0
 40
0.0
 40
0.0
 40
0.0
 40
0.1264284906
 40
0.2526386529
 40
0.3784454449
 40
0.503725861
 40
0.6284362689
 40
0.7526238941
 40
0.876414318
 40
1.0
 40
1.0
 40
1.0
 40
1.0
 10
1055.7132198867
 20
139.6370152055
 30
0.0
 10
1055.4515749822
 20
139.6370153279
 30
0.0
 10
1054.9273396971
 20
139.5864826328
 30
0.0
 10
1054.1721608825
 20
139.3619557221
 30
0.0
 10
1053.476033131
 20
138.9974281946
 30
0.0
 10
1052.8660854794
 20
138.5069727848
 30
0.0
 10
1052.3655821158
 20
137.9095332719
 30
0.0
 10
1051.993740204
 20
137.227940413
 30
0.0
 10
1051.7647676644
 20
136.4887489369
 30
0.0
 10
1051.7132208155
 20
135.975329438
 30
0.0
 10
1051.7132198867
 20
135.7195677517
 30
0.0
  0
SPLINE
  5
65F
100
AcDbEntity
  8
0
100
AcDbSpline
 62
9
  6
CONTINUOUS
 70
0
 71
3
 72
17
 73
13
 74
0
 42
0.0000001
 43
0.0000001
 44
0.0000000001
 40
0.0
 40
0.0
 40
0.0
 40
0.0
 40
0.0310016494
 40
0.0572432913
 40
0.0916106178
 40
0.1341244559
 40
0.184564568
 40
0.2425531017
 40
0.3076036255
 40
0.4565145226
 40
0.6258725101
 40
1.0
 40
1.0
 40
1.0
 40
1.0
 10
1051.7132198867
 20
172.3653962243
 30
0.0
 10
1051.7132291535
 20
172.4077086312
 30
0.0
 10
1051.7853390739
 20
172.4701206048
 30
0.0
 10
1051.8935043553
 20
172.5217831332
 30
0.0
 10
1052.0279112043
 20
172.5700305033
 30
0.0
 10
1052.1951417325
 20
172.6151633461
 30
0.0
 10
1052.3967439001
 20
172.6589586083
 30
0.0
 10
1052.6298959804
 20
172.7000507875
 30
0.0
 10
1052.997288575
 20
172.7533701724
 30
0.0
 10
1053.5177048781
 20
172.8086388824
 30
0.0
 10
1054.4605269281
 20
172.8746468491
 30
0.0
 10
1055.2025943146
 20
172.8928739773
 30
0.0
 10
1055.7132198867
 20
172.8928687517
 30
0.0
  0
SPLINE
  5
660
100
AcDbEntity
  8
0
100
AcDbSpline
 62
9
  6
CONTINUOUS
 70
0
 71
3
 72
15
 73
11
 74
0
 42
0.0000001
 43
0.0000001
 44
0.0000000001
 40
0.0
 40
0.0
 40
0.0
 40
0.0
 40
0.1235858319
 40
0.2473764065
 40
0.3715641129
 40
0.4962744733
 40
0.62155484
 40
0.7473615942
 40
0.8735716456
 40
1.0
 40
1.0
 40
1.0
 40
1.0
 10
1051.7132198867
 20
225.0112246968
 30
0.0
 10
1051.7132189845
 20
224.7554627017
 30
0.0
 10
1051.7647685937
 20
224.2420425675
 30
0.0
 10
1051.9937406549
 20
223.5028504437
 30
0.0
 10
1052.3655832987
 20
222.8212573782
 30
0.0
 10
1052.8660870574
 20
222.2238183097
 30
0.0
 10
1053.4760346822
 20
221.7333633229
 30
0.0
 10
1054.1721622064
 20
221.368836263
 30
0.0
 10
1054.9273404988
 20
221.1443097217
 30
0.0
 10
1055.4515752654
 20
221.0937771261
 30
0.0
 10
1055.7132198867
 20
221.093777243
 30
0.0
  0
SPLINE
  5
661
100
AcDbEntity
  8
0
100
AcDbSpline
 62
9
  6
CONTINUOUS
 70
0
 71
3
 72
9
 73
5
 74
0
 42
0.0000001
 43
0.0000001
 44
0.0000000001
 40
0.0
 40
0.0
 40
0.0
 40
0.0
 40
0.4999371973
 40
1.0
 40
1.0
 40
1.0
 40
1.0
 10
1118.7132198867
 20
272.059013704
 30
0.0
 10
1118.391915497
 20
272.1647334131
 30
0.0
 10
1117.7292184987
 20
272.3188019658
 30
0.0
 10
1117.051555025
 20
272.3654205945
 30
0.0
 10
1116.7132198867
 20
272.3654207246
 30
0.0
  0
LINE
  5
662
100
AcDbEntity
  8
0
100
AcDbLine
 62
9
  6
CONTINUOUS
 10
1116.7132198867
 20
272.3654207246
 11
1054.7132198867
 21
272.3653962243
  0
SPLINE
  5
663
100
AcDbEntity
  8
0
100
AcDbSpline
 62
9
  6
CONTINUOUS
 70
0
 71
3
 72
17
 73
13
 74
0
 42
0.0000001
 43
0.0000001
 44
0.0000000001
 40
0.0
 40
0.0
 40
0.0
 40
0.0
 40
0.3741274899
 40
0.5434854774
 40
0.6923963745
 40
0.7574468983
 40
0.815435432
 40
0.8658755442
 40
0.9083893822
 40
0.9427567087
 40
0.9689983507
 40
1.0
 40
1.0
 40
1.0
 40
1.0
 10
1055.7132198867
 20
187.8379236968
 30
0.0
 10
1055.2025943146
 20
187.8379184712
 30
0.0
 10
1054.4605269281
 20
187.8561455995
 30
0.0
 10
1053.5177048781
 20
187.922153566
 30
0.0
 10
1052.997288575
 20
187.9774222763
 30
0.0
 10
1052.6298959803
 20
188.0307416609
 30
0.0
 10
1052.3967439001
 20
188.0718338402
 30
0.0
 10
1052.1951417326
 20
188.1156291029
 30
0.0
 10
1052.0279112043
 20
188.1607619451
 30
0.0
 10
1051.8935043549
 20
188.2090093147
 30
0.0
 10
1051.7853390743
 20
188.2606718447
 30
0.0
 10
1051.7132291539
 20
188.3230838175
 30
0.0
 10
1051.7132198867
 20
188.3653962243
 30
0.0
  0
SPLINE
  5
664
100
AcDbEntity
  8
0
100
AcDbSpline
 62
9
  6
CONTINUOUS
 70
0
 71
3
 72
19
 73
15
 74
0
 42
0.0000001
 43
0.0000001
 44
0.0000000001
 40
0.0
 40
0.0
 40
0.0
 40
0.0
 40
0.0090305996
 40
0.0159561434
 40
0.0249171024
 40
0.0493289352
 40
0.0825321479
 40
0.1243939994
 40
0.1745789897
 40
0.2980882706
 40
0.4485028555
 40
0.6201073757
 40
0.8063261773
 40
1.0
 40
1.0
 40
1.0
 40
1.0
 10
1117.8892374541
 20
90.6055080597
 30
0.0
 10
1117.8951063089
 20
90.6080088408
 30
0.0
 10
1117.9077878423
 20
90.6040011938
 30
0.0
 10
1117.9211665027
 20
90.593159051
 30
0.0
 10
1117.9411577695
 20
90.5725454189
 30
0.0
 10
1117.968483798
 20
90.5342090976
 30
0.0
 10
1118.0048638454
 20
90.47402317
 30
0.0
 10
1118.0465160726
 20
90.3959328155
 30
0.0
 10
1118.1135427494
 20
90.2591803336
 30
0.0
 10
1118.2060965813
 20
90.0496809498
 30
0.0
 10
1118.3246057439
 20
89.7580869589
 30
0.0
 10
1118.4521440321
 20
89.4224399907
 30
0.0
 10
1118.5837494673
 20
89.055731122
 30
0.0
 10
1118.6701911177
 20
88.8016527429
 30
0.0
 10
1118.7132198867
 20
88.6717789842
 30
0.0
  0
SPLINE
  5
665
100
AcDbEntity
  8
0
100
AcDbSpline
 62
9
  6
CONTINUOUS
 70
0
 71
3
 72
19
 73
15
 74
0
 42
0.0000001
 43
0.0000001
 44
0.0000000001
 40
0.0
 40
0.0
 40
0.0
 40
0.0
 40
0.0091889145
 40
0.0161570263
 40
0.0251457512
 40
0.0495863898
 40
0.0827986511
 40
0.1246579078
 40
0.1748326683
 40
0.2983065553
 40
0.4486739301
 40
0.6202244766
 40
0.8063855634
 40
1.0
 40
1.0
 40
1.0
 40
1.0
 10
1117.8892374033
 20
270.1252844105
 30
0.0
 10
1117.8952112513
 20
270.1227388907
 30
0.0
 10
1117.9080676483
 20
270.1265676735
 30
0.0
 10
1117.9217168522
 20
270.1373845381
 30
0.0
 10
1117.9419247962
 20
270.1578845181
 30
0.0
 10
1117.9695042056
 20
270.1961366436
 30
0.0
 10
1118.0061115608
 20
270.2562386705
 30
0.0
 10
1118.0479481852
 20
270.3342666839
 30
0.0
 10
1118.1151614667
 20
270.4709494914
 30
0.0
 10
1118.2077923923
 20
270.680436106
 30
0.0
 10
1118.3261858299
 20
270.9720937907
 30
0.0
 10
1118.4533997493
 20
271.3078808173
 30
0.0
 10
1118.5844816585
 20
271.6747956221
 30
0.0
 10
1118.670455893
 20
271.9290458913
 30
0.0
 10
1118.7132198867
 20
272.059013704
 30
0.0
  0
LINE
  5
666
100
AcDbEntity
  8
0
100
AcDbLine
 62
9
  6
CONTINUOUS
 10
1054.7132198867
 20
88.3653962243
 11
1116.7132198867
 21
88.3653717279
  0
SPLINE
  5
667
100
AcDbEntity
  8
0
100
AcDbSpline
 62
9
  6
CONTINUOUS
 70
0
 71
3
 72
9
 73
5
 74
0
 42
0.0000001
 43
0.0000001
 44
0.0000000001
 40
0.0
 40
0.0
 40
0.0
 40
0.0
 40
0.500072959
 40
1.0
 40
1.0
 40
1.0
 40
1.0
 10
1116.7132198867
 20
88.3653717279
 30
0.0
 10
1117.0515759483
 20
88.3653718545
 30
0.0
 10
1117.7292763097
 20
88.411279087
 30
0.0
 10
1118.3921263647
 20
88.5653977241
 30
0.0
 10
1118.7132198867
 20
88.6717789842
 30
0.0
  0
SPLINE
  5
668
100
AcDbEntity
  8
0
100
AcDbSpline
 62
9
  6
CONTINUOUS
 70
0
 71
3
 72
11
 73
7
 74
0
 42
0.0000001
 43
0.0000001
 44
0.0000000001
 40
0.0
 40
0.0
 40
0.0
 40
0.0
 40
0.2497151642
 40
0.4996562495
 40
0.7497779283
 40
1.0
 40
1.0
 40
1.0
 40
1.0
 10
1085.1132968251
 20
137.7496951397
 30
0.0
 10
1084.7584326581
 20
138.0499880631
 30
0.0
 10
1083.9942969455
 20
138.590080745
 30
0.0
 10
1082.7252126223
 20
139.1876163396
 30
0.0
 10
1081.3703176326
 20
139.5545694271
 30
0.0
 10
1080.4368099303
 20
139.6370149763
 30
0.0
 10
1079.9709959476
 20
139.6370152055
 30
0.0
  0
SPLINE
  5
669
100
AcDbEntity
  8
0
100
AcDbSpline
 62
9
  6
CONTINUOUS
 70
0
 71
3
 72
15
 73
11
 74
0
 42
0.0000001
 43
0.0000001
 44
0.0000000001
 40
0.0
 40
0.0
 40
0.0
 40
0.0
 40
0.0320784689
 40
0.0574739942
 40
0.0900243171
 40
0.1770538395
 40
0.2928471668
 40
0.4357274718
 40
0.6032469669
 40
1.0
 40
1.0
 40
1.0
 40
1.0
 10
1119.5425710851
 20
268.3627786965
 30
0.0
 10
1119.5373109581
 20
268.3777005014
 30
0.0
 10
1119.5490083186
 20
268.4082795443
 30
0.0
 10
1119.5736598748
 20
268.4437924159
 30
0.0
 10
1119.6211226927
 20
268.4981636408
 30
0.0
 10
1119.7073114388
 20
268.5757884048
 30
0.0
 10
1119.8416543038
 20
268.6811023698
 30
0.0
 10
1120.0131286732
 20
268.8027201346
 30
0.0
 10
1120.3041089379
 20
268.9951242633
 30
0.0
 10
1120.542188534
 20
269.1394745219
 30
0.0
 10
1120.7110413235
 20
269.2383795705
 30
0.0
  0
SPLINE
  5
66A
100
AcDbEntity
  8
0
100
AcDbSpline
 62
9
  6
CONTINUOUS
 70
0
 71
3
 72
9
 73
5
 74
0
 42
0.0000001
 43
0.0000001
 44
0.0000000001
 40
0.0
 40
0.0
 40
0.0
 40
0.0
 40
0.5321958061
 40
1.0
 40
1.0
 40
1.0
 40
1.0
 10
1079.9709959476
 20
172.8928687517
 30
0.0
 10
1080.8836300332
 20
172.8928716552
 30
0.0
 10
1082.5985220522
 20
172.8717128586
 30
0.0
 10
1084.3124477864
 20
172.8060848484
 30
0.0
 10
1085.1132968251
 20
172.7593356752
 30
0.0
  0
SPLINE
  5
66B
100
AcDbEntity
  8
0
100
AcDbSpline
 62
9
  6
CONTINUOUS
 70
0
 71
3
 72
11
 73
7
 74
0
 42
0.0000001
 43
0.0000001
 44
0.0000000001
 40
0.0
 40
0.0
 40
0.0
 40
0.0
 40
0.2502221255
 40
0.5003438214
 40
0.7502849025
 40
1.0
 40
1.0
 40
1.0
 40
1.0
 10
1079.9709959476
 20
221.093777243
 30
0.0
 10
1080.4368100279
 20
221.0937774296
 30
0.0
 10
1081.3703177392
 20
221.1762233621
 30
0.0
 10
1082.7252133164
 20
221.5431757238
 30
0.0
 10
1083.9942959088
 20
222.140713419
 30
0.0
 10
1084.7584351438
 20
222.6808016563
 30
0.0
 10
1085.1132968251
 20
222.9810973207
 30
0.0
  0
SPLINE
  5
66C
100
AcDbEntity
  8
0
100
AcDbSpline
 62
9
  6
CONTINUOUS
 70
0
 71
3
 72
9
 73
5
 74
0
 42
0.0000001
 43
0.0000001
 44
0.0000000001
 40
0.0
 40
0.0
 40
0.0
 40
0.0
 40
0.4678041939
 40
1.0
 40
1.0
 40
1.0
 40
1.0
 10
1085.1132968251
 20
187.9714567734
 30
0.0
 10
1084.3124477859
 20
187.9247076083
 30
0.0
 10
1082.5985220525
 20
187.8590795851
 30
0.0
 10
1080.8836300332
 20
187.8379207935
 30
0.0
 10
1079.9709959476
 20
187.8379236968
 30
0.0
  0
SPLINE
  5
66D
100
AcDbEntity
  8
0
100
AcDbSpline
 62
9
  6
CONTINUOUS
 70
0
 71
3
 72
13
 73
9
 74
0
 42
0.0000001
 43
0.0000001
 44
0.0000000001
 40
0.0
 40
0.0
 40
0.0
 40
0.0
 40
0.1335070145
 40
0.2277281045
 40
0.3429602201
 40
0.4791619811
 40
0.6352712054
 40
1.0
 40
1.0
 40
1.0
 40
1.0
 10
1119.7132198867
 20
267.3653962243
 30
0.0
 10
1119.7132198867
 20
267.4337569105
 30
0.0
 10
1119.7803112408
 20
267.5444648043
 30
0.0
 10
1119.9090381244
 20
267.6607044547
 30
0.0
 10
1120.055653305
 20
267.7619892165
 30
0.0
 10
1120.2382715459
 20
267.8629015594
 30
0.0
 10
1120.5438514706
 20
268.0043706664
 30
0.0
 10
1120.795270269
 20
268.0948812952
 30
0.0
 10
1120.9730869283
 20
268.1519662201
 30
0.0
  0
SPLINE
  5
66E
100
AcDbEntity
  8
0
100
AcDbSpline
 62
9
  6
CONTINUOUS
 70
0
 71
3
 72
17
 73
13
 74
0
 42
0.0000001
 43
0.0000001
 44
0.0000000001
 40
0.0
 40
0.0
 40
0.0
 40
0.0
 40
0.1196168409
 40
0.2395081303
 40
0.3599957248
 40
0.4815289086
 40
0.6048071179
 40
0.7310216175
 40
0.795965457
 40
0.8624655729
 40
0.9306353425
 40
1.0
 40
1.0
 40
1.0
 40
1.0
 10
1051.7132198867
 20
93.3653962243
 30
0.0
 10
1051.7132311839
 20
93.111205697
 30
0.0
 10
1051.7364490179
 20
92.6019289121
 30
0.0
 10
1051.8425777483
 20
91.8431841474
 30
0.0
 10
1052.0251459243
 20
91.0946286571
 30
0.0
 10
1052.2941390682
 20
90.3642845438
 30
0.0
 10
1052.6664164477
 20
89.6661468188
 30
0.0
 10
1053.0842762074
 20
89.1372798656
 30
0.0
 10
1053.5001925844
 20
88.778529729
 30
0.0
 10
1053.863145824
 20
88.554652756
 30
0.0
 10
1054.272371284
 20
88.4020454182
 30
0.0
 10
1054.5658172407
 20
88.3653886946
 30
0.0
 10
1054.7132198867
 20
88.3653962243
 30
0.0
  0
SPLINE
  5
66F
100
AcDbEntity
  8
0
100
AcDbSpline
 62
9
  6
CONTINUOUS
 70
0
 71
3
 72
18
 73
14
 74
0
 42
0.0000001
 43
0.0000001
 44
0.0000000001
 40
0.0
 40
0.0
 40
0.0
 40
0.0
 40
0.0072017908
 40
0.0131442752
 40
0.0209370462
 40
0.042336297
 40
0.0716396177
 40
0.1539371094
 40
0.267217597
 40
0.4102684702
 40
0.5814528646
 40
0.7788108047
 40
1.0
 40
1.0
 40
1.0
 40
1.0
 10
1119.7132198867
 20
188.3653962243
 30
0.0
 10
1119.7132170578
 20
188.3584773247
 30
0.0
 10
1119.7023381959
 20
188.3479432461
 30
0.0
 10
1119.6851718068
 20
188.3388619501
 30
0.0
 10
1119.6534948647
 20
188.326121821
 30
0.0
 10
1119.5992734214
 20
188.3117276719
 30
0.0
 10
1119.4738312664
 20
188.2866446619
 30
0.0
 10
1119.2595662728
 20
188.2582860639
 30
0.0
 10
1118.9357862636
 20
188.226319899
 30
0.0
 10
1118.5261975544
 20
188.1954372265
 30
0.0
 10
1118.0355806507
 20
188.1658465674
 30
0.0
 10
1117.4696771377
 20
188.1382328326
 30
0.0
 10
1117.067882874
 20
188.1222675972
 30
0.0
 10
1116.8555207641
 20
188.1145927271
 30
0.0
  0
SPLINE
  5
670
100
AcDbEntity
  8
0
100
AcDbSpline
 62
9
  6
CONTINUOUS
 70
0
 71
3
 72
11
 73
7
 74
0
 42
0.0000001
 43
0.0000001
 44
0.0000000001
 40
0.0
 40
0.0
 40
0.0
 40
0.0
 40
0.2501037163
 40
0.5001191153
 40
0.7500729848
 40
1.0
 40
1.0
 40
1.0
 40
1.0
 10
1117.0591969174
 20
250.4239293347
 30
0.0
 10
1117.4355292238
 20
250.7631600407
 30
0.0
 10
1118.1252462245
 20
251.5150699157
 30
0.0
 10
1118.9271756099
 20
252.8160587842
 30
0.0
 10
1119.4702558133
 20
254.2441824186
 30
0.0
 10
1119.6470270509
 20
255.248506883
 30
0.0
 10
1119.6874696503
 20
255.7531902225
 30
0.0
  0
SPLINE
  5
671
100
AcDbEntity
  8
0
100
AcDbSpline
 62
9
  6
CONTINUOUS
 70
0
 71
3
 72
18
 73
14
 74
0
 42
0.0000001
 43
0.0000001
 44
0.0000000001
 40
0.0
 40
0.0
 40
0.0
 40
0.0
 40
0.2211891953
 40
0.4185471354
 40
0.5897315298
 40
0.732782403
 40
0.8460628906
 40
0.9283603823
 40
0.957663703
 40
0.9790629538
 40
0.9868557248
 40
0.9927982091
 40
1.0
 40
1.0
 40
1.0
 40
1.0
 10
1116.8555207641
 20
172.6161997214
 30
0.0
 10
1117.067882874
 20
172.6085248508
 30
0.0
 10
1117.4696771377
 20
172.5925596165
 30
0.0
 10
1118.0355806507
 20
172.5649458809
 30
0.0
 10
1118.5261975544
 20
172.535355222
 30
0.0
 10
1118.9357862637
 20
172.5044725496
 30
0.0
 10
1119.2595662728
 20
172.4725063845
 30
0.0
 10
1119.4738312664
 20
172.4441477868
 30
0.0
 10
1119.5992734214
 20
172.4190647766
 30
0.0
 10
1119.6534948647
 20
172.4046706275
 30
0.0
 10
1119.6851718068
 20
172.3919304985
 30
0.0
 10
1119.7023381959
 20
172.3828492025
 30
0.0
 10
1119.7132170578
 20
172.3723151239
 30
0.0
 10
1119.7132198867
 20
172.3653962243
 30
0.0
  0
SPLINE
  5
672
100
AcDbEntity
  8
0
100
AcDbSpline
 62
9
  6
CONTINUOUS
 70
0
 71
3
 72
11
 73
7
 74
0
 42
0.0000001
 43
0.0000001
 44
0.0000000001
 40
0.0
 40
0.0
 40
0.0
 40
0.0
 40
0.2499269923
 40
0.4998808695
 40
0.7498962811
 40
1.0
 40
1.0
 40
1.0
 40
1.0
 10
1119.6874008891
 20
104.9784598025
 30
0.0
 10
1119.6469100561
 20
105.4830676453
 30
0.0
 10
1119.4700702947
 20
106.4872320419
 30
0.0
 10
1118.9269720783
 20
107.9151158099
 30
0.0
 10
1118.1251046907
 20
109.2158869983
 30
0.0
 10
1117.4354762192
 20
109.9676802437
 30
0.0
 10
1117.0591969174
 20
110.3068631139
 30
0.0
  0
LINE
  5
673
100
AcDbEntity
  8
0
100
AcDbLine
 62
9
  6
CONTINUOUS
 10
1121.2132198901
 20
250.3653962251
 11
1121.2132198899
 21
266.1158805633
  0
LINE
  5
674
100
AcDbEntity
  8
0
100
AcDbLine
 62
9
  6
CONTINUOUS
 10
1121.2132198901
 20
94.6149118855
 11
1121.21321989
 21
110.3653962243
  0
SPLINE
  5
675
100
AcDbEntity
  8
0
100
AcDbSpline
 62
7
  6
CONTINUOUS
 70
0
 71
3
 72
9
 73
5
 74
0
 42
0.0000001
 43
0.0000001
 44
0.0000000001
 40
0.0
 40
0.0
 40
0.0
 40
0.0
 40
0.2807146518
 40
1.0
 40
1.0
 40
1.0
 40
1.0
 10
1264.2132144523
 20
422.1852651074
 30
0.0
 10
1264.2132024205
 20
422.2879285578
 30
0.0
 10
1264.2112652638
 20
422.6536248713
 30
0.0
 10
1264.2018164314
 20
423.0194434065
 30
0.0
 10
1264.1855456842
 20
423.2819980228
 30
0.0
  0
SPLINE
  5
676
100
AcDbEntity
  8
0
100
AcDbSpline
 62
7
  6
CONTINUOUS
 70
0
 71
3
 72
9
 73
5
 74
0
 42
0.0000001
 43
0.0000001
 44
0.0000000001
 40
0.0
 40
0.0
 40
0.0
 40
0.0
 40
0.2217426005
 40
1.0
 40
1.0
 40
1.0
 40
1.0
 10
1204.2368298737
 20
423.212637632
 30
0.0
 10
1204.2326328204
 20
423.1367828843
 30
0.0
 10
1204.2172526542
 20
422.7945013218
 30
0.0
 10
1204.2132556416
 20
422.4517991339
 30
0.0
 10
1204.2132252983
 20
422.1851619882
 30
0.0
  0
SPLINE
  5
677
100
AcDbEntity
  8
0
100
AcDbSpline
 62
9
  6
CONTINUOUS
 70
0
 71
3
 72
11
 73
7
 74
0
 42
0.0000001
 43
0.0000001
 44
0.0000000001
 40
0.0
 40
0.0
 40
0.0
 40
0.0
 40
0.2620803402
 40
0.517324667
 40
0.7624338216
 40
1.0
 40
1.0
 40
1.0
 40
1.0
 10
1200.2141211727
 20
418.3453135839
 30
0.0
 10
1200.7320827873
 20
418.3460330884
 30
0.0
 10
1201.7637332624
 20
418.5281668455
 30
0.0
 10
1203.0892609399
 20
419.313771134
 30
0.0
 10
1203.9951270207
 20
420.5065532245
 30
0.0
 10
1204.2132908002
 20
421.4717947393
 30
0.0
 10
1204.2140965858
 20
421.9413076329
 30
0.0
  0
SPLINE
  5
678
100
AcDbEntity
  8
0
100
AcDbSpline
 62
9
  6
CONTINUOUS
 70
0
 71
3
 72
11
 73
7
 74
0
 42
0.0000001
 43
0.0000001
 44
0.0000000001
 40
0.0
 40
0.0
 40
0.0
 40
0.0
 40
0.262080588
 40
0.5173248297
 40
0.7624336772
 40
1.0
 40
1.0
 40
1.0
 40
1.0
 10
1268.2123186023
 20
418.3452034195
 30
0.0
 10
1267.694346063
 20
418.3459166053
 30
0.0
 10
1266.6626714867
 20
418.5280493886
 30
0.0
 10
1265.3371228651
 20
419.313684024
 30
0.0
 10
1264.4312666124
 20
420.5065143741
 30
0.0
 10
1264.2131346608
 20
421.4717849697
 30
0.0
 10
1264.2123484582
 20
421.9413076327
 30
0.0
  0
SPLINE
  5
679
100
AcDbEntity
  8
0
100
AcDbSpline
 62
9
  6
CONTINUOUS
 70
0
 71
3
 72
35
 73
31
 74
0
 42
0.0000001
 43
0.0000001
 44
0.0000000001
 40
0.0
 40
0.0
 40
0.0
 40
0.0
 40
0.0412812959
 40
0.089217528
 40
0.1435696296
 40
0.2039007281
 40
0.236161184
 40
0.2697397862
 40
0.3045912133
 40
0.3406907274
 40
0.3780562972
 40
0.4168010942
 40
0.4368074359
 40
0.4573282873
 40
0.4784336164
 40
0.500003631
 40
0.5215717969
 40
0.5426753688
 40
0.5631945998
 40
0.5832006278
 40
0.6219448615
 40
0.6593103371
 40
0.6954097308
 40
0.7302610599
 40
0.7638395791
 40
0.7960999541
 40
0.8564308872
 40
0.9107828135
 40
0.9587188612
 40
1.0
 40
1.0
 40
1.0
 40
1.0
 10
1200.2141211727
 20
418.3453223982
 30
0.0
 10
1200.2293053458
 20
416.2967211461
 30
0.0
 10
1200.6591812323
 20
411.8728117501
 30
0.0
 10
1202.1088584075
 20
404.8896053426
 30
0.0
 10
1204.3681586815
 20
397.1345591928
 30
0.0
 10
1206.8641767752
 20
390.2770893657
 30
0.0
 10
1209.2869706983
 20
384.5023239813
 30
0.0
 10
1211.3852835463
 20
379.9658759118
 30
0.0
 10
1213.7572529727
 20
375.3505946772
 30
0.0
 10
1216.4595214341
 20
370.6997829504
 30
0.0
 10
1219.5898313256
 20
366.0885889656
 30
0.0
 10
1222.6765507547
 20
362.428351518
 30
0.0
 10
1225.6009785121
 20
359.7860143584
 30
0.0
 10
1228.1263484845
 20
358.0395078699
 30
0.0
 10
1231.016218915
 20
356.7553400524
 30
0.0
 10
1234.2136741251
 20
356.2579119821
 30
0.0
 10
1237.4110444919
 20
356.7554494414
 30
0.0
 10
1240.3005143351
 20
358.0398679512
 30
0.0
 10
1242.8257081258
 20
359.7862795816
 30
0.0
 10
1245.750005635
 20
362.4285795431
 30
0.0
 10
1248.8367729988
 20
366.0887084943
 30
0.0
 10
1251.9669695398
 20
370.699938455
 30
0.0
 10
1254.6692627601
 20
375.3507141006
 30
0.0
 10
1257.0412143276
 20
379.9659892794
 30
0.0
 10
1259.1395182391
 20
384.5024266696
 30
0.0
 10
1261.5622990348
 20
390.2771800569
 30
0.0
 10
1264.0583001538
 20
397.1346334441
 30
0.0
 10
1266.3175954159
 20
404.8896539857
 30
0.0
 10
1267.7672607404
 20
411.8728365043
 30
0.0
 10
1268.1971363801
 20
416.2967289274
 30
0.0
 10
1268.2123186006
 20
418.3453223982
 30
0.0
  0
SPLINE
  5
67A
100
AcDbEntity
  8
0
100
AcDbSpline
 62
9
  6
CONTINUOUS
 70
0
 71
3
 72
41
 73
37
 74
0
 42
0.0000001
 43
0.0000001
 44
0.0000000001
 40
0.0
 40
0.0
 40
0.0
 40
0.0
 40
0.0417275798
 40
0.0899094816
 40
0.1443477565
 40
0.2046812564
 40
0.2369372924
 40
0.2705217875
 40
0.3053958479
 40
0.341532317
 40
0.3789243629
 40
0.3981034655
 40
0.4176180498
 40
0.4374934629
 40
0.4577804805
 40
0.4681176856
 40
0.4786125343
 40
0.4892496894
 40
0.5000046354
 40
0.5107529404
 40
0.5213914551
 40
0.5318852876
 40
0.542221129
 40
0.562507811
 40
0.5823833048
 40
0.6018977995
 40
0.621076847
 40
0.6584687331
 40
0.694605109
 40
0.7294790795
 40
0.7630634895
 40
0.7953194395
 40
0.8556527675
 40
0.910090866
 40
0.9582725757
 40
1.0
 40
1.0
 40
1.0
 40
1.0
 10
1204.2140962802
 20
421.9413076329
 30
0.0
 10
1204.2283998985
 20
419.9085116171
 30
0.0
 10
1204.6203166953
 20
415.5313526554
 30
0.0
 10
1205.9474524021
 20
408.6191839425
 30
0.0
 10
1208.0106140075
 20
400.9471671979
 30
0.0
 10
1210.2780007927
 20
394.1485953842
 30
0.0
 10
1212.4605270252
 20
388.4015635688
 30
0.0
 10
1214.3370494643
 20
383.8672149258
 30
0.0
 10
1216.43744835
 20
379.2235070663
 30
0.0
 10
1218.7978623045
 20
374.4977729942
 30
0.0
 10
1221.0153886347
 20
370.5595191784
 30
0.0
 10
1223.009316228
 20
367.4336873901
 30
0.0
 10
1224.6606061172
 20
365.1046382098
 30
0.0
 10
1226.5009969727
 20
362.8509721358
 30
0.0
 10
1228.250710709
 20
361.1086878613
 30
0.0
 10
1229.8475750455
 20
359.893428252
 30
0.0
 10
1231.1778812423
 20
359.1205887783
 30
0.0
 10
1232.6444510266
 20
358.5783670822
 30
0.0
 10
1234.2136095297
 20
358.3753456541
 30
0.0
 10
1235.7825679626
 20
358.5791120149
 30
0.0
 10
1237.2492566331
 20
359.1202568712
 30
0.0
 10
1238.5789049232
 20
359.894177442
 30
0.0
 10
1240.1762733982
 20
361.1084559324
 30
0.0
 10
1241.9255751752
 20
362.8511850347
 30
0.0
 10
1243.7659998226
 20
365.104738145
 30
0.0
 10
1245.4172219859
 20
367.4338503456
 30
0.0
 10
1247.4111094032
 20
370.5596825678
 30
0.0
 10
1249.6286704709
 20
374.4979020485
 30
0.0
 10
1251.9890535903
 20
379.2236330887
 30
0.0
 10
1254.0894408624
 20
383.8673315813
 30
0.0
 10
1255.9659554268
 20
388.401669733
 30
0.0
 10
1258.1484744456
 20
394.148686452
 30
0.0
 10
1260.4158444338
 20
400.9472414834
 30
0.0
 10
1262.4790002376
 20
408.6192324773
 30
0.0
 10
1263.806125333
 20
415.5313771974
 30
0.0
 10
1264.1980408052
 20
419.9085191873
 30
0.0
 10
1264.2123434932
 20
421.9413076329
 30
0.0
  0
SPLINE
  5
67B
100
AcDbEntity
  8
0
100
AcDbSpline
 62
9
  6
CONTINUOUS
 70
0
 71
3
 72
9
 73
5
 74
0
 42
0.0000001
 43
0.0000001
 44
0.0000000001
 40
0.0
 40
0.0
 40
0.0
 40
0.0
 40
0.2434352206
 40
1.0
 40
1.0
 40
1.0
 40
1.0
 10
1344.2132198867
 20
67.0637911914
 30
0.0
 10
1344.2132180413
 20
66.5795100976
 30
0.0
 10
1344.1503747341
 20
64.590073893
 30
0.0
 10
1343.8729007819
 20
62.6121362125
 30
0.0
 10
1343.5922753947
 20
61.1334469824
 30
0.0
  0
SPLINE
  5
67C
100
AcDbEntity
  8
0
100
AcDbSpline
 62
9
  6
CONTINUOUS
 70
0
 71
3
 72
24
 73
20
 74
0
 42
0.0000001
 43
0.0000001
 44
0.0000000001
 40
0.0
 40
0.0
 40
0.0
 40
0.0
 40
0.1516995308
 40
0.2901584068
 40
0.5173222783
 40
0.6854173725
 40
0.7516638237
 40
0.8080402963
 40
0.855710652
 40
0.8955888474
 40
0.9283766653
 40
0.9546007577
 40
0.9746454133
 40
0.9824409286
 40
0.9887853755
 40
0.9937015823
 40
0.9972039353
 40
0.999300715
 40
1.0
 40
1.0
 40
1.0
 40
1.0
 10
1343.5922753947
 20
61.1334469824
 30
0.0
 10
1343.2829477847
 20
59.5028483942
 30
0.0
 10
1342.5244252008
 20
56.4156925662
 30
0.0
 10
1340.8716574288
 20
51.0020619128
 30
0.0
 10
1338.9981438369
 20
45.4715171008
 30
0.0
 10
1337.5266192771
 20
40.6392164264
 30
0.0
 10
1336.7475777026
 20
37.554903184
 30
0.0
 10
1336.3486212785
 20
35.734700196
 30
0.0
 10
1336.059670381
 20
34.1865687248
 30
0.0
 10
1335.8559626829
 20
32.8857048762
 30
0.0
 10
1335.7164725325
 20
31.8127133096
 30
0.0
 10
1335.6237854105
 20
30.9527188055
 30
0.0
 10
1335.5712483422
 20
30.3635187778
 30
0.0
 10
1335.5416579243
 20
29.9907206246
 30
0.0
 10
1335.5270586752
 20
29.7826787902
 30
0.0
 10
1335.5147510333
 20
29.6218037688
 30
0.0
 10
1335.5101003067
 20
29.5064118248
 30
0.0
 10
1335.5007625684
 20
29.4386781082
 30
0.0
 10
1335.5041273593
 20
29.4070671523
 30
0.0
 10
1335.5015255438
 20
29.3998725798
 30
0.0
  0
SPLINE
  5
67D
100
AcDbEntity
  8
0
100
AcDbSpline
 62
7
  6
CONTINUOUS
 70
0
 71
3
 72
11
 73
7
 74
0
 42
0.0000001
 43
0.0000001
 44
0.0000000001
 40
0.0
 40
0.0
 40
0.0
 40
0.0
 40
0.2244274445
 40
0.4672485992
 40
0.7274185852
 40
1.0
 40
1.0
 40
1.0
 40
1.0
 10
1319.2132198867
 20
418.3453223982
 30
0.0
 10
1321.0998255182
 20
417.5541951445
 30
0.0
 10
1324.8700194707
 20
415.5181576731
 30
0.0
 10
1330.1512968988
 20
411.4715499896
 30
0.0
 10
1335.1134077951
 20
406.4054492771
 30
0.0
 10
1338.0051225098
 20
402.477055756
 30
0.0
 10
1339.3145878825
 20
400.3653962243
 30
0.0
  0
SPLINE
  5
67E
100
AcDbEntity
  8
0
100
AcDbSpline
 62
7
  6
CONTINUOUS
 70
0
 71
3
 72
9
 73
5
 74
0
 42
0.0000001
 43
0.0000001
 44
0.0000000001
 40
0.0
 40
0.0
 40
0.0
 40
0.0
 40
0.4997136532
 40
1.0
 40
1.0
 40
1.0
 40
1.0
 10
1339.3145878825
 20
400.3653962243
 30
0.0
 10
1340.9822189314
 20
397.6761544365
 30
0.0
 10
1343.4534866407
 20
391.7266466402
 30
0.0
 10
1344.2132198867
 20
385.3661011828
 30
0.0
 10
1344.2132198867
 20
382.1981399204
 30
0.0
  0
SPLINE
  5
67F
100
AcDbEntity
  8
0
100
AcDbSpline
 62
9
  6
CONTINUOUS
 70
0
 71
3
 72
14
 73
10
 74
0
 42
0.0000001
 43
0.0000001
 44
0.0000000001
 40
0.0
 40
0.0
 40
0.0
 40
0.0
 40
0.0645413922
 40
0.1430260908
 40
0.2420388859
 40
0.3625669539
 40
0.5028319319
 40
0.6592577128
 40
1.0
 40
1.0
 40
1.0
 40
1.0
 10
1344.2132230435
 20
67.0637911913
 30
0.0
 10
1344.213215164
 20
66.9668944028
 30
0.0
 10
1344.2804320722
 20
66.7513991723
 30
0.0
 10
1344.5305747431
 20
66.4789346563
 30
0.0
 10
1344.9099330003
 20
66.2362198908
 30
0.0
 10
1345.4088345643
 20
66.0245743742
 30
0.0
 10
1346.0119076867
 20
65.850982724
 30
0.0
 10
1346.9532368224
 20
65.6735941076
 30
0.0
 10
1347.7016592867
 20
65.6240902527
 30
0.0
 10
1348.2132198887
 20
65.624090171
 30
0.0
  0
SPLINE
  5
680
100
AcDbEntity
  8
0
100
AcDbSpline
 62
9
  6
CONTINUOUS
 70
0
 71
3
 72
28
 73
24
 74
0
 42
0.0000001
 43
0.0000001
 44
0.0000000001
 40
0.0
 40
0.0
 40
0.0
 40
0.0
 40
0.1525359444
 40
0.2931698495
 40
0.5234598032
 40
0.614364901
 40
0.6916729182
 40
0.7572950519
 40
0.8128410053
 40
0.8595990413
 40
0.8985696932
 40
0.9305146548
 40
0.95600445
 40
0.9664613452
 40
0.9754518836
 40
0.9830060604
 40
0.9891503155
 40
0.993909558
 40
0.9972982104
 40
0.9984814122
 40
0.9993253669
 40
0.9998311977
 40
1.0
 40
1.0
 40
1.0
 40
1.0
 10
1347.492924276
 20
60.3653962243
 30
0.0
 10
1347.0982954233
 20
58.8105361998
 30
0.0
 10
1346.1055413925
 20
55.8834077233
 30
0.0
 10
1344.0376293781
 20
50.7832651113
 30
0.0
 10
1342.1751695252
 20
46.2958254131
 30
0.0
 10
1340.7483436791
 20
42.3545008418
 30
0.0
 10
1339.9893070146
 20
40.0148928496
 30
0.0
 10
1339.4179838027
 20
38.0068166849
 30
0.0
 10
1338.9973483286
 20
36.2912358684
 30
0.0
 10
1338.6944526412
 20
34.8364228605
 30
0.0
 10
1338.4813333143
 20
33.617191018
 30
0.0
 10
1338.3352496974
 20
32.6138011635
 30
0.0
 10
1338.2491936989
 20
31.9049549239
 30
0.0
 10
1338.1996606132
 20
31.4349694202
 30
0.0
 10
1338.172181019
 20
31.1523276346
 30
0.0
 10
1338.1507709623
 20
30.9146978798
 30
0.0
 10
1338.1347965075
 20
30.7211868636
 30
0.0
 10
1338.122601788
 20
30.5715230348
 30
0.0
 10
1338.1159112853
 20
30.4733134526
 30
0.0
 10
1338.1107940209
 20
30.4169893268
 30
0.0
 10
1338.1104900555
 20
30.3896307288
 30
0.0
 10
1338.1065637355
 20
30.3750891174
 30
0.0
 10
1338.1089819568
 20
30.3665720038
 30
0.0
 10
1338.1076546505
 20
30.3653931572
 30
0.0
  0
SPLINE
  5
681
100
AcDbEntity
  8
0
100
AcDbSpline
 62
9
  6
CONTINUOUS
 70
0
 71
3
 72
9
 73
5
 74
0
 42
0.0000001
 43
0.0000001
 44
0.0000000001
 40
0.0
 40
0.0
 40
0.0
 40
0.0
 40
0.2426023605
 40
1.0
 40
1.0
 40
1.0
 40
1.0
 10
1348.2132198867
 20
65.624122317
 30
0.0
 10
1348.2131688951
 20
65.1942201238
 30
0.0
 10
1348.144980341
 20
63.4220229922
 30
0.0
 10
1347.8230262445
 20
61.6663108447
 30
0.0
 10
1347.492924276
 20
60.3653962243
 30
0.0
  0
SPLINE
  5
682
100
AcDbEntity
  8
0
100
AcDbSpline
 62
9
  6
CONTINUOUS
 70
0
 71
3
 72
15
 73
11
 74
0
 42
0.0000001
 43
0.0000001
 44
0.0000000001
 40
0.0
 40
0.0
 40
0.0
 40
0.0
 40
0.1302101026
 40
0.2597025091
 40
0.3877654511
 40
0.513965468
 40
0.6380578688
 40
0.760125513
 40
0.880564509
 40
1.0
 40
1.0
 40
1.0
 40
1.0
 10
1159.2132198867
 20
418.3453223982
 30
0.0
 10
1157.579944778
 20
418.3452629892
 30
0.0
 10
1154.314687744
 20
418.0494937437
 30
0.0
 10
1149.6046757627
 20
416.735485617
 30
0.0
 10
1145.2590883086
 20
414.599952412
 30
0.0
 10
1141.4459652815
 20
411.7257281792
 30
0.0
 10
1138.3116437568
 20
408.2217056442
 30
0.0
 10
1135.9779294762
 20
404.221692869
 30
0.0
 10
1134.5385018775
 20
399.8819858538
 30
0.0
 10
1134.2140665397
 20
396.8635210375
 30
0.0
 10
1134.2132198867
 20
395.3653962409
 30
0.0
  0
SPLINE
  5
683
100
AcDbEntity
  8
0
100
AcDbSpline
 62
9
  6
CONTINUOUS
 70
0
 71
3
 72
14
 73
10
 74
0
 42
0.0000001
 43
0.0000001
 44
0.0000000001
 40
0.0
 40
0.0
 40
0.0
 40
0.0
 40
0.4117188365
 40
0.5755547457
 40
0.7109429493
 40
0.8182559003
 40
0.8987240381
 40
0.9559517123
 40
1.0
 40
1.0
 40
1.0
 40
1.0
 10
1268.2123186006
 20
418.3453223982
 30
0.0
 10
1268.214863788
 20
418.6372975278
 30
0.0
 10
1268.2124390336
 20
419.0457437508
 30
0.0
 10
1268.1804502831
 20
419.5491346982
 30
0.0
 10
1268.1464060319
 20
419.8355095512
 30
0.0
 10
1268.1007440957
 20
420.0608271959
 30
0.0
 10
1268.0423327553
 20
420.2246834908
 30
0.0
 10
1267.9695332324
 20
420.3354869417
 30
0.0
 10
1267.897323921
 20
420.3653671583
 30
0.0
 10
1267.8660853998
 20
420.3653962243
 30
0.0
  0
SPLINE
  5
684
100
AcDbEntity
  8
0
100
AcDbSpline
 62
9
  6
CONTINUOUS
 70
0
 71
3
 72
14
 73
10
 74
0
 42
0.0000001
 43
0.0000001
 44
0.0000000001
 40
0.0
 40
0.0
 40
0.0
 40
0.0
 40
0.0440482877
 40
0.101276022
 40
0.1817442851
 40
0.2890574411
 40
0.4244457026
 40
0.5882813863
 40
1.0
 40
1.0
 40
1.0
 40
1.0
 10
1200.5603543735
 20
420.3653962243
 30
0.0
 10
1200.5291158533
 20
420.3653671512
 30
0.0
 10
1200.4569065254
 20
420.3354868394
 30
0.0
 10
1200.3841070168
 20
420.2246832471
 30
0.0
 10
1200.3256954855
 20
420.0608267307
 30
0.0
 10
1200.2800336802
 20
419.8355087742
 30
0.0
 10
1200.2459894778
 20
419.5491339075
 30
0.0
 10
1200.2140006444
 20
419.0457432543
 30
0.0
 10
1200.2115760772
 20
418.6372973615
 30
0.0
 10
1200.2141211727
 20
418.3453223982
 30
0.0
  0
SPLINE
  5
685
100
AcDbEntity
  8
0
100
AcDbSpline
 62
9
  6
CONTINUOUS
 70
0
 71
3
 72
31
 73
27
 74
0
 42
0.0000001
 43
0.0000001
 44
0.0000000001
 40
0.0
 40
0.0
 40
0.0
 40
0.0
 40
0.000479272
 40
0.0018788904
 40
0.0041192575
 40
0.0071200107
 40
0.0150444359
 40
0.0249113118
 40
0.0361498621
 40
0.0483979637
 40
0.0749193845
 40
0.1032382433
 40
0.1327335719
 40
0.1630547149
 40
0.1939923508
 40
0.2254142284
 40
0.2572249998
 40
0.3217716226
 40
0.3872846385
 40
0.4535534947
 40
0.5204400337
 40
0.5878474339
 40
0.6557044198
 40
0.7239545132
 40
0.8614368915
 40
1.0
 40
1.0
 40
1.0
 40
1.0
 10
50.3507069549
 20
358.4433815445
 30
0.0
 10
50.3471732581
 20
358.4327892408
 30
0.0
 10
50.3847472518
 20
358.522424067
 30
0.0
 10
50.4061392018
 20
358.5631469605
 30
0.0
 10
50.480283129
 20
358.7290929459
 30
0.0
 10
50.6027589703
 20
358.9937924477
 30
0.0
 10
50.8104410143
 20
359.442682597
 30
0.0
 10
51.0979700598
 20
360.0501500674
 30
0.0
 10
51.436435629
 20
360.7512101662
 30
0.0
 10
51.9520880418
 20
361.7954038523
 30
0.0
 10
52.6645399574
 20
363.1870761717
 30
0.0
 10
53.5938383406
 20
364.9183220829
 30
0.0
 10
54.6004035777
 20
366.7082761198
 30
0.0
 10
55.6726138253
 20
368.5308093211
 30
0.0
 10
56.8031399153
 20
370.3706568467
 30
0.0
 10
57.9868457038
 20
372.2181056773
 30
0.0
 10
59.6391708751
 20
374.6946722512
 30
0.0
 10
61.8178263074
 20
377.7740880877
 30
0.0
 10
64.5899600625
 20
381.4135830941
 30
0.0
 10
67.5198734659
 20
384.9980051224
 30
0.0
 10
70.5978105256
 20
388.5149804863
 30
0.0
 10
73.8159089374
 20
391.9549881926
 30
0.0
 10
77.1674922827
 20
395.3101737524
 30
0.0
 10
81.8171060421
 20
399.6717228684
 30
0.0
 10
87.9311357784
 20
404.8731912022
 30
0.0
 10
93.0901269992
 20
408.721835862
 30
0.0
 10
95.7376342979
 20
410.5691250997
 30
0.0
  0
SPLINE
  5
686
100
AcDbEntity
  8
0
100
AcDbSpline
 62
9
  6
CONTINUOUS
 70
0
 71
3
 72
9
 73
5
 74
0
 42
0.0000001
 43
0.0000001
 44
0.0000000001
 40
0.0
 40
0.0
 40
0.0
 40
0.0
 40
0.5023808888
 40
1.0
 40
1.0
 40
1.0
 40
1.0
 10
117.6251472075
 20
67.0637911914
 30
0.0
 10
117.2876132079
 20
66.1139068051
 30
0.0
 10
116.8012944747
 20
64.1509014914
 30
0.0
 10
116.7291682475
 20
62.1299665943
 30
0.0
 10
116.7922981483
 20
61.1334469824
 30
0.0
  0
SPLINE
  5
687
100
AcDbEntity
  8
0
100
AcDbSpline
 62
9
  6
CONTINUOUS
 70
0
 71
3
 72
29
 73
25
 74
0
 42
0.0000001
 43
0.0000001
 44
0.0000000001
 40
0.0
 40
0.0
 40
0.0
 40
0.0
 40
0.0306401967
 40
0.0610928747
 40
0.0916832282
 40
0.1225255967
 40
0.1536061428
 40
0.1848678625
 40
0.2476815862
 40
0.3107022203
 40
0.373787519
 40
0.4368908464
 40
0.4999991808
 40
0.5631079298
 40
0.6262120774
 40
0.6892977393
 40
0.7523184653
 40
0.8151321756
 40
0.8463938909
 40
0.8774744246
 40
0.9083167653
 40
0.9389071097
 40
0.969359772
 40
1.0
 40
1.0
 40
1.0
 40
1.0
 10
116.7922981483
 20
61.1334469824
 30
0.0
 10
116.8972297071
 20
59.4820505537
 30
0.0
 10
117.660689121
 20
56.2089308434
 30
0.0
 10
120.0627759687
 20
51.831353812
 30
0.0
 10
123.2964407345
 20
48.0331670079
 30
0.0
 10
127.0886852797
 20
44.758328335
 30
0.0
 10
131.263809718
 20
41.932461556
 30
0.0
 10
137.1960384353
 20
38.6778202228
 30
0.0
 10
145.0738468529
 20
35.4562528908
 30
0.0
 10
154.9003538207
 20
32.6572104808
 30
0.0
 10
164.951824492
 20
30.751742493
 30
0.0
 10
175.1240463647
 20
29.6427657994
 30
0.0
 10
185.3505625305
 20
29.2784318915
 30
0.0
 10
195.5771255425
 20
29.6427230706
 30
0.0
 10
205.7494335418
 20
30.7517138906
 30
0.0
 10
215.8009710865
 20
32.6571974059
 30
0.0
 10
225.6275017505
 20
35.4562437873
 30
0.0
 10
233.5053136793
 20
38.6778136963
 30
0.0
 10
239.4375397619
 20
41.9324562028
 30
0.0
 10
243.6126617029
 20
44.7583229736
 30
0.0
 10
247.4049009279
 20
48.0331621596
 30
0.0
 10
250.6385651736
 20
51.8313505007
 30
0.0
 10
253.0406264834
 20
56.2089306678
 30
0.0
 10
253.8041436999
 20
59.4820466049
 30
0.0
 10
253.9090397764
 20
61.1334469824
 30
0.0
  0
SPLINE
  5
688
100
AcDbEntity
  8
0
100
AcDbSpline
 62
9
  6
CONTINUOUS
 70
0
 71
3
 72
9
 73
5
 74
0
 42
0.0000001
 43
0.0000001
 44
0.0000000001
 40
0.0
 40
0.0
 40
0.0
 40
0.0
 40
0.4976188917
 40
1.0
 40
1.0
 40
1.0
 40
1.0
 10
253.9090397764
 20
61.1334469824
 30
0.0
 10
253.9721950894
 20
62.1299641615
 30
0.0
 10
253.900002035
 20
64.150896484
 30
0.0
 10
253.4137376175
 20
66.1139113292
 30
0.0
 10
253.0761907172
 20
67.0637911914
 30
0.0
  0
SPLINE
  5
689
100
AcDbEntity
  8
0
100
AcDbSpline
 62
9
  6
CONTINUOUS
 70
0
 71
3
 72
27
 73
23
 74
0
 42
0.0000001
 43
0.0000001
 44
0.0000000001
 40
0.0
 40
0.0
 40
0.0
 40
0.0
 40
0.0312119858
 40
0.0624457117
 40
0.0936931999
 40
0.1249481894
 40
0.1874198503
 40
0.2499201207
 40
0.3124328428
 40
0.3749515143
 40
0.4374734971
 40
0.4999975957
 40
0.5625220276
 40
0.6250448448
 40
0.6875642529
 40
0.750077181
 40
0.8125775015
 40
0.8750494785
 40
0.9063047545
 40
0.9375526726
 40
0.9687871914
 40
1.0
 40
1.0
 40
1.0
 40
1.0
 10
253.0761899117
 20
67.063793069
 30
0.0
 10
252.5029071468
 20
68.5498441308
 30
0.0
 10
250.9989844734
 20
71.3931495112
 30
0.0
 10
247.9813179464
 20
75.1287516999
 30
0.0
 10
244.4417312043
 20
78.3679503433
 30
0.0
 10
239.2529885201
 20
82.0948519974
 30
0.0
 10
232.1585377685
 20
85.8127513647
 30
0.0
 10
223.1675820677
 20
89.1337325669
 30
0.0
 10
213.893729922
 20
91.5491474153
 30
0.0
 10
204.4560551382
 20
93.1957206804
 30
0.0
 10
194.9248096264
 20
94.1552037533
 30
0.0
 10
185.3510197402
 20
94.4704906959
 30
0.0
 10
175.7771869166
 20
94.155237046
 30
0.0
 10
166.2458375952
 20
93.1958133999
 30
0.0
 10
156.8080667004
 20
91.5492586149
 30
0.0
 10
147.5341575242
 20
89.1338618377
 30
0.0
 10
138.5431608812
 20
85.8129105231
 30
0.0
 10
131.4486529335
 20
82.0950480188
 30
0.0
 10
126.2598473381
 20
78.3681432077
 30
0.0
 10
122.7201796894
 20
75.1289197665
 30
0.0
 10
119.7024162973
 20
71.3932592684
 30
0.0
 10
118.1984502224
 20
68.5498818146
 30
0.0
 10
117.6251480829
 20
67.0637932197
 30
0.0
  0
SPLINE
  5
68A
100
AcDbEntity
  8
0
100
AcDbSpline
 62
9
  6
CONTINUOUS
 70
0
 71
3
 72
11
 73
7
 74
0
 42
0.0000001
 43
0.0000001
 44
0.0000000001
 40
0.0
 40
0.0
 40
0.0
 40
0.0
 40
0.2500047083
 40
0.5000083304
 40
0.7500077661
 40
1.0
 40
1.0
 40
1.0
 40
1.0
 10
-733.4036396395
 20
256.563354871
 30
0.0
 10
-733.4152399078
 20
256.2052349448
 30
0.0
 10
-733.3628650963
 20
255.4843225933
 30
0.0
 10
-733.0614409431
 20
254.4445906983
 30
0.0
 10
-732.5499285079
 20
253.490460089
 30
0.0
 10
-732.0819714748
 20
252.9393448882
 30
0.0
 10
-731.8222377564
 20
252.6925453102
 30
0.0
  0
LINE
  5
68B
100
AcDbEntity
  8
0
100
AcDbLine
 62
9
  6
CONTINUOUS
 10
-737.8990187396
 20
266.115880563
 11
-737.8990187396
 21
250.3653962243
  0
LINE
  5
68C
100
AcDbEntity
  8
0
100
AcDbLine
 62
9
  6
CONTINUOUS
 10
-737.8990187396
 20
110.3653962235
 11
-737.8990187395
 21
94.6149118852
  0
SPLINE
  5
68D
100
AcDbEntity
  8
0
100
AcDbSpline
 62
9
  6
CONTINUOUS
 70
0
 71
3
 72
17
 73
13
 74
0
 42
0.0000001
 43
0.0000001
 44
0.0000000001
 40
0.0
 40
0.0
 40
0.0
 40
0.0
 40
0.0310016494
 40
0.0572432913
 40
0.0916106178
 40
0.1341244559
 40
0.184564568
 40
0.2425531017
 40
0.3076036255
 40
0.4565145226
 40
0.6258725101
 40
1.0
 40
1.0
 40
1.0
 40
1.0
 10
-668.3990187362
 20
188.3653962243
 30
0.0
 10
-668.399028003
 20
188.3230838173
 30
0.0
 10
-668.4711379234
 20
188.2606718438
 30
0.0
 10
-668.5793032048
 20
188.2090093153
 30
0.0
 10
-668.7137100539
 20
188.1607619453
 30
0.0
 10
-668.880940582
 20
188.1156291025
 30
0.0
 10
-669.0825427497
 20
188.0718338403
 30
0.0
 10
-669.3156948299
 20
188.0307416611
 30
0.0
 10
-669.6830874245
 20
187.9774222761
 30
0.0
 10
-670.2035037277
 20
187.9221535661
 30
0.0
 10
-671.1463257777
 20
187.8561455994
 30
0.0
 10
-671.8883931642
 20
187.8379184713
 30
0.0
 10
-672.3990187362
 20
187.8379236968
 30
0.0
  0
SPLINE
  5
68E
100
AcDbEntity
  8
0
100
AcDbSpline
 62
9
  6
CONTINUOUS
 70
0
 71
3
 72
11
 73
7
 74
0
 42
0.0000001
 43
0.0000001
 44
0.0000000001
 40
0.0
 40
0.0
 40
0.0
 40
0.0
 40
0.2498447431
 40
0.4986303534
 40
0.7481823148
 40
1.0
 40
1.0
 40
1.0
 40
1.0
 10
-737.3968401731
 20
91.4924128781
 30
0.0
 10
-737.3209999086
 20
91.2063601345
 30
0.0
 10
-737.1329679366
 20
90.6441062102
 30
0.0
 10
-736.7201524036
 20
89.8546554937
 30
0.0
 10
-736.1549636237
 20
89.1599291897
 30
0.0
 10
-735.6655928048
 20
88.805587538
 30
0.0
 10
-735.3990187362
 20
88.6717787446
 30
0.0
  0
SPLINE
  5
68F
100
AcDbEntity
  8
0
100
AcDbSpline
 62
9
  6
CONTINUOUS
 70
0
 71
3
 72
11
 73
7
 74
0
 42
0.0000001
 43
0.0000001
 44
0.0000000001
 40
0.0
 40
0.0
 40
0.0
 40
0.0
 40
0.2518297471
 40
0.5014044018
 40
0.7501893398
 40
1.0
 40
1.0
 40
1.0
 40
1.0
 10
-735.3990187362
 20
272.0590134643
 30
0.0
 10
-735.665133521
 20
271.9245045586
 30
0.0
 10
-736.1534264787
 20
271.5691463359
 30
0.0
 10
-736.7179686551
 20
270.8744276828
 30
0.0
 10
-737.1313793241
 20
270.0857430145
 30
0.0
 10
-737.320404402
 20
269.5241195539
 30
0.0
 10
-737.396840026
 20
269.2383795705
 30
0.0
  0
SPLINE
  5
690
100
AcDbEntity
  8
0
100
AcDbSpline
 62
9
  6
CONTINUOUS
 70
0
 71
3
 72
26
 73
22
 74
0
 42
0.0000001
 43
0.0000001
 44
0.0000000001
 40
0.0
 40
0.0
 40
0.0
 40
0.0
 40
0.2158186368
 40
0.4124940168
 40
0.5857231353
 40
0.6623897961
 40
0.7318971924
 40
0.7939078478
 40
0.8481319189
 40
0.8943283627
 40
0.9323060897
 40
0.9481671377
 40
0.9619249371
 40
0.9735700186
 40
0.9830961566
 40
0.9905003691
 40
0.9957829041
 40
0.9976294971
 40
0.998947234
 40
0.9997370134
 40
1.0
 40
1.0
 40
1.0
 40
1.0
 10
-737.6588856694
 20
268.1519661524
 30
0.0
 10
-737.6702706767
 20
268.0048654588
 30
0.0
 10
-737.6943421521
 20
267.7238858149
 30
0.0
 10
-737.7344761549
 20
267.3254707988
 30
0.0
 10
-737.7691791094
 20
267.0221491025
 30
0.0
 10
-737.7961786313
 20
266.8054691424
 30
0.0
 10
-737.8146844991
 20
266.6643545601
 30
0.0
 10
-737.8320072563
 20
266.5385615073
 30
0.0
 10
-737.8478779063
 20
266.4286573831
 30
0.0
 10
-737.8620344235
 20
266.3351083878
 30
0.0
 10
-737.8727417932
 20
266.2675633792
 30
0.0
 10
-737.8802490568
 20
266.2219666311
 30
0.0
 10
-737.8849375032
 20
266.1941479363
 30
0.0
 10
-737.8890079798
 20
266.1706234206
 30
0.0
 10
-737.8923969766
 20
266.1513716431
 30
0.0
 10
-737.8951492074
 20
266.1364702665
 30
0.0
 10
-737.8968807544
 20
266.1266191637
 30
0.0
 10
-737.8980727293
 20
266.1210575949
 30
0.0
 10
-737.8983960546
 20
266.118220157
 30
0.0
 10
-737.8990366359
 20
266.1169522388
 30
0.0
 10
-737.8988337533
 20
266.1159122311
 30
0.0
 10
-737.899009191
 20
266.115872929
 30
0.0
  0
SPLINE
  5
691
100
AcDbEntity
  8
0
100
AcDbSpline
 62
9
  6
CONTINUOUS
 70
0
 71
3
 72
9
 73
5
 74
0
 42
0.0000001
 43
0.0000001
 44
0.0000000001
 40
0.0
 40
0.0
 40
0.0
 40
0.0
 40
0.2545525327
 40
1.0
 40
1.0
 40
1.0
 40
1.0
 10
-737.3968400193
 20
269.2383795863
 30
0.0
 10
-737.4354035172
 20
269.1514466448
 30
0.0
 10
-737.5691565617
 20
268.8020783919
 30
0.0
 10
-737.6373953787
 20
268.4296397692
 30
0.0
 10
-737.6588856694
 20
268.1519661524
 30
0.0
  0
SPLINE
  5
692
100
AcDbEntity
  8
0
100
AcDbSpline
 62
9
  6
CONTINUOUS
 70
0
 71
3
 72
26
 73
22
 74
0
 42
0.0000001
 43
0.0000001
 44
0.0000000001
 40
0.0
 40
0.0
 40
0.0
 40
0.0
 40
0.000262404
 40
0.0010504725
 40
0.0023654235
 40
0.0042082119
 40
0.0094803035
 40
0.0168706783
 40
0.0263800533
 40
0.0380059254
 40
0.0517425554
 40
0.0675809664
 40
0.1055109983
 40
0.151659851
 40
0.20584038
 40
0.2678153494
 40
0.3372984683
 40
0.4139554087
 40
0.5872180932
 40
0.7840043199
 40
1.0
 40
1.0
 40
1.0
 40
1.0
 10
-737.899009192
 20
94.6149195187
 30
0.0
 10
-737.8988332797
 20
94.6148843314
 30
0.0
 10
-737.8990322419
 20
94.6138378357
 30
0.0
 10
-737.8983854772
 20
94.6125831407
 30
0.0
 10
-737.8980504895
 20
94.6097487628
 30
0.0
 10
-737.8968352817
 20
94.60420619
 30
0.0
 10
-737.8950649112
 20
94.5943791987
 30
0.0
 10
-737.8922567663
 20
94.5795169022
 30
0.0
 10
-737.8887996023
 20
94.5603104871
 30
0.0
 10
-737.8846505037
 20
94.5368382735
 30
0.0
 10
-737.8798745862
 20
94.5090766717
 30
0.0
 10
-737.8722323572
 20
94.4635634138
 30
0.0
 10
-737.861345715
 20
94.3961251243
 30
0.0
 10
-737.846977117
 20
94.3026995576
 30
0.0
 10
-737.8308996686
 20
94.1929073189
 30
0.0
 10
-737.8133899575
 20
94.0672049779
 30
0.0
 10
-737.7947324124
 20
93.9261509966
 30
0.0
 10
-737.7675907997
 20
93.7094777413
 30
0.0
 10
-737.7329079498
 20
93.4060438784
 30
0.0
 10
-737.6932249207
 20
93.0073403567
 30
0.0
 10
-737.669820441
 20
92.7260899548
 30
0.0
 10
-737.6588857778
 20
92.5788262285
 30
0.0
  0
SPLINE
  5
693
100
AcDbEntity
  8
0
100
AcDbSpline
 62
9
  6
CONTINUOUS
 70
0
 71
3
 72
9
 73
5
 74
0
 42
0.0000001
 43
0.0000001
 44
0.0000000001
 40
0.0
 40
0.0
 40
0.0
 40
0.0
 40
0.2457070416
 40
1.0
 40
1.0
 40
1.0
 40
1.0
 10
-737.6588857778
 20
92.5788262285
 30
0.0
 10
-737.6520908762
 20
92.4873129076
 30
0.0
 10
-737.6108816229
 20
92.1161537612
 30
0.0
 10
-737.5102155659
 20
91.7503003274
 30
0.0
 10
-737.3968401637
 20
91.4924128557
 30
0.0
  0
SPLINE
  5
694
100
AcDbEntity
  8
0
100
AcDbSpline
 62
9
  6
CONTINUOUS
 70
0
 71
3
 72
17
 73
13
 74
0
 42
0.0000001
 43
0.0000001
 44
0.0000000001
 40
0.0
 40
0.0
 40
0.0
 40
0.0
 40
0.1196168409
 40
0.2395081303
 40
0.3599957248
 40
0.4815289086
 40
0.6048071179
 40
0.7310216175
 40
0.795965457
 40
0.8624655729
 40
0.9306353425
 40
1.0
 40
1.0
 40
1.0
 40
1.0
 10
-668.3990187362
 20
267.3653962243
 30
0.0
 10
-668.3990300335
 20
267.6195867515
 30
0.0
 10
-668.4222478674
 20
268.1288635365
 30
0.0
 10
-668.5283765978
 20
268.8876083012
 30
0.0
 10
-668.7109447739
 20
269.6361637914
 30
0.0
 10
-668.9799379178
 20
270.3665079047
 30
0.0
 10
-669.3522152973
 20
271.0646456297
 30
0.0
 10
-669.7700750569
 20
271.593512583
 30
0.0
 10
-670.185991434
 20
271.9522627196
 30
0.0
 10
-670.5489446736
 20
272.1761396926
 30
0.0
 10
-670.9581701336
 20
272.3287470303
 30
0.0
 10
-671.2516160903
 20
272.3654037539
 30
0.0
 10
-671.3990187362
 20
272.3653962243
 30
0.0
  0
SPLINE
  5
695
100
AcDbEntity
  8
0
100
AcDbSpline
 62
9
  6
CONTINUOUS
 70
0
 71
3
 72
13
 73
9
 74
0
 42
0.0000001
 43
0.0000001
 44
0.0000000001
 40
0.0
 40
0.0
 40
0.0
 40
0.0
 40
0.1325627091
 40
0.2266627794
 40
0.3419355428
 40
0.4782948564
 40
0.634644537
 40
1.0
 40
1.0
 40
1.0
 40
1.0
 10
-736.3990187362
 20
267.3653962243
 30
0.0
 10
-736.3990187362
 20
267.4332234925
 30
0.0
 10
-736.4665410556
 20
267.5430160188
 30
0.0
 10
-736.5949467142
 20
267.6584893814
 30
0.0
 10
-736.7415718359
 20
267.7596336004
 30
0.0
 10
-736.9241651023
 20
267.8607018349
 30
0.0
 10
-737.2297469267
 20
268.0028228484
 30
0.0
 10
-737.4811015715
 20
268.0941839209
 30
0.0
 10
-737.6588856694
 20
268.1519661524
 30
0.0
  0
LINE
  5
696
100
AcDbEntity
  8
0
100
AcDbLine
 62
9
  6
CONTINUOUS
 10
-702.10169361
 20
223.2441664839
 11
-701.7990956746
 21
222.9810973088
  0
LINE
  5
697
100
AcDbEntity
  8
0
100
AcDbLine
 62
9
  6
CONTINUOUS
 10
-701.7990956746
 20
137.7496951279
 11
-702.10169361
 21
137.4866259647
  0
SPLINE
  5
698
100
AcDbEntity
  8
0
100
AcDbSpline
 62
9
  6
CONTINUOUS
 70
0
 71
3
 72
17
 73
13
 74
0
 42
0.0000001
 43
0.0000001
 44
0.0000000001
 40
0.0
 40
0.0
 40
0.0
 40
0.0
 40
0.069366526
 40
0.1375361153
 40
0.2040343917
 40
0.2689775419
 40
0.3951913977
 40
0.5184692822
 40
0.6400027041
 40
0.7604906685
 40
0.88038269
 40
1.0
 40
1.0
 40
1.0
 40
1.0
 10
-671.3990187362
 20
88.3653962243
 30
0.0
 10
-671.2516121259
 20
88.365388694
 30
0.0
 10
-670.9581625278
 20
88.4020468831
 30
0.0
 10
-670.548938231
 20
88.554656297
 30
0.0
 10
-670.1859908411
 20
88.7785313901
 30
0.0
 10
-669.770078849
 20
89.1372761446
 30
0.0
 10
-669.3522204476
 20
89.6661396275
 30
0.0
 10
-668.9799421822
 20
90.3642751171
 30
0.0
 10
-668.7109487769
 20
91.0946197186
 30
0.0
 10
-668.5283772774
 20
91.8431772709
 30
0.0
 10
-668.4222481123
 20
92.601925438
 30
0.0
 10
-668.3990306703
 20
93.1112047113
 30
0.0
 10
-668.3990187362
 20
93.3653962243
 30
0.0
  0
SPLINE
  5
699
100
AcDbEntity
  8
0
100
AcDbSpline
 62
9
  6
CONTINUOUS
 70
0
 71
3
 72
15
 73
11
 74
0
 42
0.0000001
 43
0.0000001
 44
0.0000000001
 40
0.0
 40
0.0
 40
0.0
 40
0.0
 40
0.1235858319
 40
0.2473764065
 40
0.3715641129
 40
0.4962744733
 40
0.62155484
 40
0.7473615942
 40
0.8735716456
 40
1.0
 40
1.0
 40
1.0
 40
1.0
 10
-668.3990187362
 20
135.7195677517
 30
0.0
 10
-668.399017834
 20
135.9753297468
 30
0.0
 10
-668.4505674433
 20
136.488749881
 30
0.0
 10
-668.6795395045
 20
137.2279420048
 30
0.0
 10
-669.0513821482
 20
137.9095350704
 30
0.0
 10
-669.551885907
 20
138.5069741388
 30
0.0
 10
-670.1618335317
 20
138.9974291256
 30
0.0
 10
-670.857961056
 20
139.3619561856
 30
0.0
 10
-671.6131393483
 20
139.5864827269
 30
0.0
 10
-672.137374115
 20
139.6370153225
 30
0.0
 10
-672.3990187362
 20
139.6370152055
 30
0.0
  0
SPLINE
  5
69A
100
AcDbEntity
  8
0
100
AcDbSpline
 62
9
  6
CONTINUOUS
 70
0
 71
3
 72
17
 73
13
 74
0
 42
0.0000001
 43
0.0000001
 44
0.0000000001
 40
0.0
 40
0.0
 40
0.0
 40
0.0
 40
0.3741274899
 40
0.5434854774
 40
0.6923963745
 40
0.7574468983
 40
0.815435432
 40
0.8658755442
 40
0.9083893822
 40
0.9427567087
 40
0.9689983507
 40
1.0
 40
1.0
 40
1.0
 40
1.0
 10
-672.3990187362
 20
172.8928687517
 30
0.0
 10
-671.8883931642
 20
172.8928739773
 30
0.0
 10
-671.1463257777
 20
172.874646849
 30
0.0
 10
-670.2035037277
 20
172.8086388825
 30
0.0
 10
-669.6830874246
 20
172.7533701723
 30
0.0
 10
-669.3156948299
 20
172.7000507876
 30
0.0
 10
-669.0825427496
 20
172.6589586083
 30
0.0
 10
-668.8809405821
 20
172.6151633457
 30
0.0
 10
-668.7137100539
 20
172.5700305035
 30
0.0
 10
-668.5793032045
 20
172.5217831338
 30
0.0
 10
-668.4711379238
 20
172.4701206039
 30
0.0
 10
-668.3990280034
 20
172.407708631
 30
0.0
 10
-668.3990187362
 20
172.3653962243
 30
0.0
  0
SPLINE
  5
69B
100
AcDbEntity
  8
0
100
AcDbSpline
 62
9
  6
CONTINUOUS
 70
0
 71
3
 72
15
 73
11
 74
0
 42
0.0000001
 43
0.0000001
 44
0.0000000001
 40
0.0
 40
0.0
 40
0.0
 40
0.0
 40
0.1264284987
 40
0.2526386568
 40
0.378445447
 40
0.5037258607
 40
0.6284362738
 40
0.7526238955
 40
0.8764143201
 40
1.0
 40
1.0
 40
1.0
 40
1.0
 10
-672.3990187362
 20
221.093777243
 30
0.0
 10
-672.1373738152
 20
221.0937771205
 30
0.0
 10
-671.6131385214
 20
221.1443098184
 30
0.0
 10
-670.8579597056
 20
221.3688367387
 30
0.0
 10
-670.1618319709
 20
221.7333642606
 30
0.0
 10
-669.5518843186
 20
222.2238196726
 30
0.0
 10
-669.0513809588
 20
222.8212591874
 30
0.0
 10
-668.6795390466
 20
223.5028520514
 30
0.0
 10
-668.4505665134
 20
224.242043519
 30
0.0
 10
-668.3990196656
 20
224.7554630149
 30
0.0
 10
-668.3990187362
 20
225.0112246968
 30
0.0
  0
SPLINE
  5
69C
100
AcDbEntity
  8
0
100
AcDbSpline
 62
9
  6
CONTINUOUS
 70
0
 71
3
 72
19
 73
15
 74
0
 42
0.0000001
 43
0.0000001
 44
0.0000000001
 40
0.0
 40
0.0
 40
0.0
 40
0.0
 40
0.0091889145
 40
0.0161570263
 40
0.0251457512
 40
0.0495863899
 40
0.0827986511
 40
0.1246579078
 40
0.1748326683
 40
0.2983065553
 40
0.4486739301
 40
0.6202244766
 40
0.8063855634
 40
1.0
 40
1.0
 40
1.0
 40
1.0
 10
-734.5750362528
 20
90.605508038
 30
0.0
 10
-734.5810101009
 20
90.6080535578
 30
0.0
 10
-734.5938664979
 20
90.6042247751
 30
0.0
 10
-734.6075157018
 20
90.5934079104
 30
0.0
 10
-734.6277236458
 20
90.5729079305
 30
0.0
 10
-734.6553030552
 20
90.534655805
 30
0.0
 10
-734.6919104103
 20
90.474553778
 30
0.0
 10
-734.7337470347
 20
90.3965257647
 30
0.0
 10
-734.8009603163
 20
90.2598429571
 30
0.0
 10
-734.8935912419
 20
90.0503563425
 30
0.0
 10
-735.0119846794
 20
89.7586986579
 30
0.0
 10
-735.1391985989
 20
89.4229116313
 30
0.0
 10
-735.270280508
 20
89.0559968265
 30
0.0
 10
-735.3562547426
 20
88.8017465572
 30
0.0
 10
-735.3990187362
 20
88.6717787446
 30
0.0
  0
SPLINE
  5
69D
100
AcDbEntity
  8
0
100
AcDbSpline
 62
9
  6
CONTINUOUS
 70
0
 71
3
 72
15
 73
11
 74
0
 42
0.0000001
 43
0.0000001
 44
0.0000000001
 40
0.0
 40
0.0
 40
0.0
 40
0.0
 40
0.0320784689
 40
0.0574739942
 40
0.0900243171
 40
0.1770538395
 40
0.2928471668
 40
0.4357274718
 40
0.6032469669
 40
1.0
 40
1.0
 40
1.0
 40
1.0
 10
-736.2283699347
 20
92.3680137521
 30
0.0
 10
-736.2231098076
 20
92.3530919471
 30
0.0
 10
-736.2348071682
 20
92.3225129042
 30
0.0
 10
-736.2594587244
 20
92.2870000326
 30
0.0
 10
-736.3069215423
 20
92.2326288077
 30
0.0
 10
-736.3931102883
 20
92.1550040438
 30
0.0
 10
-736.5274531534
 20
92.0496900788
 30
0.0
 10
-736.6989275227
 20
91.928072314
 30
0.0
 10
-736.9899077875
 20
91.7356681852
 30
0.0
 10
-737.2279873836
 20
91.5913179267
 30
0.0
 10
-737.3968401731
 20
91.4924128781
 30
0.0
  0
SPLINE
  5
69E
100
AcDbEntity
  8
0
100
AcDbSpline
 62
9
  6
CONTINUOUS
 70
0
 71
3
 72
13
 73
9
 74
0
 42
0.0000001
 43
0.0000001
 44
0.0000000001
 40
0.0
 40
0.0
 40
0.0
 40
0.0
 40
0.1335070143
 40
0.2277281042
 40
0.3429602198
 40
0.4791619809
 40
0.6352712052
 40
1.0
 40
1.0
 40
1.0
 40
1.0
 10
-736.3990187362
 20
93.3653962243
 30
0.0
 10
-736.3990187362
 20
93.2970355382
 30
0.0
 10
-736.4661100905
 20
93.1863276446
 30
0.0
 10
-736.594836974
 20
93.0700879945
 30
0.0
 10
-736.7414521546
 20
92.9688032328
 30
0.0
 10
-736.9240703955
 20
92.8678908897
 30
0.0
 10
-737.2296503202
 20
92.7264217826
 30
0.0
 10
-737.4810691185
 20
92.6359111536
 30
0.0
 10
-737.6588857778
 20
92.5788262285
 30
0.0
  0
LINE
  5
69F
100
AcDbEntity
  8
0
100
AcDbLine
 62
9
  6
CONTINUOUS
 10
-671.3990187362
 20
272.3653962243
 11
-733.3990187362
 21
272.3654207206
  0
SPLINE
  5
6A0
100
AcDbEntity
  8
0
100
AcDbSpline
 62
9
  6
CONTINUOUS
 70
0
 71
3
 72
13
 73
9
 74
0
 42
0.0000001
 43
0.0000001
 44
0.0000000001
 40
0.0
 40
0.0
 40
0.0
 40
0.0
 40
0.2966487855
 40
0.5661206922
 40
0.6869145523
 40
0.7980339794
 40
0.9012638156
 40
1.0
 40
1.0
 40
1.0
 40
1.0
 10
-733.5413196126
 20
172.6161997213
 30
0.0
 10
-733.5217635813
 20
172.9775720432
 30
0.0
 10
-733.4045729581
 20
173.6656298022
 30
0.0
 10
-733.0496686621
 20
174.4403913738
 30
0.0
 10
-732.6559074909
 20
174.9130010926
 30
0.0
 10
-732.3326624978
 20
175.1690405789
 30
0.0
 10
-731.9811211681
 20
175.3287731283
 30
0.0
 10
-731.7334114561
 20
175.3653962243
 30
0.0
 10
-731.6129567846
 20
175.3653962245
 30
0.0
  0
SPLINE
  5
6A1
100
AcDbEntity
  8
0
100
AcDbSpline
 62
9
  6
CONTINUOUS
 70
0
 71
3
 72
9
 73
5
 74
0
 42
0.0000001
 43
0.0000001
 44
0.0000000001
 40
0.0
 40
0.0
 40
0.0
 40
0.0
 40
0.500072959
 40
1.0
 40
1.0
 40
1.0
 40
1.0
 10
-733.3990187362
 20
272.3654207206
 30
0.0
 10
-733.7373747978
 20
272.365420594
 30
0.0
 10
-734.4150751593
 20
272.3195133616
 30
0.0
 10
-735.0779252143
 20
272.1653947245
 30
0.0
 10
-735.3990187362
 20
272.0590134643
 30
0.0
  0
SPLINE
  5
6A2
100
AcDbEntity
  8
0
100
AcDbSpline
 62
9
  6
CONTINUOUS
 70
0
 71
3
 72
15
 73
11
 74
0
 42
0.0000001
 43
0.0000001
 44
0.0000000001
 40
0.0
 40
0.0
 40
0.0
 40
0.0
 40
0.0314452609
 40
0.0566793922
 40
0.0891336618
 40
0.1761052156
 40
0.2919615575
 40
0.43499023
 40
0.6027193643
 40
1.0
 40
1.0
 40
1.0
 40
1.0
 10
-736.2283699075
 20
268.3627787735
 30
0.0
 10
-736.2232174705
 20
268.3773950847
 30
0.0
 10
-736.2353994983
 20
268.4074391475
 30
0.0
 10
-736.260037912
 20
268.4422863717
 30
0.0
 10
-736.3077517477
 20
268.496203914
 30
0.0
 10
-736.3940430945
 20
268.5734465136
 30
0.0
 10
-736.5284320282
 20
268.6786362392
 30
0.0
 10
-736.6998312111
 20
268.8004290597
 30
0.0
 10
-736.9905667771
 20
268.9935204017
 30
0.0
 10
-737.2282792024
 20
269.1387543379
 30
0.0
 10
-737.396840026
 20
269.2383795705
 30
0.0
  0
SPLINE
  5
6A3
100
AcDbEntity
  8
0
100
AcDbSpline
 62
9
  6
CONTINUOUS
 70
0
 71
3
 72
13
 73
9
 74
0
 42
0.0000001
 43
0.0000001
 44
0.0000000001
 40
0.0
 40
0.0
 40
0.0
 40
0.0
 40
0.2907347026
 40
0.5612889992
 40
0.6844884193
 40
0.7982183271
 40
0.9028324914
 40
1.0
 40
1.0
 40
1.0
 40
1.0
 10
-737.8990187364
 20
172.3653962243
 30
0.0
 10
-737.8990187364
 20
172.7061609139
 30
0.0
 10
-737.8298227717
 20
173.3659891628
 30
0.0
 10
-737.5673728374
 20
174.1340523188
 30
0.0
 10
-737.2576320578
 20
174.6444035499
 30
0.0
 10
-736.9948835974
 20
174.9493551278
 30
0.0
 10
-736.70163829
 20
175.1789210007
 30
0.0
 10
-736.484166266
 20
175.2790662782
 30
0.0
 10
-736.3752341786
 20
175.312297672
 30
0.0
  0
SPLINE
  5
6A4
100
AcDbEntity
  8
0
100
AcDbSpline
 62
9
  6
CONTINUOUS
 70
0
 71
3
 72
9
 73
5
 74
0
 42
0.0000001
 43
0.0000001
 44
0.0000000001
 40
0.0
 40
0.0
 40
0.0
 40
0.0
 40
0.2529322867
 40
1.0
 40
1.0
 40
1.0
 40
1.0
 10
-736.3496090471
 20
175.3198194896
 30
0.0
 10
-736.3228840826
 20
175.3273566281
 30
0.0
 10
-736.2162705974
 20
175.3536495322
 30
0.0
 10
-736.1060334837
 20
175.3653962243
 30
0.0
 10
-736.0240187364
 20
175.3653962243
 30
0.0
  0
SPLINE
  5
6A5
100
AcDbEntity
  8
0
100
AcDbSpline
 62
9
  6
CONTINUOUS
 70
0
 71
3
 72
19
 73
15
 74
0
 42
0.0000001
 43
0.0000001
 44
0.0000000001
 40
0.0
 40
0.0
 40
0.0
 40
0.0
 40
0.0090305996
 40
0.0159561434
 40
0.0249171024
 40
0.0493289352
 40
0.0825321479
 40
0.1243939994
 40
0.1745789897
 40
0.2980882706
 40
0.4485028555
 40
0.6201073757
 40
0.8063261773
 40
1.0
 40
1.0
 40
1.0
 40
1.0
 10
-734.5750363037
 20
270.1252843889
 30
0.0
 10
-734.5809051584
 20
270.1227836077
 30
0.0
 10
-734.5935866919
 20
270.1267912548
 30
0.0
 10
-734.6069653523
 20
270.1376333976
 30
0.0
 10
-734.6269566191
 20
270.1582470296
 30
0.0
 10
-734.6542826476
 20
270.1965833509
 30
0.0
 10
-734.690662695
 20
270.2567692785
 30
0.0
 10
-734.7323149222
 20
270.3348596331
 30
0.0
 10
-734.7993415989
 20
270.4716121149
 30
0.0
 10
-734.8918954309
 20
270.6811114987
 30
0.0
 10
-735.0104045935
 20
270.9727054896
 30
0.0
 10
-735.1379428817
 20
271.3083524578
 30
0.0
 10
-735.2695483169
 20
271.6750613266
 30
0.0
 10
-735.3559899673
 20
271.9291397056
 30
0.0
 10
-735.3990187362
 20
272.0590134643
 30
0.0
  0
SPLINE
  5
6A6
100
AcDbEntity
  8
0
100
AcDbSpline
 62
9
  6
CONTINUOUS
 70
0
 71
3
 72
13
 73
9
 74
0
 42
0.0000001
 43
0.0000001
 44
0.0000000001
 40
0.0
 40
0.0
 40
0.0
 40
0.0
 40
0.2907347026
 40
0.5612889991
 40
0.6844884193
 40
0.7982183271
 40
0.9028324914
 40
1.0
 40
1.0
 40
1.0
 40
1.0
 10
-737.8990187359
 20
188.3653962243
 30
0.0
 10
-737.8990187359
 20
188.0246315348
 30
0.0
 10
-737.8298227719
 20
187.3648032859
 30
0.0
 10
-737.5673728375
 20
186.5967401299
 30
0.0
 10
-737.257632058
 20
186.0863888988
 30
0.0
 10
-736.9948835976
 20
185.781437321
 30
0.0
 10
-736.7016382902
 20
185.551871448
 30
0.0
 10
-736.4841662662
 20
185.4517261705
 30
0.0
 10
-736.3752341789
 20
185.4184947766
 30
0.0
  0
SPLINE
  5
6A7
100
AcDbEntity
  8
0
100
AcDbSpline
 62
9
  6
CONTINUOUS
 70
0
 71
3
 72
9
 73
5
 74
0
 42
0.0000001
 43
0.0000001
 44
0.0000000001
 40
0.0
 40
0.0
 40
0.0
 40
0.0
 40
0.2529322865
 40
1.0
 40
1.0
 40
1.0
 40
1.0
 10
-736.3496090392
 20
185.4109729567
 30
0.0
 10
-736.3228840752
 20
185.4034358186
 30
0.0
 10
-736.2162705925
 20
185.3771429158
 30
0.0
 10
-736.1060334815
 20
185.3653962243
 30
0.0
 10
-736.0240187362
 20
185.3653962243
 30
0.0
  0
SPLINE
  5
6A8
100
AcDbEntity
  8
0
100
AcDbSpline
 62
9
  6
CONTINUOUS
 70
0
 71
3
 72
9
 73
5
 74
0
 42
0.0000001
 43
0.0000001
 44
0.0000000001
 40
0.0
 40
0.0
 40
0.0
 40
0.0
 40
0.5003743843
 40
1.0
 40
1.0
 40
1.0
 40
1.0
 10
-671.3501581037
 20
225.5504615963
 30
0.0
 10
-671.3640926412
 20
225.5867690751
 30
0.0
 10
-671.3889862498
 20
225.6606523882
 30
0.0
 10
-671.3990187213
 20
225.7385675948
 30
0.0
 10
-671.3990187362
 20
225.7773990429
 30
0.0
  0
SPLINE
  5
6A9
100
AcDbEntity
  8
0
100
AcDbSpline
 62
9
  6
CONTINUOUS
 70
0
 71
3
 72
13
 73
9
 74
0
 42
0.0000001
 43
0.0000001
 44
0.0000000001
 40
0.0
 40
0.0
 40
0.0
 40
0.0
 40
0.2966487467
 40
0.5661206587
 40
0.6869145348
 40
0.7980339789
 40
0.901263824
 40
1.0
 40
1.0
 40
1.0
 40
1.0
 10
-733.5413174581
 20
188.1145930075
 30
0.0
 10
-733.521761462
 20
187.753220902
 30
0.0
 10
-733.4045710144
 20
187.0651635025
 30
0.0
 10
-733.0496672308
 20
186.2904021952
 30
0.0
 10
-732.6559065578
 20
185.8177923881
 30
0.0
 10
-732.3326619224
 20
185.5617526924
 30
0.0
 10
-731.9811209325
 20
185.4020198006
 30
0.0
 10
-731.7334113891
 20
185.3653963879
 30
0.0
 10
-731.6129567846
 20
185.3653962243
 30
0.0
  0
SPLINE
  5
6AA
100
AcDbEntity
  8
0
100
AcDbSpline
 62
9
  6
CONTINUOUS
 70
0
 71
3
 72
13
 73
9
 74
0
 42
0.0000001
 43
0.0000001
 44
0.0000000001
 40
0.0
 40
0.0
 40
0.0
 40
0.0
 40
0.2962097236
 40
0.5645084469
 40
0.6850584478
 40
0.7963874562
 40
0.9002904222
 40
1.0
 40
1.0
 40
1.0
 40
1.0
 10
-701.7990956695
 20
187.9714567744
 30
0.0
 10
-701.7693202057
 20
187.6247766841
 30
0.0
 10
-701.6378542398
 20
186.967839179
 30
0.0
 10
-701.2771145313
 20
186.2335225171
 30
0.0
 10
-700.8878307935
 20
185.7890871842
 30
0.0
 10
-700.570870153
 20
185.5488989652
 30
0.0
 10
-700.228244002
 20
185.3995395179
 30
0.0
 10
-699.9878612987
 20
185.3653962237
 30
0.0
 10
-699.8707328456
 20
185.3653962232
 30
0.0
  0
SPLINE
  5
6AB
100
AcDbEntity
  8
0
100
AcDbSpline
 62
9
  6
CONTINUOUS
 70
0
 71
3
 72
15
 73
11
 74
0
 42
0.0000001
 43
0.0000001
 44
0.0000000001
 40
0.0
 40
0.0
 40
0.0
 40
0.0
 40
0.1249672828
 40
0.2499407843
 40
0.37492496
 40
0.4999450453
 40
0.6249539373
 40
0.7499658132
 40
0.8749938596
 40
1.0
 40
1.0
 40
1.0
 40
1.0
 10
-672.3990187362
 20
223.9687217855
 30
0.0
 10
-672.3065120767
 20
223.9687221785
 30
0.0
 10
-672.1206427073
 20
223.9926510395
 30
0.0
 10
-671.8605352002
 20
224.0973358413
 30
0.0
 10
-671.634389426
 20
224.2630747172
 30
0.0
 10
-671.4543186691
 20
224.47794109
 30
0.0
 10
-671.3312921138
 20
224.7296558357
 30
0.0
 10
-671.2680789782
 20
225.0025317028
 30
0.0
 10
-671.2707650635
 20
225.282735209
 30
0.0
 10
-671.3170208698
 20
225.4640629367
 30
0.0
 10
-671.3501581037
 20
225.5504615963
 30
0.0
  0
SPLINE
  5
6AC
100
AcDbEntity
  8
0
100
AcDbSpline
 62
9
  6
CONTINUOUS
 70
0
 71
3
 72
11
 73
7
 74
0
 42
0.0000001
 43
0.0000001
 44
0.0000000001
 40
0.0
 40
0.0
 40
0.0
 40
0.0
 40
0.2502221255
 40
0.5003438214
 40
0.7502849025
 40
1.0
 40
1.0
 40
1.0
 40
1.0
 10
-696.6567947971
 20
139.6370152055
 30
0.0
 10
-697.1226088774
 20
139.6370150189
 30
0.0
 10
-698.0561165887
 20
139.5545690864
 30
0.0
 10
-699.4110121659
 20
139.1876167248
 30
0.0
 10
-700.6800947583
 20
138.5900790296
 30
0.0
 10
-701.4442339934
 20
138.0499907923
 30
0.0
 10
-701.7990956746
 20
137.7496951279
 30
0.0
  0
SPLINE
  5
6AD
100
AcDbEntity
  8
0
100
AcDbSpline
 62
9
  6
CONTINUOUS
 70
0
 71
3
 72
9
 73
5
 74
0
 42
0.0000001
 43
0.0000001
 44
0.0000000001
 40
0.0
 40
0.0
 40
0.0
 40
0.0
 40
0.4678041939
 40
1.0
 40
1.0
 40
1.0
 40
1.0
 10
-701.7990956746
 20
172.7593356752
 30
0.0
 10
-700.9982466355
 20
172.8060848402
 30
0.0
 10
-699.2843209021
 20
172.8717128635
 30
0.0
 10
-697.5694288828
 20
172.892871655
 30
0.0
 10
-696.6567947971
 20
172.8928687517
 30
0.0
  0
SPLINE
  5
6AE
100
AcDbEntity
  8
0
100
AcDbSpline
 62
9
  6
CONTINUOUS
 70
0
 71
3
 72
11
 73
7
 74
0
 42
0.0000001
 43
0.0000001
 44
0.0000000001
 40
0.0
 40
0.0
 40
0.0
 40
0.0
 40
0.2497151649
 40
0.4996562505
 40
0.7497779282
 40
1.0
 40
1.0
 40
1.0
 40
1.0
 10
-701.7990956746
 20
222.9810973088
 30
0.0
 10
-701.4442315067
 20
222.6808043848
 30
0.0
 10
-700.6800957925
 20
222.1407117018
 30
0.0
 10
-699.411011469
 20
221.543176108
 30
0.0
 10
-698.0561164804
 20
221.1762230212
 30
0.0
 10
-697.12260878
 20
221.0937774724
 30
0.0
 10
-696.6567947971
 20
221.093777243
 30
0.0
  0
SPLINE
  5
6AF
100
AcDbEntity
  8
0
100
AcDbSpline
 62
9
  6
CONTINUOUS
 70
0
 71
3
 72
9
 73
5
 74
0
 42
0.0000001
 43
0.0000001
 44
0.0000000001
 40
0.0
 40
0.0
 40
0.0
 40
0.0
 40
0.5321958061
 40
1.0
 40
1.0
 40
1.0
 40
1.0
 10
-696.6567947971
 20
187.8379236968
 30
0.0
 10
-697.5694288828
 20
187.8379207933
 30
0.0
 10
-699.2843209018
 20
187.85907959
 30
0.0
 10
-700.998246636
 20
187.9247076002
 30
0.0
 10
-701.7990956746
 20
187.9714567734
 30
0.0
  0
SPLINE
  5
6B0
100
AcDbEntity
  8
0
100
AcDbSpline
 62
9
  6
CONTINUOUS
 70
0
 71
3
 72
11
 73
7
 74
0
 42
0.0000001
 43
0.0000001
 44
0.0000000001
 40
0.0
 40
0.0
 40
0.0
 40
0.0
 40
0.2499922568
 40
0.4999916916
 40
0.7499953028
 40
1.0
 40
1.0
 40
1.0
 40
1.0
 10
-731.8222377564
 20
108.0382471383
 30
0.0
 10
-732.0819715049
 20
107.7914475808
 30
0.0
 10
-732.5499290323
 20
107.2403327789
 30
0.0
 10
-733.0614401523
 20
106.2862013043
 30
0.0
 10
-733.3628632418
 20
105.2464697018
 30
0.0
 10
-733.4152412321
 20
104.5255574199
 30
0.0
 10
-733.4036396395
 20
104.1674375775
 30
0.0
  0
SPLINE
  5
6B1
100
AcDbEntity
  8
0
100
AcDbSpline
 62
9
  6
CONTINUOUS
 70
0
 71
3
 72
9
 73
5
 74
0
 42
0.0000001
 43
0.0000001
 44
0.0000000001
 40
0.0
 40
0.0
 40
0.0
 40
0.0
 40
0.4999371973
 40
1.0
 40
1.0
 40
1.0
 40
1.0
 10
-735.3990187362
 20
88.6717787446
 30
0.0
 10
-735.0777143465
 20
88.5660590355
 30
0.0
 10
-734.4150173483
 20
88.4119904828
 30
0.0
 10
-733.7373538745
 20
88.365371854
 30
0.0
 10
-733.3990187362
 20
88.365371724
 30
0.0
  0
LINE
  5
6B2
100
AcDbEntity
  8
0
100
AcDbLine
 62
9
  6
CONTINUOUS
 10
-733.3990187362
 20
88.365371724
 11
-671.3990187362
 21
88.3653962243
  0
SPLINE
  5
6B3
100
AcDbEntity
  8
0
100
AcDbSpline
 62
9
  6
CONTINUOUS
 70
0
 71
3
 72
10
 73
6
 74
0
 42
0.0000001
 43
0.0000001
 44
0.0000000001
 40
0.0
 40
0.0
 40
0.0
 40
0.0
 40
0.2499999497
 40
0.5000000093
 40
1.0
 40
1.0
 40
1.0
 40
1.0
 10
-700.1885339095
 20
135.26526795
 30
0.0
 10
-702.7913719142
 20
132.992290015
 30
0.0
 10
-708.0098743128
 20
128.4610138285
 30
0.0
 10
-718.480877103
 20
119.4378364948
 30
0.0
 10
-726.3604284782
 20
112.7010512069
 30
0.0
 10
-731.6195628881
 20
108.217046279
 30
0.0
  0
SPLINE
  5
6B4
100
AcDbEntity
  8
0
100
AcDbSpline
 62
9
  6
CONTINUOUS
 70
0
 71
3
 72
11
 73
7
 74
0
 42
0.0000001
 43
0.0000001
 44
0.0000000001
 40
0.0
 40
0.0
 40
0.0
 40
0.0
 40
0.249986353
 40
0.4999790986
 40
0.7499828792
 40
1.0
 40
1.0
 40
1.0
 40
1.0
 10
-696.6567947971
 20
136.762070663
 30
0.0
 10
-696.962400484
 20
136.7620707728
 30
0.0
 10
-697.5751952278
 20
136.7035547427
 30
0.0
 10
-698.4600556315
 20
136.4441160559
 30
0.0
 10
-699.2811046588
 20
136.02464752
 30
0.0
 10
-699.768533134
 20
135.6492286613
 30
0.0
 10
-699.9929196513
 20
135.4416991024
 30
0.0
  0
SPLINE
  5
6B5
100
AcDbEntity
  8
0
100
AcDbSpline
 62
9
  6
CONTINUOUS
 70
0
 71
3
 72
18
 73
14
 74
0
 42
0.0000001
 43
0.0000001
 44
0.0000000001
 40
0.0
 40
0.0
 40
0.0
 40
0.0
 40
0.2211891953
 40
0.4185471354
 40
0.5897315298
 40
0.732782403
 40
0.8460628906
 40
0.9283603823
 40
0.957663703
 40
0.9790629538
 40
0.9868557248
 40
0.9927982091
 40
1.0
 40
1.0
 40
1.0
 40
1.0
 10
-733.5413196137
 20
188.1145927271
 30
0.0
 10
-733.7536817235
 20
188.1222675977
 30
0.0
 10
-734.1554759873
 20
188.138232832
 30
0.0
 10
-734.7213795003
 20
188.1658465676
 30
0.0
 10
-735.211996404
 20
188.1954372266
 30
0.0
 10
-735.6215851132
 20
188.2263198989
 30
0.0
 10
-735.9453651223
 20
188.2582860641
 30
0.0
 10
-736.159630116
 20
188.2866446618
 30
0.0
 10
-736.285072271
 20
188.311727672
 30
0.0
 10
-736.3392937142
 20
188.326121821
 30
0.0
 10
-736.3709706563
 20
188.3388619501
 30
0.0
 10
-736.3881370455
 20
188.3479432461
 30
0.0
 10
-736.3990159073
 20
188.3584773246
 30
0.0
 10
-736.3990187362
 20
188.3653962243
 30
0.0
  0
SPLINE
  5
6B6
100
AcDbEntity
  8
0
100
AcDbSpline
 62
9
  6
CONTINUOUS
 70
0
 71
3
 72
11
 73
7
 74
0
 42
0.0000001
 43
0.0000001
 44
0.0000000001
 40
0.0
 40
0.0
 40
0.0
 40
0.0
 40
0.2499269918
 40
0.4998808692
 40
0.7498962803
 40
1.0
 40
1.0
 40
1.0
 40
1.0
 10
-736.3732000959
 20
255.7523370974
 30
0.0
 10
-736.3327095129
 20
255.2477288641
 30
0.0
 10
-736.1558701081
 20
254.2435636373
 30
0.0
 10
-735.6127719858
 20
252.8156786257
 30
0.0
 10
-734.8109042765
 20
251.5149063059
 30
0.0
 10
-734.1212753451
 20
250.7631124543
 30
0.0
 10
-733.744995767
 20
250.4239293347
 30
0.0
  0
SPLINE
  5
6B7
100
AcDbEntity
  8
0
100
AcDbSpline
 62
9
  6
CONTINUOUS
 70
0
 71
3
 72
18
 73
14
 74
0
 42
0.0000001
 43
0.0000001
 44
0.0000000001
 40
0.0
 40
0.0
 40
0.0
 40
0.0
 40
0.0072017908
 40
0.0131442752
 40
0.0209370462
 40
0.042336297
 40
0.0716396177
 40
0.1539371094
 40
0.267217597
 40
0.4102684702
 40
0.5814528646
 40
0.7788108047
 40
1.0
 40
1.0
 40
1.0
 40
1.0
 10
-736.3990187362
 20
172.3653962243
 30
0.0
 10
-736.3990159074
 20
172.3723151239
 30
0.0
 10
-736.3881370455
 20
172.3828492025
 30
0.0
 10
-736.3709706564
 20
172.3919304985
 30
0.0
 10
-736.3392937142
 20
172.4046706276
 30
0.0
 10
-736.285072271
 20
172.4190647766
 30
0.0
 10
-736.159630116
 20
172.4441477866
 30
0.0
 10
-735.9453651224
 20
172.4725063846
 30
0.0
 10
-735.6215851132
 20
172.5044725495
 30
0.0
 10
-735.211996404
 20
172.535355222
 30
0.0
 10
-734.7213795003
 20
172.5649458811
 30
0.0
 10
-734.1554759873
 20
172.592559616
 30
0.0
 10
-733.7536817236
 20
172.6085248514
 30
0.0
 10
-733.5413196137
 20
172.6161997214
 30
0.0
  0
SPLINE
  5
6B8
100
AcDbEntity
  8
0
100
AcDbSpline
 62
9
  6
CONTINUOUS
 70
0
 71
3
 72
11
 73
7
 74
0
 42
0.0000001
 43
0.0000001
 44
0.0000000001
 40
0.0
 40
0.0
 40
0.0
 40
0.0
 40
0.2501037163
 40
0.5001191153
 40
0.7500729848
 40
1.0
 40
1.0
 40
1.0
 40
1.0
 10
-733.744995767
 20
110.3068631139
 30
0.0
 10
-734.1213280733
 20
109.9676324079
 30
0.0
 10
-734.8110450741
 20
109.2157225328
 30
0.0
 10
-735.6129744595
 20
107.9147336644
 30
0.0
 10
-736.1560546628
 20
106.4866100299
 30
0.0
 10
-736.3328259004
 20
105.4822855655
 30
0.0
 10
-736.3732684999
 20
104.977602226
 30
0.0
  0
SPLINE
  5
6B9
100
AcDbEntity
  8
0
100
AcDbSpline
 62
9
  6
CONTINUOUS
 70
0
 71
3
 72
15
 73
11
 74
0
 42
0.0000001
 43
0.0000001
 44
0.0000000001
 40
0.0
 40
0.0
 40
0.0
 40
0.0
 40
0.125006382
 40
0.2500346131
 40
0.3750465783
 40
0.5000554918
 40
0.6250754523
 40
0.7500595886
 40
0.875032936
 40
1.0
 40
1.0
 40
1.0
 40
1.0
 10
-671.3501581037
 20
135.1803308522
 30
0.0
 10
-671.3169863105
 20
135.2667164257
 30
0.0
 10
-671.2707795402
 20
135.4480637638
 30
0.0
 10
-671.2680776434
 20
135.7282596142
 30
0.0
 10
-671.3312916465
 20
136.0011387679
 30
0.0
 10
-671.4543204749
 20
136.2528513565
 30
0.0
 10
-671.6343901332
 20
136.467718511
 30
0.0
 10
-671.8605360254
 20
136.6334568855
 30
0.0
 10
-672.1206431685
 20
136.7381415544
 30
0.0
 10
-672.3065122526
 20
136.7620702353
 30
0.0
 10
-672.3990187362
 20
136.762070663
 30
0.0
  0
SPLINE
  5
6BA
100
AcDbEntity
  8
0
100
AcDbSpline
 62
9
  6
CONTINUOUS
 70
0
 71
3
 72
9
 73
5
 74
0
 42
0.0000001
 43
0.0000001
 44
0.0000000001
 40
0.0
 40
0.0
 40
0.0
 40
0.0
 40
0.4996362299
 40
1.0
 40
1.0
 40
1.0
 40
1.0
 10
-671.3990187362
 20
134.9533934056
 30
0.0
 10
-671.3990192495
 20
134.992225548
 30
0.0
 10
-671.3889821161
 20
135.0701408521
 30
0.0
 10
-671.3640833724
 20
135.1440208412
 30
0.0
 10
-671.3501581037
 20
135.1803308522
 30
0.0
  0
SPLINE
  5
6BB
100
AcDbEntity
  8
0
100
AcDbSpline
 62
9
  6
CONTINUOUS
 70
0
 71
3
 72
13
 73
9
 74
0
 42
0.0000001
 43
0.0000001
 44
0.0000000001
 40
0.0
 40
0.0
 40
0.0
 40
0.0
 40
0.2962096918
 40
0.564508425
 40
0.685058441
 40
0.7963874635
 40
0.9002904343
 40
1.0
 40
1.0
 40
1.0
 40
1.0
 10
-701.7990936435
 20
172.7593352602
 30
0.0
 10
-701.769318223
 20
173.1060151675
 30
0.0
 10
-701.6378524339
 20
173.7629523765
 30
0.0
 10
-701.2771132117
 20
174.4972688475
 30
0.0
 10
-700.8878299322
 20
174.9417042983
 30
0.0
 10
-700.5708696207
 20
175.1818927268
 30
0.0
 10
-700.2282437814
 20
175.3312524956
 30
0.0
 10
-699.9878612344
 20
175.3653960767
 30
0.0
 10
-699.8707328456
 20
175.3653962243
 30
0.0
  0
SPLINE
  5
6BC
100
AcDbEntity
  8
0
100
AcDbSpline
 62
9
  6
CONTINUOUS
 70
0
 71
3
 72
11
 73
7
 74
0
 42
0.0000001
 43
0.0000001
 44
0.0000000001
 40
0.0
 40
0.0
 40
0.0
 40
0.0
 40
0.2500171163
 40
0.5000209104
 40
0.750013656
 40
1.0
 40
1.0
 40
1.0
 40
1.0
 10
-699.9929166559
 20
225.2890910015
 30
0.0
 10
-699.768532151
 20
225.0815597345
 30
0.0
 10
-699.2811023741
 20
224.7061427976
 30
0.0
 10
-698.4600536124
 20
224.2866766034
 30
0.0
 10
-697.5751943178
 20
224.0272374498
 30
0.0
 10
-696.962400161
 20
223.9687216798
 30
0.0
 10
-696.6567947971
 20
223.9687217855
 30
0.0
  0
SPLINE
  5
6BD
100
AcDbEntity
  8
0
100
AcDbSpline
 62
9
  6
CONTINUOUS
 70
0
 71
3
 72
10
 73
6
 74
0
 42
0.0000001
 43
0.0000001
 44
0.0000000001
 40
0.0
 40
0.0
 40
0.0
 40
0.0
 40
0.4999999908
 40
0.7500000501
 40
1.0
 40
1.0
 40
1.0
 40
1.0
 10
-731.6195629139
 20
252.5137461914
 30
0.0
 10
-726.3604287132
 20
248.0297410072
 30
0.0
 10
-718.4808770744
 20
241.2929560189
 30
0.0
 10
-708.0098743257
 20
232.2697786191
 30
0.0
 10
-702.7913719038
 20
227.7385024531
 30
0.0
 10
-700.1885339095
 20
225.4655244985
 30
0.0
  0
SPLINE
  5
6BE
100
AcDbEntity
  8
0
100
AcDbSpline
 62
7
  6
CONTINUOUS
 70
0
 71
3
 72
11
 73
7
 74
0
 42
0.0000001
 43
0.0000001
 44
0.0000000001
 40
0.0
 40
0.0
 40
0.0
 40
0.0
 40
0.2725865725
 40
0.5327560947
 40
0.775574459
 40
1.0
 40
1.0
 40
1.0
 40
1.0
 10
-956.000386732
 20
400.3653962243
 30
0.0
 10
-954.6908965478
 20
402.4770957673
 30
0.0
 10
-951.7991547758
 20
406.4055242309
 30
0.0
 10
-946.8370130127
 20
411.4716193231
 30
0.0
 10
-941.5557671666
 20
415.5181900249
 30
0.0
 10
-937.7856084161
 20
417.5542018337
 30
0.0
 10
-935.8990187362
 20
418.3453223982
 30
0.0
  0
SPLINE
  5
6BF
100
AcDbEntity
  8
0
100
AcDbSpline
 62
9
  6
CONTINUOUS
 70
0
 71
3
 72
27
 73
23
 74
0
 42
0.0000001
 43
0.0000001
 44
0.0000000001
 40
0.0
 40
0.0
 40
0.0
 40
0.0
 40
0.0001738239
 40
0.0006965666
 40
0.0015690326
 40
0.0027920278
 40
0.0062928384
 40
0.01120642
 40
0.0175494587
 40
0.0253440593
 40
0.0346128536
 40
0.0453861482
 40
0.0716083959
 40
0.1043946502
 40
0.1442715313
 40
0.1919409281
 40
0.2483168223
 40
0.314563167
 40
0.4826600552
 40
0.709829827
 40
0.8482937998
 40
1.0
 40
1.0
 40
1.0
 40
1.0
 10
-952.1873243417
 20
29.3998724857
 30
0.0
 10
-952.1857986131
 20
29.3987372586
 30
0.0
 10
-952.190217992
 20
29.4137440682
 30
0.0
 10
-952.1874131029
 20
29.4237214164
 30
0.0
 10
-952.1913656302
 20
29.4563712454
 30
0.0
 10
-952.193910785
 20
29.5149986208
 30
0.0
 10
-952.2018104558
 20
29.622057515
 30
0.0
 10
-952.2122956187
 20
29.7822456273
 30
0.0
 10
-952.2275993142
 20
29.9904798236
 30
0.0
 10
-952.2476398068
 20
30.2456427356
 30
0.0
 10
-952.2735489237
 20
30.5491366321
 30
0.0
 10
-952.3204157882
 20
31.0531052451
 30
0.0
 10
-952.4021930767
 20
31.8122337475
 30
0.0
 10
-952.5416784828
 20
32.8851646125
 30
0.0
 10
-952.7453587165
 20
34.1859938054
 30
0.0
 10
-953.034288284
 20
35.7340967996
 30
0.0
 10
-953.433221263
 20
37.5542872989
 30
0.0
 10
-954.2122396866
 20
40.6386195412
 30
0.0
 10
-955.6837672928
 20
45.4710079616
 30
0.0
 10
-957.5573304639
 20
51.0016846066
 30
0.0
 10
-959.2101781617
 20
56.4154949563
 30
0.0
 10
-959.9687212282
 20
59.5027785803
 30
0.0
 10
-960.2780742443
 20
61.1334469824
 30
0.0
  0
SPLINE
  5
6C0
100
AcDbEntity
  8
0
100
AcDbSpline
 62
9
  6
CONTINUOUS
 70
0
 71
3
 72
9
 73
5
 74
0
 42
0.0000001
 43
0.0000001
 44
0.0000000001
 40
0.0
 40
0.0
 40
0.0
 40
0.0
 40
0.2541833996
 40
1.0
 40
1.0
 40
1.0
 40
1.0
 10
-960.2780742443
 20
61.1334469824
 30
0.0
 10
-960.3723382276
 20
61.6301634697
 30
0.0
 10
-960.7102678574
 20
63.5897657701
 30
0.0
 10
-960.8990127284
 20
65.5803296126
 30
0.0
 10
-960.8990187362
 20
67.0637911914
 30
0.0
  0
SPLINE
  5
6C1
100
AcDbEntity
  8
0
100
AcDbSpline
 62
9
  6
CONTINUOUS
 70
0
 71
3
 72
18
 73
14
 74
0
 42
0.0000001
 43
0.0000001
 44
0.0000000001
 40
0.0
 40
0.0
 40
0.0
 40
0.0
 40
0.2311615534
 40
0.4331859155
 40
0.6052637576
 40
0.7467511334
 40
0.8572633635
 40
0.9007914015
 40
0.9364509641
 40
0.9642218218
 40
0.9840841839
 40
0.9960174064
 40
1.0
 40
1.0
 40
1.0
 40
1.0
 10
-775.8990187699
 20
418.345351956
 30
0.0
 10
-775.8989580148
 20
418.5010106192
 30
0.0
 10
-775.8997609408
 20
418.7927111447
 30
0.0
 10
-775.9026147724
 20
419.2002611352
 30
0.0
 10
-775.9050406695
 20
419.5474680189
 30
0.0
 10
-775.9058509071
 20
419.8329500521
 30
0.0
 10
-775.90508509
 20
420.0321402544
 30
0.0
 10
-775.9040716838
 20
420.159586222
 30
0.0
 10
-775.9022525583
 20
420.2322040683
 30
0.0
 10
-775.90265155
 20
420.2867165152
 30
0.0
 10
-775.8977956084
 20
420.3303496052
 30
0.0
 10
-775.9035403349
 20
420.3482141147
 30
0.0
 10
-775.8963371891
 20
420.3653630877
 30
0.0
 10
-775.8990187679
 20
420.3653962243
 30
0.0
  0
SPLINE
  5
6C2
100
AcDbEntity
  8
0
100
AcDbSpline
 62
7
  6
CONTINUOUS
 70
0
 71
3
 72
9
 73
5
 74
0
 42
0.0000001
 43
0.0000001
 44
0.0000000001
 40
0.0
 40
0.0
 40
0.0
 40
0.0
 40
0.5002863468
 40
1.0
 40
1.0
 40
1.0
 40
1.0
 10
-960.8990187362
 20
382.1981399204
 30
0.0
 10
-960.8990187362
 20
385.3661011831
 30
0.0
 10
-960.1392854902
 20
391.7266466405
 30
0.0
 10
-957.6680177808
 20
397.6761544368
 30
0.0
 10
-956.000386732
 20
400.3653962243
 30
0.0
  0
SPLINE
  5
6C3
100
AcDbEntity
  8
0
100
AcDbSpline
 62
7
  6
CONTINUOUS
 70
0
 71
3
 72
14
 73
10
 74
0
 42
0.0000001
 43
0.0000001
 44
0.0000000001
 40
0.0
 40
0.0
 40
0.0
 40
0.0
 40
0.0934234542
 40
0.1938158015
 40
0.3030488057
 40
0.4221731632
 40
0.6914667876
 40
0.8423274306
 40
1.0
 40
1.0
 40
1.0
 40
1.0
 10
-790.8990187362
 20
405.8458185668
 30
0.0
 10
-790.8990187362
 20
404.9618289172
 30
0.0
 10
-791.1504145294
 20
403.1229536214
 30
0.0
 10
-792.170122071
 20
400.4232173566
 30
0.0
 10
-793.8085228665
 20
397.7581528646
 30
0.0
 10
-796.9298906841
 20
394.2112925624
 30
0.0
 10
-801.2631590203
 20
391.287320276
 30
0.0
 10
-806.4764391422
 20
389.5507220073
 30
0.0
 10
-809.407092319
 20
389.2252211379
 30
0.0
 10
-810.8990187362
 20
389.2252211379
 30
0.0
  0
SPLINE
  5
6C4
100
AcDbEntity
  8
0
100
AcDbSpline
 62
7
  6
CONTINUOUS
 70
0
 71
3
 72
14
 73
10
 74
0
 42
0.0000001
 43
0.0000001
 44
0.0000000001
 40
0.0
 40
0.0
 40
0.0
 40
0.0
 40
0.1576729493
 40
0.3085351044
 40
0.57783034
 40
0.6969543782
 40
0.8061864924
 40
0.9065773672
 40
1.0
 40
1.0
 40
1.0
 40
1.0
 10
-890.8990187362
 20
389.2252211379
 30
0.0
 10
-892.3909488103
 20
389.2252211379
 30
0.0
 10
-895.3216198042
 20
389.5507261721
 30
0.0
 10
-900.5349309782
 20
391.2873389254
 30
0.0
 10
-904.8682135408
 20
394.2113425842
 30
0.0
 10
-907.9895677895
 20
397.7582205148
 30
0.0
 10
-909.6279397232
 20
400.4232726444
 30
0.0
 10
-910.6476298382
 20
403.1229827295
 30
0.0
 10
-910.8990187362
 20
404.961836653
 30
0.0
 10
-910.8990187362
 20
405.8458185668
 30
0.0
  0
SPLINE
  5
6C5
100
AcDbEntity
  8
0
100
AcDbSpline
 62
9
  6
CONTINUOUS
 70
0
 71
3
 72
14
 73
10
 74
0
 42
0.0000001
 43
0.0000001
 44
0.0000000001
 40
0.0
 40
0.0
 40
0.0
 40
0.0
 40
0.0645423975
 40
0.1430291621
 40
0.2420437641
 40
0.3625727167
 40
0.5028373868
 40
0.6592618002
 40
1.0
 40
1.0
 40
1.0
 40
1.0
 10
-960.8990204367
 20
67.0637911914
 30
0.0
 10
-960.8990202321
 20
66.9668936278
 30
0.0
 10
-960.9662537376
 20
66.7514014488
 30
0.0
 10
-961.2164086855
 20
66.4789437876
 30
0.0
 10
-961.5957744056
 20
66.2362340675
 30
0.0
 10
-962.0946774093
 20
66.0245937656
 30
0.0
 10
-962.6977456847
 20
65.8510069807
 30
0.0
 10
-963.6390596551
 20
65.6736241001
 30
0.0
 10
-964.387468148
 20
65.6241217286
 30
0.0
 10
-964.8990187362
 20
65.6241215306
 30
0.0
  0
SPLINE
  5
6C6
100
AcDbEntity
  8
0
100
AcDbSpline
 62
9
  6
CONTINUOUS
 70
0
 71
3
 72
9
 73
5
 74
0
 42
0.0000001
 43
0.0000001
 44
0.0000000001
 40
0.0
 40
0.0
 40
0.0
 40
0.0
 40
0.2557950577
 40
1.0
 40
1.0
 40
1.0
 40
1.0
 10
-964.1787231255
 20
60.3653962243
 30
0.0
 10
-964.2901730549
 20
60.8046555546
 30
0.0
 10
-964.687252085
 20
62.5306329727
 30
0.0
 10
-964.8988801895
 20
64.3056569176
 30
0.0
 10
-964.8990187362
 20
65.624122317
 30
0.0
  0
SPLINE
  5
6C7
100
AcDbEntity
  8
0
100
AcDbSpline
 62
9
  6
CONTINUOUS
 70
0
 71
3
 72
27
 73
23
 74
0
 42
0.0000001
 43
0.0000001
 44
0.0000000001
 40
0.0
 40
0.0
 40
0.0
 40
0.0
 40
0.0001680693
 40
0.0006737682
 40
0.00151799
 40
0.00270163
 40
0.0060907544
 40
0.0108489481
 40
0.0169932933
 40
0.024548289
 40
0.0335389624
 40
0.0439959381
 40
0.0694867695
 40
0.1014326234
 40
0.1404042809
 40
0.1871635002
 40
0.2427107825
 40
0.3083344491
 40
0.476528253
 40
0.706823396
 40
0.8474604138
 40
1.0
 40
1.0
 40
1.0
 40
1.0
 10
-954.7934534965
 20
30.3653931542
 30
0.0
 10
-954.7920505696
 20
30.3643180907
 30
0.0
 10
-954.7962250477
 20
30.3783127856
 30
0.0
 10
-954.7937694184
 20
30.3875356833
 30
0.0
 10
-954.7977061797
 20
30.4179137039
 30
0.0
 10
-954.8006398394
 20
30.4724075098
 30
0.0
 10
-954.8089941822
 20
30.5719843151
 30
0.0
 10
-954.8203213007
 20
30.7209804304
 30
0.0
 10
-954.8366243656
 20
30.9147451153
 30
0.0
 10
-954.8579468365
 20
31.1522827765
 30
0.0
 10
-954.8854529128
 20
31.4349629113
 30
0.0
 10
-954.9349571376
 20
31.9049376453
 30
0.0
 10
-955.0210445519
 20
32.6137950282
 30
0.0
 10
-955.1671173595
 20
33.6171891793
 30
0.0
 10
-955.3802421223
 20
34.8364258656
 30
0.0
 10
-955.6831441913
 20
36.2912388825
 30
0.0
 10
-956.1037605663
 20
38.0068284815
 30
0.0
 10
-956.9368549903
 20
40.9343446716
 30
0.0
 10
-958.5499463009
 20
45.5454017376
 30
0.0
 10
-960.7233233595
 20
50.7831703123
 30
0.0
 10
-962.7913700145
 20
55.8834291457
 30
0.0
 10
-963.7840932515
 20
58.8105352743
 30
0.0
 10
-964.1787231255
 20
60.3653962243
 30
0.0
  0
SPLINE
  5
6C8
100
AcDbEntity
  8
0
100
AcDbSpline
 62
9
  6
CONTINUOUS
 70
0
 71
3
 72
15
 73
11
 74
0
 42
0.0000001
 43
0.0000001
 44
0.0000000001
 40
0.0
 40
0.0
 40
0.0
 40
0.0
 40
0.1194354469
 40
0.2398744965
 40
0.3619421264
 40
0.4860345347
 40
0.6122345477
 40
0.7402974911
 40
0.8697898973
 40
1.0
 40
1.0
 40
1.0
 40
1.0
 10
-750.8990187362
 20
395.3653962407
 30
0.0
 10
-750.8998620578
 20
396.8635204854
 30
0.0
 10
-751.2243020076
 20
399.8819854432
 30
0.0
 10
-752.6637278844
 20
404.2216923488
 30
0.0
 10
-754.9974427364
 20
408.2217057331
 30
0.0
 10
-758.1317639975
 20
411.7257282512
 30
0.0
 10
-761.9448872552
 20
414.5999523076
 30
0.0
 10
-766.2904745695
 20
416.735485684
 30
0.0
 10
-771.0004866054
 20
418.0494937162
 30
0.0
 10
-774.2657436273
 20
418.3452630008
 30
0.0
 10
-775.8990187362
 20
418.3453223982
 30
0.0
  0
SPLINE
  5
6C9
100
AcDbEntity
  8
0
100
AcDbSpline
 62
9
  6
CONTINUOUS
 70
0
 71
3
 72
18
 73
14
 74
0
 42
0.0000001
 43
0.0000001
 44
0.0000000001
 40
0.0
 40
0.0
 40
0.0
 40
0.0
 40
0.1949656124
 40
0.382510138
 40
0.5553514023
 40
0.7069101772
 40
0.8313240703
 40
0.8818123148
 40
0.9238035671
 40
0.9568939478
 40
0.9807616995
 40
0.9951652539
 40
1.0
 40
1.0
 40
1.0
 40
1.0
 10
1941.0041115177
 20
395.3653962243
 30
0.0
 10
1941.08600423
 20
396.9898081798
 30
0.0
 10
1941.2287201408
 20
400.1776772626
 30
0.0
 10
1941.4467499653
 20
404.8054841189
 30
0.0
 10
1941.6461056395
 20
409.0716606967
 30
0.0
 10
1941.8188495487
 20
412.8118434315
 30
0.0
 10
1941.9454560097
 20
415.5323587363
 30
0.0
 10
1942.0291453502
 20
417.3398227817
 30
0.0
 10
1942.0770283117
 20
418.3862868024
 30
0.0
 10
1942.1160380254
 20
419.210814347
 30
0.0
 10
1942.1410953543
 20
419.8056695958
 30
0.0
 10
1942.1618001449
 20
420.1646104485
 30
0.0
 10
1942.164914036
 20
420.3252272816
 30
0.0
 10
1942.1685622017
 20
420.3653951849
 30
0.0
  0
SPLINE
  5
6CA
100
AcDbEntity
  8
0
100
AcDbSpline
 62
9
  6
CONTINUOUS
 70
0
 71
3
 72
21
 73
17
 74
0
 42
0.0000001
 43
0.0000001
 44
0.0000000001
 40
0.0
 40
0.0
 40
0.0
 40
0.0
 40
0.0012122383
 40
0.0048307711
 40
0.0108432077
 40
0.0192371574
 40
0.0431067441
 40
0.076196556
 40
0.1181870197
 40
0.1686752396
 40
0.2271587342
 40
0.2930894059
 40
0.4446481482
 40
0.6174895496
 40
0.8050342181
 40
1.0
 40
1.0
 40
1.0
 40
1.0
 10
1822.1685360305
 20
420.3653962243
 30
0.0
 10
1822.1675829589
 20
420.3553282962
 30
0.0
 10
1822.1728630281
 20
420.3149868336
 30
0.0
 10
1822.1737422097
 20
420.224706078
 30
0.0
 10
1822.1825379245
 20
420.0744500056
 30
0.0
 10
1822.1961338229
 20
419.7555048853
 30
0.0
 10
1822.2220537885
 20
419.2108603399
 30
0.0
 10
1822.2596467431
 20
418.3862685178
 30
0.0
 10
1822.3080623755
 20
417.3398386205
 30
0.0
 10
1822.3661569901
 20
416.0818010086
 30
0.0
 10
1822.4337542405
 20
414.62426633
 30
0.0
 10
1822.5408169466
 20
412.3244899547
 30
0.0
 10
1822.6909322083
 20
409.0716685229
 30
0.0
 10
1822.8903312798
 20
404.8054923769
 30
0.0
 10
1823.1083476272
 20
400.1776809934
 30
0.0
 10
1823.2510874214
 20
396.989810573
 30
0.0
 10
1823.3329605433
 20
395.3653962243
 30
0.0
  0
SPLINE
  5
6CB
100
AcDbEntity
  8
0
100
AcDbSpline
 62
9
  6
CONTINUOUS
 70
0
 71
3
 72
28
 73
24
 74
0
 42
0.0000001
 43
0.0000001
 44
0.0000000001
 40
0.0
 40
0.0
 40
0.0
 40
0.0
 40
0.194947142
 40
0.3824748235
 40
0.4711462175
 40
0.5553059549
 40
0.6341382011
 40
0.7068643193
 40
0.772798983
 40
0.8312887317
 40
0.8817846845
 40
0.923783461
 40
0.9414651829
 40
0.9568811246
 40
0.9699914068
 40
0.9807570044
 40
0.9891532545
 40
0.992458871
 40
0.9951674188
 40
0.9972773509
 40
0.9987871203
 40
0.9996951813
 40
1.0
 40
1.0
 40
1.0
 40
1.0
 10
1823.3329605361
 20
395.3653962407
 30
0.0
 10
1822.6821407191
 20
396.8561119388
 30
0.0
 10
1821.3935931355
 20
399.7756959599
 30
0.0
 10
1819.8250693104
 20
403.3803620027
 30
0.0
 10
1818.6314954658
 20
406.1400541397
 30
0.0
 10
1817.7989991079
 20
408.0677953996
 30
0.0
 10
1817.0212757502
 20
409.8742699235
 30
0.0
 10
1816.3060478242
 20
411.5420885803
 30
0.0
 10
1815.6594376136
 20
413.0546500306
 30
0.0
 10
1815.0868055669
 20
414.397114927
 30
0.0
 10
1814.593301048
 20
415.5562069837
 30
0.0
 10
1814.2336188266
 20
416.402204935
 30
0.0
 10
1813.9886688967
 20
416.9789304285
 30
0.0
 10
1813.8380329158
 20
417.3338285562
 30
0.0
 10
1813.7100478212
 20
417.6356695138
 30
0.0
 10
1813.6049554752
 20
417.8835478983
 30
0.0
 10
1813.531984068
 20
418.0563121227
 30
0.0
 10
1813.4849750837
 20
418.1668463773
 30
0.0
 10
1813.4588899809
 20
418.2296912762
 30
0.0
 10
1813.4374597429
 20
418.2772369427
 30
0.0
 10
1813.4246470498
 20
418.3144698035
 30
0.0
 10
1813.4123739918
 20
418.3310708646
 30
0.0
 10
1813.4119111215
 20
418.3448505411
 30
0.0
 10
1813.4094119429
 20
418.3453223982
 30
0.0
  0
SPLINE
  5
6CC
100
AcDbEntity
  8
0
100
AcDbSpline
 62
9
  6
CONTINUOUS
 70
0
 71
3
 72
28
 73
24
 74
0
 42
0.0000001
 43
0.0000001
 44
0.0000000001
 40
0.0
 40
0.0
 40
0.0
 40
0.0
 40
0.0003048189
 40
0.00121288
 40
0.0027226494
 40
0.0048325815
 40
0.0075411294
 40
0.0108467458
 40
0.0192429957
 40
0.0300085932
 40
0.0431188754
 40
0.0585348171
 40
0.0762165391
 40
0.1182153156
 40
0.1687112683
 40
0.2272010169
 40
0.2931356809
 40
0.3658617993
 40
0.4446940453
 40
0.5288537825
 40
0.6175251767
 40
0.8050528581
 40
1.0
 40
1.0
 40
1.0
 40
1.0
 10
1950.9276601181
 20
418.3453223982
 30
0.0
 10
1950.925160951
 20
418.3448504713
 30
0.0
 10
1950.9246980421
 20
418.3310709624
 30
0.0
 10
1950.9124250149
 20
418.3144697359
 30
0.0
 10
1950.8996122982
 20
418.2772369687
 30
0.0
 10
1950.8781820666
 20
418.2296912619
 30
0.0
 10
1950.8520969592
 20
418.1668463805
 30
0.0
 10
1950.8050879775
 20
418.0563121205
 30
0.0
 10
1950.7321165761
 20
417.8835479013
 30
0.0
 10
1950.6270242501
 20
417.635669509
 30
0.0
 10
1950.4990391827
 20
417.3338285416
 30
0.0
 10
1950.3484032229
 20
416.978930404
 30
0.0
 10
1950.1034533012
 20
416.4022049066
 30
0.0
 10
1949.7437709852
 20
415.5562069965
 30
0.0
 10
1949.2502662902
 20
414.3971150165
 30
0.0
 10
1948.6776343276
 20
413.0546500837
 30
0.0
 10
1948.0310245754
 20
411.542088434
 30
0.0
 10
1947.3157967862
 20
409.8742697162
 30
0.0
 10
1946.5380726053
 20
408.0677955484
 30
0.0
 10
1945.7055754795
 20
406.1400546239
 30
0.0
 10
1944.5120044605
 20
403.3803612674
 30
0.0
 10
1942.9434793591
 20
399.7756957748
 30
0.0
 10
1941.6549133889
 20
396.8561197756
 30
0.0
 10
1941.004111525
 20
395.3653962409
 30
0.0
  0
SPLINE
  5
6CD
100
AcDbEntity
  8
0
100
AcDbSpline
 62
9
  6
CONTINUOUS
 70
0
 71
3
 72
16
 73
12
 74
0
 42
0.0000001
 43
0.0000001
 44
0.0000000001
 40
0.0
 40
0.0
 40
0.0
 40
0.0
 40
0.0082827553
 40
0.0240828046
 40
0.081947678
 40
0.1744671054
 40
0.2981898995
 40
0.4486811786
 40
0.620360466
 40
0.8068808616
 40
1.0
 40
1.0
 40
1.0
 40
1.0
 10
1942.1685360118
 20
420.3652759559
 30
0.0
 10
1942.1796698883
 20
420.3652740729
 30
0.0
 10
1942.2056523948
 20
420.3932086136
 30
0.0
 10
1942.2420319465
 20
420.493352994
 30
0.0
 10
1942.2870846894
 20
420.716700393
 30
0.0
 10
1942.330058506
 20
421.0805641599
 30
0.0
 10
1942.370505569
 20
421.5728580584
 30
0.0
 10
1942.4034572218
 20
422.1710559853
 30
0.0
 10
1942.4284018375
 20
422.8545334932
 30
0.0
 10
1942.4436072791
 20
423.5954665154
 30
0.0
 10
1942.4471112643
 20
424.1058008841
 30
0.0
 10
1942.4471105309
 20
424.3653962244
 30
0.0
  0
SPLINE
  5
6CE
100
AcDbEntity
  8
0
100
AcDbSpline
 62
9
  6
CONTINUOUS
 70
0
 71
3
 72
21
 73
17
 74
0
 42
0.0000001
 43
0.0000001
 44
0.0000000001
 40
0.0
 40
0.0
 40
0.0
 40
0.0
 40
0.0012251491
 40
0.0048592888
 40
0.0108849744
 40
0.0192803015
 40
0.0430901121
 40
0.0761083463
 40
0.1180942059
 40
0.1685674256
 40
0.2269878492
 40
0.2928152941
 40
0.4442576482
 40
0.6172088365
 40
0.8052348887
 40
1.0
 40
1.0
 40
1.0
 40
1.0
 10
1950.9276558239
 20
418.3453135839
 30
0.0
 10
1950.9261895382
 20
418.3460279579
 30
0.0
 10
1950.9329687328
 20
418.3542050152
 30
0.0
 10
1950.9346738368
 20
418.3653656881
 30
0.0
 10
1950.9470231016
 20
418.388396313
 30
0.0
 10
1950.9670944694
 20
418.4338283765
 30
0.0
 10
1951.00524933
 20
418.5128532224
 30
0.0
 10
1951.0613460604
 20
418.6313599797
 30
0.0
 10
1951.1337158054
 20
418.7821060531
 30
0.0
 10
1951.2206783371
 20
418.9631063826
 30
0.0
 10
1951.3216880573
 20
419.1726595058
 30
0.0
 10
1951.4812762123
 20
419.5031675288
 30
0.0
 10
1951.7076239346
 20
419.9707744261
 30
0.0
 10
1952.0053695445
 20
420.5845542429
 30
0.0
 10
1952.3287731066
 20
421.2499936725
 30
0.0
 10
1952.5518157517
 20
421.7082043181
 30
0.0
 10
1952.6653732569
 20
421.9413076329
 30
0.0
  0
SPLINE
  5
6CF
100
AcDbEntity
  8
0
100
AcDbSpline
 62
9
  6
CONTINUOUS
 70
0
 71
3
 72
23
 73
19
 74
0
 42
0.0000001
 43
0.0000001
 44
0.0000000001
 40
0.0
 40
0.0
 40
0.0
 40
0.0
 40
0.1363568098
 40
0.2720838948
 40
0.4067087133
 40
0.5397583652
 40
0.6706081785
 40
0.7348997885
 40
0.7981012084
 40
0.8597131184
 40
0.8896256473
 40
0.9186212981
 40
0.9462064748
 40
0.9713342495
 40
0.9822797207
 40
0.9913982178
 40
0.997691045
 40
1.0
 40
1.0
 40
1.0
 40
1.0
 10
1952.665373258
 20
421.9413076329
 30
0.0
 10
1956.4097991584
 20
420.0652797056
 30
0.0
 10
1963.7329507422
 20
416.0166405337
 30
0.0
 10
1974.1474412237
 20
409.0947232048
 30
0.0
 10
1983.8822251078
 20
401.4068301123
 30
0.0
 10
1992.8403303622
 20
393.0454427886
 30
0.0
 10
1999.6168617982
 20
385.564886418
 30
0.0
 10
2004.5495716418
 20
379.3468196384
 30
0.0
 10
2007.9535648952
 20
374.6381342461
 30
0.0
 10
2010.5574180294
 20
370.6603322867
 30
0.0
 10
2012.469587192
 20
367.490401412
 30
0.0
 10
2013.7849959834
 20
365.181996932
 30
0.0
 10
2014.9719530501
 20
362.970547937
 30
0.0
 10
2015.8545358107
 20
361.2255589375
 30
0.0
 10
2016.4568749592
 20
359.9750781959
 30
0.0
 10
2016.8042112916
 20
359.2437018994
 30
0.0
 10
2017.0260222655
 20
358.746843823
 30
0.0
 10
2017.1421849706
 20
358.5092405531
 30
0.0
 10
2017.1684969493
 20
358.4433844146
 30
0.0
  0
SPLINE
  5
6D0
100
AcDbEntity
  8
0
100
AcDbSpline
 62
9
  6
CONTINUOUS
 70
0
 71
3
 72
15
 73
11
 74
0
 42
0.0000001
 43
0.0000001
 44
0.0000000001
 40
0.0
 40
0.0
 40
0.0
 40
0.0
 40
0.1245016175
 40
0.2490566544
 40
0.3737531405
 40
0.498635623
 40
0.6237284471
 40
0.7490217694
 40
0.8744638449
 40
1.0
 40
1.0
 40
1.0
 40
1.0
 10
1051.7132198867
 20
-287.8142939762
 30
0.0
 10
1051.7132272695
 20
-288.0736229128
 30
0.0
 10
1051.764755139
 20
-288.593851855
 30
0.0
 10
1051.9938036985
 20
-289.3429684929
 30
0.0
 10
1052.3657327976
 20
-290.0336115745
 30
0.0
 10
1052.866352289
 20
-290.6388577192
 30
0.0
 10
1053.4763890333
 20
-291.1355633439
 30
0.0
 10
1054.1724995196
 20
-291.50460528
 30
0.0
 10
1054.9275344065
 20
-291.7318971178
 30
0.0
 10
1055.4517360743
 20
-291.7830251029
 30
0.0
 10
1055.7132198867
 20
-291.7830354712
 30
0.0
  0
SPLINE
  5
6D1
100
AcDbEntity
  8
0
100
AcDbSpline
 62
9
  6
CONTINUOUS
 70
0
 71
3
 72
11
 73
7
 74
0
 42
0.0000001
 43
0.0000001
 44
0.0000000001
 40
0.0
 40
0.0
 40
0.0
 40
0.0
 40
0.1637100438
 40
0.4006069181
 40
0.68777431
 40
1.0
 40
1.0
 40
1.0
 40
1.0
 10
1120.9730868198
 20
-292.7374745524
 30
0.0
 10
1121.0051582604
 20
-292.5697661864
 30
0.0
 10
1121.0648774542
 20
-292.1559201582
 30
0.0
 10
1121.1394158651
 20
-291.4423787923
 30
0.0
 10
1121.1968194724
 20
-290.5718029067
 30
0.0
 10
1121.2132102546
 20
-289.9466001187
 30
0.0
 10
1121.2132103415
 20
-289.6209528808
 30
0.0
  0
SPLINE
  5
6D2
100
AcDbEntity
  8
0
100
AcDbSpline
 62
9
  6
CONTINUOUS
 70
0
 71
3
 72
11
 73
7
 74
0
 42
0.0000001
 43
0.0000001
 44
0.0000000001
 40
0.0
 40
0.0
 40
0.0
 40
0.0
 40
0.3123150576
 40
0.599625108
 40
0.836601476
 40
1.0
 40
1.0
 40
1.0
 40
1.0
 10
1121.2132103424
 20
-377.6209528808
 30
0.0
 10
1121.2132102545
 20
-377.295226041
 30
0.0
 10
1121.1964493901
 20
-376.6698039589
 30
0.0
 10
1121.1381124409
 20
-375.7990117411
 30
0.0
 10
1121.0632243663
 20
-375.0856145749
 30
0.0
 10
1121.004007503
 20
-374.6720180031
 30
0.0
 10
1120.9730869283
 20
-374.5044312643
 30
0.0
  0
SPLINE
  5
6D3
100
AcDbEntity
  8
0
100
AcDbSpline
 62
9
  6
CONTINUOUS
 70
0
 71
3
 72
9
 73
5
 74
0
 42
0.0000001
 43
0.0000001
 44
0.0000000001
 40
0.0
 40
0.0
 40
0.0
 40
0.0
 40
0.4956959773
 40
1.0
 40
1.0
 40
1.0
 40
1.0
 10
1120.9730869283
 20
-374.5044312643
 30
0.0
 10
1120.9638144234
 20
-374.4541742341
 30
0.0
 10
1120.9305035064
 20
-374.3543494855
 30
0.0
 10
1120.8638347243
 20
-374.2726759248
 30
0.0
 10
1120.8253562993
 20
-374.2377094285
 30
0.0
  0
SPLINE
  5
6D4
100
AcDbEntity
  8
0
100
AcDbSpline
 62
9
  6
CONTINUOUS
 70
0
 71
3
 72
9
 73
5
 74
0
 42
0.0000001
 43
0.0000001
 44
0.0000000001
 40
0.0
 40
0.0
 40
0.0
 40
0.0
 40
0.2400483714
 40
1.0
 40
1.0
 40
1.0
 40
1.0
 10
1120.7991416864
 20
-374.2153238607
 30
0.0
 10
1120.7924991661
 20
-374.2099868851
 30
0.0
 10
1120.7643501641
 20
-374.1883498042
 30
0.0
 10
1120.7344195096
 20
-374.1690727724
 30
0.0
 10
1120.7110495415
 20
-374.1555991226
 30
0.0
  0
SPLINE
  5
6D5
100
AcDbEntity
  8
0
100
AcDbSpline
 62
9
  6
CONTINUOUS
 70
0
 71
3
 72
9
 73
5
 74
0
 42
0.0000001
 43
0.0000001
 44
0.0000000001
 40
0.0
 40
0.0
 40
0.0
 40
0.0
 40
0.2616297948
 40
1.0
 40
1.0
 40
1.0
 40
1.0
 10
1120.7111316242
 20
-293.086259309
 30
0.0
 10
1120.719396494
 20
-293.0814930468
 30
0.0
 10
1120.7506674933
 20
-293.0627354451
 30
0.0
 10
1120.7806034793
 20
-293.0416956638
 30
0.0
 10
1120.8015167114
 20
-293.0247358979
 30
0.0
  0
SPLINE
  5
6D6
100
AcDbEntity
  8
0
100
AcDbSpline
 62
9
  6
CONTINUOUS
 70
0
 71
3
 72
9
 73
5
 74
0
 42
0.0000001
 43
0.0000001
 44
0.0000000001
 40
0.0
 40
0.0
 40
0.0
 40
0.0
 40
0.5029782956
 40
1.0
 40
1.0
 40
1.0
 40
1.0
 10
1120.8258438514
 20
-293.003844057
 30
0.0
 10
1120.864109232
 20
-292.9690030825
 30
0.0
 10
1120.9304230678
 20
-292.887276655
 30
0.0
 10
1120.9634817607
 20
-292.7877022237
 30
0.0
 10
1120.9730868198
 20
-292.7374745524
 30
0.0
  0
SPLINE
  5
6D7
100
AcDbEntity
  8
0
100
AcDbSpline
 62
9
  6
CONTINUOUS
 70
0
 71
3
 72
11
 73
7
 74
0
 42
0.0000001
 43
0.0000001
 44
0.0000000001
 40
0.0
 40
0.0
 40
0.0
 40
0.0
 40
0.2499364461
 40
0.4999140573
 40
0.7499420178
 40
1.0
 40
1.0
 40
1.0
 40
1.0
 10
1055.7132198867
 20
-378.4121350487
 30
0.0
 10
1055.5821883826
 20
-378.4121450707
 30
0.0
 10
1055.3171334826
 20
-378.4659390601
 30
0.0
 10
1054.9847225368
 20
-378.6942130778
 30
0.0
 10
1054.7643980065
 20
-379.0315790661
 30
0.0
 10
1054.7132294903
 20
-379.2965165648
 30
0.0
 10
1054.7132198867
 20
-379.4276117854
 30
0.0
  0
SPLINE
  5
6D8
100
AcDbEntity
  8
0
100
AcDbSpline
 62
9
  6
CONTINUOUS
 70
0
 71
3
 72
11
 73
7
 74
0
 42
0.0000001
 43
0.0000001
 44
0.0000000001
 40
0.0
 40
0.0
 40
0.0
 40
0.0
 40
0.2500083417
 40
0.5000052994
 40
0.7499996279
 40
1.0
 40
1.0
 40
1.0
 40
1.0
 10
1083.184933996
 20
-379.5999498082
 30
0.0
 10
1082.9632520991
 20
-379.4111541472
 30
0.0
 10
1082.4859532602
 20
-379.0714472725
 30
0.0
 10
1081.6927608599
 20
-378.6952373301
 30
0.0
 10
1080.8458164604
 20
-378.4640808861
 30
0.0
 10
1080.2621681637
 20
-378.412144759
 30
0.0
 10
1079.9709959476
 20
-378.4121350487
 30
0.0
  0
SPLINE
  5
6D9
100
AcDbEntity
  8
0
100
AcDbSpline
 62
9
  6
CONTINUOUS
 70
0
 71
3
 72
11
 73
7
 74
0
 42
0.0000001
 43
0.0000001
 44
0.0000000001
 40
0.0
 40
0.0
 40
0.0
 40
0.0
 40
0.2500043589
 40
0.5000039987
 40
0.7500015826
 40
1.0
 40
1.0
 40
1.0
 40
1.0
 10
1116.7132198867
 20
-410.3398619482
 30
0.0
 10
1116.7132067295
 20
-409.9753455415
 30
0.0
 10
1116.6337734516
 20
-409.2438756965
 30
0.0
 10
1116.2815422181
 20
-408.1998425346
 30
0.0
 10
1115.7129252098
 20
-407.2560158153
 30
0.0
 10
1115.2056857406
 20
-406.7229115248
 30
0.0
 10
1114.9271579351
 20
-406.4877771866
 30
0.0
  0
SPLINE
  5
6DA
100
AcDbEntity
  8
0
100
AcDbSpline
 62
9
  6
CONTINUOUS
 70
0
 71
3
 72
11
 73
7
 74
0
 42
0.0000001
 43
0.0000001
 44
0.0000000001
 40
0.0
 40
0.0
 40
0.0
 40
0.0
 40
0.2499984174
 40
0.4999960013
 40
0.7499956411
 40
1.0
 40
1.0
 40
1.0
 40
1.0
 10
1114.9271579351
 20
-260.754128575
 30
0.0
 10
1115.2056857411
 20
-260.5189942374
 30
0.0
 10
1115.7129252095
 20
-259.9858899459
 30
0.0
 10
1116.2815422182
 20
-259.0420632271
 30
0.0
 10
1116.6337734516
 20
-257.9980300651
 30
0.0
 10
1116.7132067295
 20
-257.2665602201
 30
0.0
 10
1116.7132198867
 20
-256.9020438135
 30
0.0
  0
SPLINE
  5
6DB
100
AcDbEntity
  8
0
100
AcDbSpline
 62
9
  6
CONTINUOUS
 70
0
 71
3
 72
11
 73
7
 74
0
 42
0.0000001
 43
0.0000001
 44
0.0000000001
 40
0.0
 40
0.0
 40
0.0
 40
0.0
 40
0.2500003721
 40
0.4999947006
 40
0.7499916583
 40
1.0
 40
1.0
 40
1.0
 40
1.0
 10
1079.9709959476
 20
-288.8297707129
 30
0.0
 10
1080.2621681637
 20
-288.8297610025
 30
0.0
 10
1080.8458164604
 20
-288.7778248756
 30
0.0
 10
1081.69276086
 20
-288.5466684316
 30
0.0
 10
1082.4859532598
 20
-288.1704584886
 30
0.0
 10
1082.9632521
 20
-287.8307516155
 30
0.0
 10
1083.184933996
 20
-287.6419559535
 30
0.0
  0
SPLINE
  5
6DC
100
AcDbEntity
  8
0
100
AcDbSpline
 62
9
  6
CONTINUOUS
 70
0
 71
3
 72
11
 73
7
 74
0
 42
0.0000001
 43
0.0000001
 44
0.0000000001
 40
0.0
 40
0.0
 40
0.0
 40
0.0
 40
0.2500579822
 40
0.5000859427
 40
0.7500635539
 40
1.0
 40
1.0
 40
1.0
 40
1.0
 10
1054.7132198867
 20
-287.8142939762
 30
0.0
 10
1054.7132294903
 20
-287.9453891968
 30
0.0
 10
1054.7643980065
 20
-288.2103266955
 30
0.0
 10
1054.9847225368
 20
-288.5476926838
 30
0.0
 10
1055.3171334826
 20
-288.7759667015
 30
0.0
 10
1055.5821883826
 20
-288.8297606911
 30
0.0
 10
1055.7132198867
 20
-288.8297707129
 30
0.0
  0
LINE
  5
6DD
100
AcDbEntity
  8
0
100
AcDbLine
 62
9
  6
CONTINUOUS
 10
1121.2132198901
 20
-419.3714372195
 11
1121.21321989
 21
-403.6209528808
  0
LINE
  5
6DE
100
AcDbEntity
  8
0
100
AcDbLine
 62
9
  6
CONTINUOUS
 10
1121.2132167995
 20
-252.8261921654
 11
1121.2132198899
 21
-247.8704685418
  0
SPLINE
  5
6DF
100
AcDbEntity
  8
0
100
AcDbSpline
 62
9
  6
CONTINUOUS
 70
0
 71
3
 72
15
 73
11
 74
0
 42
0.0000001
 43
0.0000001
 44
0.0000000001
 40
0.0
 40
0.0
 40
0.0
 40
0.0
 40
0.1255361551
 40
0.2509782306
 40
0.3762715529
 40
0.501364377
 40
0.6262468595
 40
0.7509433456
 40
0.8754983825
 40
1.0
 40
1.0
 40
1.0
 40
1.0
 10
1055.7132198867
 20
-375.4588702904
 30
0.0
 10
1055.4517360743
 20
-375.4588806589
 30
0.0
 10
1054.9275344065
 20
-375.5100086437
 30
0.0
 10
1054.1724995196
 20
-375.7373004817
 30
0.0
 10
1053.4763890333
 20
-376.1063424177
 30
0.0
 10
1052.866352289
 20
-376.6030480424
 30
0.0
 10
1052.3657327976
 20
-377.2082941872
 30
0.0
 10
1051.9938036986
 20
-377.8989372687
 30
0.0
 10
1051.7647551388
 20
-378.6480539066
 30
0.0
 10
1051.7132272699
 20
-379.1682828488
 30
0.0
 10
1051.7132198867
 20
-379.4276117854
 30
0.0
  0
SPLINE
  5
6E0
100
AcDbEntity
  8
0
100
AcDbSpline
 62
9
  6
CONTINUOUS
 70
0
 71
3
 72
9
 73
5
 74
0
 42
0.0000001
 43
0.0000001
 44
0.0000000001
 40
0.0
 40
0.0
 40
0.0
 40
0.0
 40
0.7499204247
 40
1.0
 40
1.0
 40
1.0
 40
1.0
 10
1266.1351592326
 20
-361.9933874477
 30
0.0
 10
1265.4160590128
 20
-357.9607115617
 30
0.0
 10
1264.191966722
 20
-352.6216717391
 30
0.0
 10
1262.5414421095
 20
-347.4134294143
 30
0.0
 10
1262.0993050367
 20
-346.1209528808
 30
0.0
  0
SPLINE
  5
6E1
100
AcDbEntity
  8
0
100
AcDbSpline
 62
7
  6
CONTINUOUS
 70
0
 71
3
 72
13
 73
9
 74
0
 42
0.0000001
 43
0.0000001
 44
0.0000000001
 40
0.0
 40
0.0
 40
0.0
 40
0.0
 40
0.2973139626
 40
0.5693656591
 40
0.69307334
 40
0.806826848
 40
0.909403765
 40
1.0
 40
1.0
 40
1.0
 40
1.0
 10
1319.2132198867
 20
-384.8800769684
 30
0.0
 10
1320.9694948969
 20
-386.3918443357
 30
0.0
 10
1324.4202700902
 20
-389.1872751913
 30
0.0
 10
1328.8933741301
 20
-392.236387049
 30
0.0
 10
1332.381941858
 20
-394.1407236462
 30
0.0
 10
1334.8118092495
 20
-395.210659846
 30
0.0
 10
1337.1029046725
 20
-395.9181864233
 30
0.0
 10
1338.6084660142
 20
-396.1209528808
 30
0.0
 10
1339.3145878825
 20
-396.1209528808
 30
0.0
  0
SPLINE
  5
6E2
100
AcDbEntity
  8
0
100
AcDbSpline
 62
9
  6
CONTINUOUS
 70
0
 71
3
 72
17
 73
13
 74
0
 42
0.0000001
 43
0.0000001
 44
0.0000000001
 40
0.0
 40
0.0
 40
0.0
 40
0.0
 40
0.1700266505
 40
0.3345608765
 40
0.4883357845
 40
0.6269301115
 40
0.7470358424
 40
0.7996785841
 40
0.8473599716
 40
0.9292603838
 40
0.9655048073
 40
1.0
 40
1.0
 40
1.0
 40
1.0
 10
1159.2132198867
 20
-384.8800769684
 30
0.0
 10
1157.585444545
 20
-384.8797634177
 30
0.0
 10
1154.3810403694
 20
-384.7588508898
 30
0.0
 10
1149.7324707753
 20
-384.216891491
 30
0.0
 10
1145.4412645147
 20
-383.3349484053
 30
0.0
 10
1141.6675471922
 20
-382.1463113518
 30
0.0
 10
1138.9532725035
 20
-380.8818261078
 30
0.0
 10
1137.1841718894
 20
-379.7223560618
 30
0.0
 10
1135.8412395673
 20
-378.6087280044
 30
0.0
 10
1134.8169033951
 20
-377.3450034902
 30
0.0
 10
1134.2997064213
 20
-375.9663195117
 30
0.0
 10
1134.2136473919
 20
-375.2867729449
 30
0.0
 10
1134.2132198867
 20
-374.9565283753
 30
0.0
  0
SPLINE
  5
6E3
100
AcDbEntity
  8
0
100
AcDbSpline
 62
9
  6
CONTINUOUS
 70
0
 71
3
 72
14
 73
10
 74
0
 42
0.0000001
 43
0.0000001
 44
0.0000000001
 40
0.0
 40
0.0
 40
0.0
 40
0.0
 40
0.3281887887
 40
0.4799193316
 40
0.6173877078
 40
0.7377105949
 40
0.8398256589
 40
0.925303162
 40
1.0
 40
1.0
 40
1.0
 40
1.0
 10
1200.2141211727
 20
-384.8800726743
 30
0.0
 10
1200.7256888171
 20
-384.8786140886
 30
0.0
 10
1201.4768662647
 20
-384.9372367364
 30
0.0
 10
1202.4166933686
 20
-385.1502313779
 30
0.0
 10
1203.0212516159
 20
-385.3604672637
 30
0.0
 10
1203.5220701529
 20
-385.6183258085
 30
0.0
 10
1203.903746432
 20
-385.9158824527
 30
0.0
 10
1204.1509044254
 20
-386.2502208666
 30
0.0
 10
1204.2136863957
 20
-386.5013558933
 30
0.0
 10
1204.2140965858
 20
-386.6177901072
 30
0.0
  0
SPLINE
  5
6E4
100
AcDbEntity
  8
0
100
AcDbSpline
 62
9
  6
CONTINUOUS
 70
0
 71
3
 72
14
 73
10
 74
0
 42
0.0000001
 43
0.0000001
 44
0.0000000001
 40
0.0
 40
0.0
 40
0.0
 40
0.0
 40
0.3281921895
 40
0.4799238094
 40
0.6173924047
 40
0.7377145477
 40
0.8398281047
 40
0.9253039199
 40
1.0
 40
1.0
 40
1.0
 40
1.0
 10
1268.2123186023
 20
-384.8800190041
 30
0.0
 10
1267.7007397564
 20
-384.8785584537
 30
0.0
 10
1266.9495461756
 20
-384.9371820155
 30
0.0
 10
1266.009702048
 20
-385.1501854791
 30
0.0
 10
1265.4051378737
 20
-385.3604299062
 30
0.0
 10
1264.9043204159
 20
-385.6182983486
 30
0.0
 10
1264.5226524192
 20
-385.9158654366
 30
0.0
 10
1264.2755107348
 20
-386.2502156707
 30
0.0
 10
1264.2127486753
 20
-386.5013557142
 30
0.0
 10
1264.2123484582
 20
-386.6177901257
 30
0.0
  0
SPLINE
  5
6E5
100
AcDbEntity
  8
0
100
AcDbSpline
 62
9
  6
CONTINUOUS
 70
0
 71
3
 72
20
 73
16
 74
0
 42
0.0000001
 43
0.0000001
 44
0.0000000001
 40
0.0
 40
0.0
 40
0.0
 40
0.0
 40
0.0067298775
 40
0.0131051294
 40
0.021725814
 40
0.0458470945
 40
0.0790306302
 40
0.1209960339
 40
0.1713672687
 40
0.2296702958
 40
0.2953768114
 40
0.4464042598
 40
0.6186627859
 40
0.8056189042
 40
1.0
 40
1.0
 40
1.0
 40
1.0
 10
1134.2132198867
 20
-374.956528368
 30
0.0
 10
1134.2137992134
 20
-375.0128459161
 30
0.0
 10
1134.3380864631
 20
-375.0821208043
 30
0.0
 10
1134.4981037922
 20
-375.1375916629
 30
0.0
 10
1134.8217267982
 20
-375.2202910544
 30
0.0
 10
1135.3616876607
 20
-375.3117725241
 30
0.0
 10
1136.1878328933
 20
-375.418002921
 30
0.0
 10
1137.2327897223
 20
-375.5187287563
 30
0.0
 10
1138.4901450396
 20
-375.6143213281
 30
0.0
 10
1139.9466874486
 20
-375.7039132011
 30
0.0
 10
1142.2455125621
 20
-375.8205072723
 30
0.0
 10
1145.498798248
 20
-375.9405653269
 30
0.0
 10
1149.767727246
 20
-376.0433598333
 30
0.0
 10
1154.4002578121
 20
-376.1067114275
 30
0.0
 10
1157.5915851252
 20
-376.1209642408
 30
0.0
 10
1159.2183080429
 20
-376.1209791227
 30
0.0
  0
SPLINE
  5
6E6
100
AcDbEntity
  8
0
100
AcDbSpline
 62
9
  6
CONTINUOUS
 70
0
 71
3
 72
29
 73
25
 74
0
 42
0.0000001
 43
0.0000001
 44
0.0000000001
 40
0.0
 40
0.0
 40
0.0
 40
0.0
 40
0.0698961602
 40
0.1366132333
 40
0.1999821062
 40
0.2600349982
 40
0.3171560168
 40
0.372494697
 40
0.4004334457
 40
0.429664421
 40
0.4620908849
 40
0.4804052364
 40
0.5000033475
 40
0.5195996742
 40
0.5379120615
 40
0.5703367689
 40
0.5995674702
 40
0.6275060733
 40
0.6828446819
 40
0.7399656367
 40
0.8000184455
 40
0.8633872036
 40
0.9301040766
 40
1.0
 40
1.0
 40
1.0
 40
1.0
 10
1200.2141211727
 20
-384.8800769684
 30
0.0
 10
1200.2278089628
 20
-388.6707531772
 30
0.0
 10
1200.5591150049
 20
-396.082461998
 30
0.0
 10
1201.9451430014
 20
-406.8517652304
 30
0.0
 10
1204.1575882238
 20
-416.9382848948
 30
0.0
 10
1207.1939092952
 20
-426.2674505582
 30
0.0
 10
1211.1315716812
 20
-434.7806703644
 30
0.0
 10
1215.3864550053
 20
-441.1570432105
 30
0.0
 10
1219.6020407317
 20
-445.5911929494
 30
0.0
 10
1223.4519215183
 20
-448.5913388938
 30
0.0
 10
1227.3831594143
 20
-450.5309817737
 30
0.0
 10
1231.0907307107
 20
-451.4863847194
 30
0.0
 10
1234.2136694211
 20
-451.7611580489
 30
0.0
 10
1237.3365029931
 20
-451.4863219199
 30
0.0
 10
1241.0437132811
 20
-450.5307196162
 30
0.0
 10
1244.9747126011
 20
-448.5911479327
 30
0.0
 10
1248.8245393643
 20
-445.5911129772
 30
0.0
 10
1253.0400332843
 20
-441.1569119626
 30
0.0
 10
1257.2949379233
 20
-434.7805812549
 30
0.0
 10
1261.2325653333
 20
-426.2673523239
 30
0.0
 10
1264.2688708209
 20
-416.9381992698
 30
0.0
 10
1266.4813091262
 20
-406.8516995733
 30
0.0
 10
1267.867326265
 20
-396.0824254139
 30
0.0
 10
1268.1986325718
 20
-388.670740341
 30
0.0
 10
1268.2123186006
 20
-384.8800769684
 30
0.0
  0
SPLINE
  5
6E7
100
AcDbEntity
  8
0
100
AcDbSpline
 62
9
  6
CONTINUOUS
 70
0
 71
3
 72
9
 73
5
 74
0
 42
0.0000001
 43
0.0000001
 44
0.0000000001
 40
0.0
 40
0.0
 40
0.0
 40
0.0
 40
0.250079213
 40
1.0
 40
1.0
 40
1.0
 40
1.0
 10
1206.3271347366
 20
-346.1209528808
 30
0.0
 10
1205.8847374096
 20
-347.4141430275
 30
0.0
 10
1204.2334230824
 20
-352.6253316291
 30
0.0
 10
1203.0088636841
 20
-357.9674088871
 30
0.0
 10
1202.2896819455
 20
-362.0023915314
 30
0.0
  0
ELLIPSE
  5
6E8
100
AcDbEntity
  8
02___PRT_ALL_AXES
100
AcDbEllipse
 62
7
  6
CONTINUOUS
 10
185.3506689624
 20
60.3653962243
 30
0.0
 11
65.0
 21
0.0
 31
0.0
 40
0.4615384615
 41
0.0
 42
6.2831853072
  0
ELLIPSE
  5
6E9
100
AcDbEntity
  8
02___PRT_ALL_AXES
100
AcDbEllipse
 62
7
  6
CONTINUOUS
 10
1234.2132198867
 20
-386.1209528808
 30
0.0
 11
0.0
 21
65.0
 31
0.0
 40
0.4615384615
 41
7.6996156408
 42
11.149919124
  0
ENDSEC
  0
SECTION
  2
OBJECTS
  0
DICTIONARY
  5
C
100
AcDbDictionary
280
0
281
1
  3
ACAD_GROUP
350
D
  3
ACAD_MLINESTYLE
350
17
  3
ACAD_LAYOUT
350
1A
  3
ACAD_PLOTSETTINGS
350
19
  3
ACAD_PLOTSTYLENAME
350
E
  0
DICTIONARY
  5
D
102
{ACAD_REACTORS
330
C
102
}
100
AcDbDictionary
280
0
281
1
  0
ACDBDICTIONARYWDFLT
  5
E
102
{ACAD_REACTORS
330
C
102
}
100
AcDbDictionary
281
1
  3
Normal
350
F
100
AcDbDictionaryWithDefault
340
F
  0
DICTIONARY
  5
17
102
{ACAD_REACTORS
330
C
102
}
100
AcDbDictionary
280
0
281
1
  3
Standard
350
18
  0
DICTIONARY
  5
19
102
{ACAD_REACTORS
330
C
102
}
100
AcDbDictionary
281
1
  0
DICTIONARY
  5
1A
102
{ACAD_REACTORS
330
C
102
}
100
AcDbDictionary
281
1
  3
Model
350
6EA
  3
Layout1
350
6EB
  0
ACDBPLACEHOLDER
  5
F
102
{ACAD_REACTORS
330
E
102
}
  0
MLINESTYLE
  5
18
102
{ACAD_REACTORS
330
17
102
}
100
AcDbMlineStyle
  2
STANDARD
 70
0
  3

 62
256
 51
90.0
 52
90.0
 71
2
 49
0.5
 62
256
  6
BYLAYER
 49
-0.5
 62
256
  6
BYLAYER
  0
LAYOUT
  5
6EA
102
{ACAD_REACTORS
330
1A
102
}
100
AcDbPlotSettings
  1

  2
none_device
  4

  6

 40
0.0
 41
0.0
 42
0.0
 43
0.0
 44
210.0
 45
297.0
 46
0.0
 47
0.0
 48
0.0
 49
0.0
140
0.0
141
0.0
142
1.0
143
1.0
 70
1024
 72
1
 73
0
 74
0
  7

 75
0
147
1.0
148
0.0
149
0.0
100
AcDbLayout
  1
Model
 70
0
 71
0
 10
0.0
 20
0.0
 11
210.0
 21
297.0
 12
0.0
 22
0.0
 32
0.0
 14
0.0
 24
0.0
 34
0.0
 15
0.0
 25
0.0
 35
0.0
146
0.0
 13
0.0
 23
0.0
 33
0.0
 16
1.0
 26
0.0
 36
0.0
 17
0.0
 27
1.0
 37
0.0
 76
0
330
21A
345
0
346
0
  0
LAYOUT
  5
6EB
102
{ACAD_REACTORS
330
1A
102
}
100
AcDbPlotSettings
  1

  2
none_device
  4

  6

 40
0.0
 41
0.0
 42
0.0
 43
0.0
 44
210.0
 45
297.0
 46
0.0
 47
0.0
 48
0.0
 49
0.0
140
0.0
141
0.0
142
1.0
143
1.0
 70
0
 72
1
 73
0
 74
0
  7

 75
0
147
1.0
148
0.0
149
0.0
100
AcDbLayout
  1
Layout1
 70
0
 71
1
 10
0.0
 20
0.0
 11
210.0
 21
297.0
 12
0.0
 22
0.0
 32
0.0
 14
0.0
 24
0.0
 34
0.0
 15
0.0
 25
0.0
 35
0.0
146
0.0
 13
0.0
 23
0.0
 33
0.0
 16
1.0
 26
0.0
 36
0.0
 17
0.0
 27
1.0
 37
0.0
 76
0
330
21B
345
0
346
0
  0
ENDSEC
  0
EOF
