999
DXF file: s100_t_2.dxf
999
Pro/ENGINEER 2011370 by Parametric Technology Corporation
  0
SECTION
  2
HEADER
  9
$ACADVER
  1
AC1015
  9
$DWGCODEPAGE
  3
ANSI_1252
  9
$EXTMAX
 10
210.0
 20
297.0
 30
0.0
  9
$EXTMIN
 10
0.0
 20
0.0
 30
0.0
  9
$LIMMIN
 10
0.0
 20
0.0
  9
$LIMMAX
 10
210.0
 20
297.0
  9
$VIEWCTR
 10
105.0
 20
148.5
  9
$VIEWSIZE
 40
297.0
  9
$CLAYER
  8
0
  9
$LTSCALE
 40
19.36
  9
$CELTYPE
  6
BYLAYER
  9
$DIMSCALE
 40
1.0
  9
$DIMASZ
 40
2.0
  9
$DIMEXO
 40
2.2
  9
$DIMDLI
 40
13.376
  9
$DIMEXE
 40
6.336
  9
$DIMCEN
 40
3.168
  9
$DIMLFAC
 40
1.0
  9
$DIMBLK
  1
_FILLED
  9
$DIMTXT
 40
2.0
  9
$DIMTOL
 70
0
  9
$DIMLIM
 70
0
  9
$DIMTFAC
 40
1.0
  9
$PDMODE
 70
3
  9
$PDSIZE
 40
0.3125
  9
$HANDSEED
  5
68F
  9
$TILEMODE
 70
1
  9
$MEASUREMENT
 70
1
  9
$INSUNITS
 70
4
  0
ENDSEC
  0
SECTION
  2
CLASSES
  0
CLASS
  1
ACDBDICTIONARYWDFLT
  2
AcDbDictionaryWithDefault
  3
AutoCAD 2000
 90
0
280
0
281
0
  0
CLASS
  1
ACDBPLACEHOLDER
  2
AcDbPlaceHolder
  3
AutoCAD 2000
 90
0
280
0
281
0
  0
CLASS
  1
LAYOUT
  2
AcDbLayout
  3
AutoCAD 2000
 90
0
280
0
281
0
  0
ENDSEC
  0
SECTION
  2
TABLES
  0
TABLE
  2
VPORT
  5
8
100
AcDbSymbolTable
 70
2
  0
VPORT
  5
1F4
100
AcDbSymbolTableRecord
100
AcDbViewportTableRecord
  2
*ACTIVE
 70
0
 10
0.0
 20
0.0
 11
1.0
 21
1.0
 12
105.0
 22
148.5
 13
0.0
 23
0.0
 14
1.0
 24
1.0
 15
0.0
 25
0.0
 16
0.0
 26
0.0
 36
1.0
 17
0.0
 27
0.0
 37
0.0
 40
297.0
 41
0.7070707071
 42
50.0
 43
0.0
 44
0.0
 50
0.0
 51
0.0
 71
0
 72
100
 73
1
 74
1
 75
0
 76
0
 77
0
 78
0
  0
ENDTAB
  0
TABLE
  2
LTYPE
  5
5
100
AcDbSymbolTable
 70
6
  0
LTYPE
  5
14
100
AcDbSymbolTableRecord
100
AcDbLinetypeTableRecord
  2
BYBLOCK
 70
0
  3

 72
65
 73
0
 40
0.0
  0
LTYPE
  5
15
100
AcDbSymbolTableRecord
100
AcDbLinetypeTableRecord
  2
BYLAYER
 70
0
  3

 72
65
 73
0
 40
0.0
  0
LTYPE
  5
16
100
AcDbSymbolTableRecord
100
AcDbLinetypeTableRecord
  2
CONTINUOUS
 70
64
  3
Solid line
 72
65
 73
0
 40
0.0
  0
LTYPE
  5
1F5
100
AcDbSymbolTableRecord
100
AcDbLinetypeTableRecord
  2
CENTER
 70
64
  3
____ _ ____ _ ____ _ ____ _ ____ _ ____ _ ____
 72
65
 73
4
 40
0.6
 49
0.375
 74
0
 49
-0.075
 74
0
 49
0.075
 74
0
 49
-0.075
 74
0
  0
LTYPE
  5
1F6
100
AcDbSymbolTableRecord
100
AcDbLinetypeTableRecord
  2
HIDDEN
 70
64
  3
- - - - - - - - - - - - - - - - - - - -
 72
65
 73
2
 40
0.2
 49
0.1
 74
0
 49
-0.1
 74
0
  0
LTYPE
  5
1F7
100
AcDbSymbolTableRecord
100
AcDbLinetypeTableRecord
  2
PHANTOM
 70
64
  3
_____ _ _ _____ _ _ _____ _ _ _____
 72
65
 73
6
 40
0.8
 49
0.45
 74
0
 49
-0.05
 74
0
 49
0.1
 74
0
 49
-0.05
 74
0
 49
0.1
 74
0
 49
-0.05
 74
0
  0
LTYPE
  5
1F8
100
AcDbSymbolTableRecord
100
AcDbLinetypeTableRecord
  2
DOT
 70
64
  3
. . . . . . . . . . . . . . . . . . . .
 72
65
 73
2
 40
0.2
 49
0.1
 74
0
 49
-0.1
 74
0
  0
LTYPE
  5
1F9
100
AcDbSymbolTableRecord
100
AcDbLinetypeTableRecord
  2
DASHED
 70
64
  3
- - - - - - - - - - - - - - - - - - - -
 72
65
 73
2
 40
0.2
 49
0.1
 74
0
 49
-0.1
 74
0
  0
ENDTAB
  0
TABLE
  2
LAYER
  5
2
100
AcDbSymbolTable
 70
36
  0
LAYER
  5
10
100
AcDbSymbolTableRecord
100
AcDbLayerTableRecord
  2
0
 70
0
 62
7
  6
CONTINUOUS
370
-3
390
F
  0
LAYER
  5
1FA
100
AcDbSymbolTableRecord
100
AcDbLayerTableRecord
  2
DEFAULT_1
 70
0
 62
7
  6
CENTER
370
-3
390
F
  0
LAYER
  5
1FB
100
AcDbSymbolTableRecord
100
AcDbLayerTableRecord
  2
DEFAULT_2
 70
0
 62
8
  6
HIDDEN
370
-3
390
F
  0
LAYER
  5
1FC
100
AcDbSymbolTableRecord
100
AcDbLayerTableRecord
  2
DEFAULT_3
 70
0
 62
7
  6
PHANTOM
370
-3
390
F
  0
LAYER
  5
1FD
100
AcDbSymbolTableRecord
100
AcDbLayerTableRecord
  2
01___PRT_ALL_DTM_PLN
 70
0
 62
7
  6
CONTINUOUS
370
-3
390
F
  0
LAYER
  5
1FE
100
AcDbSymbolTableRecord
100
AcDbLayerTableRecord
  2
01___PRT_DEF_DTM_PLN
 70
0
 62
7
  6
CONTINUOUS
370
-3
390
F
  0
LAYER
  5
1FF
100
AcDbSymbolTableRecord
100
AcDbLayerTableRecord
  2
02___PRT_ALL_AXES
 70
0
 62
7
  6
CONTINUOUS
370
-3
390
F
  0
LAYER
  5
200
100
AcDbSymbolTableRecord
100
AcDbLayerTableRecord
  2
03___PRT_ALL_CURVES
 70
0
 62
7
  6
CONTINUOUS
370
-3
390
F
  0
LAYER
  5
201
100
AcDbSymbolTableRecord
100
AcDbLayerTableRecord
  2
04___PRT_ALL_DTM_PNT
 70
0
 62
7
  6
CONTINUOUS
370
-3
390
F
  0
LAYER
  5
202
100
AcDbSymbolTableRecord
100
AcDbLayerTableRecord
  2
05___PRT_ALL_DTM_CSYS
 70
0
 62
7
  6
CONTINUOUS
370
-3
390
F
  0
LAYER
  5
203
100
AcDbSymbolTableRecord
100
AcDbLayerTableRecord
  2
05___PRT_DEF_DTM_CSYS
 70
0
 62
7
  6
CONTINUOUS
370
-3
390
F
  0
LAYER
  5
204
100
AcDbSymbolTableRecord
100
AcDbLayerTableRecord
  2
06___PRT_ALL_SURFS
 70
0
 62
7
  6
CONTINUOUS
370
-3
390
F
  0
LAYER
  5
205
100
AcDbSymbolTableRecord
100
AcDbLayerTableRecord
  2
1_ALL_PLANES
 70
0
 62
7
  6
CONTINUOUS
370
-3
390
F
  0
LAYER
  5
206
100
AcDbSymbolTableRecord
100
AcDbLayerTableRecord
  2
1_SISCO
 70
0
 62
7
  6
CONTINUOUS
370
-3
390
F
  0
LAYER
  5
207
100
AcDbSymbolTableRecord
100
AcDbLayerTableRecord
  2
1__DEF_ASM_PLN
 70
0
 62
7
  6
CONTINUOUS
370
-3
390
F
  0
LAYER
  5
208
100
AcDbSymbolTableRecord
100
AcDbLayerTableRecord
  2
1__DEF_PLANES
 70
0
 62
7
  6
CONTINUOUS
370
-3
390
F
  0
LAYER
  5
209
100
AcDbSymbolTableRecord
100
AcDbLayerTableRecord
  2
2_ALL_CSYS
 70
0
 62
7
  6
CONTINUOUS
370
-3
390
F
  0
LAYER
  5
20A
100
AcDbSymbolTableRecord
100
AcDbLayerTableRecord
  2
2_PIANI
 70
0
 62
7
  6
CONTINUOUS
370
-3
390
F
  0
LAYER
  5
20B
100
AcDbSymbolTableRecord
100
AcDbLayerTableRecord
  2
2__DEF_ASM_CSYS
 70
0
 62
7
  6
CONTINUOUS
370
-3
390
F
  0
LAYER
  5
20C
100
AcDbSymbolTableRecord
100
AcDbLayerTableRecord
  2
2__DEF_CSYS
 70
0
 62
7
  6
CONTINUOUS
370
-3
390
F
  0
LAYER
  5
20D
100
AcDbSymbolTableRecord
100
AcDbLayerTableRecord
  2
3_ALL_AXES
 70
0
 62
7
  6
CONTINUOUS
370
-3
390
F
  0
LAYER
  5
20E
100
AcDbSymbolTableRecord
100
AcDbLayerTableRecord
  2
3_PUNTI
 70
0
 62
7
  6
CONTINUOUS
370
-3
390
F
  0
LAYER
  5
20F
100
AcDbSymbolTableRecord
100
AcDbLayerTableRecord
  2
4_ALL_POINTS
 70
0
 62
7
  6
CONTINUOUS
370
-3
390
F
  0
LAYER
  5
210
100
AcDbSymbolTableRecord
100
AcDbLayerTableRecord
  2
4_CURVE
 70
0
 62
7
  6
CONTINUOUS
370
-3
390
F
  0
LAYER
  5
211
100
AcDbSymbolTableRecord
100
AcDbLayerTableRecord
  2
5_ALL_CURVES
 70
0
 62
7
  6
CONTINUOUS
370
-3
390
F
  0
LAYER
  5
212
100
AcDbSymbolTableRecord
100
AcDbLayerTableRecord
  2
5_SUPERFICI
 70
0
 62
7
  6
CONTINUOUS
370
-3
390
F
  0
LAYER
  5
213
100
AcDbSymbolTableRecord
100
AcDbLayerTableRecord
  2
6_ALL_SURFS
 70
0
 62
7
  6
CONTINUOUS
370
-3
390
F
  0
LAYER
  5
214
100
AcDbSymbolTableRecord
100
AcDbLayerTableRecord
  2
7_ALL_QUILTS
 70
0
 62
7
  6
CONTINUOUS
370
-3
390
F
  0
LAYER
  5
215
100
AcDbSymbolTableRecord
100
AcDbLayerTableRecord
  2
8_ALL_CGFEAT
 70
0
 62
7
  6
CONTINUOUS
370
-3
390
F
  0
LAYER
  5
216
100
AcDbSymbolTableRecord
100
AcDbLayerTableRecord
  2
9_ALL_THREAD
 70
0
 62
7
  6
CONTINUOUS
370
-3
390
F
  0
LAYER
  5
217
100
AcDbSymbolTableRecord
100
AcDbLayerTableRecord
  2
FILETTATURE
 70
0
 62
7
  6
CONTINUOUS
370
-3
390
F
  0
ENDTAB
  0
TABLE
  2
STYLE
  5
3
100
AcDbSymbolTable
 70
1
  0
STYLE
  5
11
100
AcDbSymbolTableRecord
100
AcDbTextStyleTableRecord
  2
STANDARD
 70
0
 40
0.0
 41
1.0
 50
0.0
 71
0
 42
0.2
  3
arial.ttf
  4

  0
STYLE
  5
218
100
AcDbSymbolTableRecord
100
AcDbTextStyleTableRecord
  2
TEXTSTYLE_1
 70
0
 40
0.0
 41
0.8
 50
0.0
 71
0
 42
0.2
  3
gdt
  4

  0
ENDTAB
  0
TABLE
  2
VIEW
  5
6
100
AcDbSymbolTable
 70
0
  0
ENDTAB
  0
TABLE
  2
UCS
  5
7
100
AcDbSymbolTable
 70
0
  0
ENDTAB
  0
TABLE
  2
APPID
  5
9
100
AcDbSymbolTable
 70
1
  0
APPID
  5
219
100
AcDbSymbolTableRecord
100
AcDbRegAppTableRecord
  2
ACAD
 70
0
  0
ENDTAB
  0
TABLE
  2
BLOCK_RECORD
  5
1
100
AcDbSymbolTable
 70
0
  0
BLOCK_RECORD
  5
21A
100
AcDbSymbolTableRecord
100
AcDbBlockTableRecord
  2
*Model_Space
  0
BLOCK_RECORD
  5
21B
100
AcDbSymbolTableRecord
100
AcDbBlockTableRecord
  2
*Paper_Space
  0
ENDTAB
  0
TABLE
  2
DIMSTYLE
  5
A
100
AcDbSymbolTable
 70
1
100
AcDbDimStyleTable
 71
0
  0
DIMSTYLE
105
21C
100
AcDbSymbolTableRecord
100
AcDbDimStyleTableRecord
  2
STANDARD
 70
0
  3

  4

 40
1.0
 41
2.0
 42
0.0625
 43
0.38
 44
0.18
 45
0.0
 46
0.0
 47
0.01
 48
0.01
140
2.0
141
0.09
142
0.0
143
25.4
144
1.0
145
0.0
146
1.0
147
0.09
 71
0.0
 72
0.0
 73
1
 74
1
 75
0
 76
0
 77
0
 78
8
170
0
171
2
172
0
173
0
174
0
175
0
176
0
177
0
178
0
270
2
271
2
272
2
273
2
274
2
275
0
280
0
281
0
282
0
283
1
284
8
285
0
286
0
287
3
288
0
340
11
  0
ENDTAB
  0
ENDSEC
  0
SECTION
  2
BLOCKS
  0
BLOCK
  5
20
100
AcDbEntity
  8
0
100
AcDbBlockBegin
  2
*Model_Space
 70
0
 10
0.0
 20
0.0
 30
0.0
  3
*Model_Space
  1

  0
ENDBLK
  5
21
100
AcDbEntity
  8
0
100
AcDbBlockEnd
  0
BLOCK
  5
1C
100
AcDbEntity
  8
0
100
AcDbBlockBegin
  2
*Paper_Space
 70
0
 10
0.0
 20
0.0
 30
0.0
  3
*Paper_Space
  1

  0
ENDBLK
  5
1D
100
AcDbEntity
  8
0
100
AcDbBlockEnd
  0
ENDSEC
  0
SECTION
  2
ENTITIES
  0
LINE
  5
21D
100
AcDbEntity
  8
0
100
AcDbLine
 62
7
  6
CONTINUOUS
 10
616.8865645686
 20
287.1796764845
 11
616.8865645686
 21
83.7481731763
  0
LINE
  5
21E
100
AcDbEntity
  8
0
100
AcDbLine
 62
7
  6
CONTINUOUS
 10
622.7444274972
 20
69.6060389294
 11
631.0286741863
 21
61.3217905977
  0
LINE
  5
21F
100
AcDbEntity
  8
0
100
AcDbLine
 62
9
  6
CONTINUOUS
 10
622.7444274972
 20
69.6060389294
 11
622.7444274972
 21
301.3218107314
  0
LINE
  5
220
100
AcDbEntity
  8
0
100
AcDbLine
 62
9
  6
CONTINUOUS
 10
631.0286742105
 20
309.6060590751
 11
631.0286742105
 21
61.3217905857
  0
LINE
  5
221
100
AcDbEntity
  8
0
100
AcDbLine
 62
9
  6
CONTINUOUS
 10
645.1708112138
 20
315.4639248175
 11
645.1708112138
 21
55.4639248433
  0
LINE
  5
222
100
AcDbEntity
  8
0
100
AcDbLine
 62
7
  6
CONTINUOUS
 10
686.8865645686
 20
65.4639248304
 11
696.8865645686
 21
55.4639248304
  0
LINE
  5
223
100
AcDbEntity
  8
0
100
AcDbLine
 62
7
  6
CONTINUOUS
 10
686.8865645686
 20
315.4624011933
 11
686.8865645686
 21
55.4654484676
  0
LINE
  5
224
100
AcDbEntity
  8
0
100
AcDbLine
 62
7
  6
CONTINUOUS
 10
696.8865645686
 20
315.4639248304
 11
696.8865645686
 21
55.4639248304
  0
LINE
  5
225
100
AcDbEntity
  8
0
100
AcDbLine
 62
7
  6
CONTINUOUS
 10
701.8865645686
 20
25.4639248304
 11
701.8865645686
 21
29.4639248304
  0
LINE
  5
226
100
AcDbEntity
  8
0
100
AcDbLine
 62
7
  6
CONTINUOUS
 10
622.7444274972
 20
301.3218107314
 11
631.0286741863
 21
309.6060590631
  0
LINE
  5
227
100
AcDbEntity
  8
0
100
AcDbLine
 62
9
  6
CONTINUOUS
 10
716.8865645686
 20
25.4639248304
 11
716.8865645686
 21
29.4639248304
  0
LINE
  5
228
100
AcDbEntity
  8
0
100
AcDbLine
 62
9
  6
CONTINUOUS
 10
737.8865645686
 20
29.4639248304
 11
737.8865645686
 21
25.4639248304
  0
LINE
  5
229
100
AcDbEntity
  8
0
100
AcDbLine
 62
3
  6
CONTINUOUS
 10
741.8865645686
 20
45.4639248304
 11
741.8865645686
 21
33.4639248304
  0
LINE
  5
22A
100
AcDbEntity
  8
0
100
AcDbLine
 62
7
  6
CONTINUOUS
 10
745.8865645686
 20
45.4639248304
 11
745.8865645686
 21
33.4639248304
  0
LINE
  5
22B
100
AcDbEntity
  8
0
100
AcDbLine
 62
7
  6
CONTINUOUS
 10
747.8865645686
 20
53.4639248304
 11
747.8865645686
 21
68.4639248304
  0
LINE
  5
22C
100
AcDbEntity
  8
0
100
AcDbLine
 62
9
  6
CONTINUOUS
 10
749.8865645686
 20
53.4639248304
 11
749.8865645686
 21
49.4639248304
  0
LINE
  5
22D
100
AcDbEntity
  8
0
100
AcDbLine
 62
7
  6
CONTINUOUS
 10
686.8865645686
 20
305.4639248304
 11
696.8865645686
 21
315.4639248304
  0
LINE
  5
22E
100
AcDbEntity
  8
0
100
AcDbLine
 62
7
  6
CONTINUOUS
 10
1262.3865645686
 20
25.4639248304
 11
1212.3865645686
 21
25.4639248304
  0
LINE
  5
22F
100
AcDbEntity
  8
0
100
AcDbLine
 62
7
  6
CONTINUOUS
 10
1011.8865645686
 20
25.4639248304
 11
975.8865645686
 21
25.4639248304
  0
LINE
  5
230
100
AcDbEntity
  8
0
100
AcDbLine
 62
7
  6
CONTINUOUS
 10
737.8865645686
 20
25.4639248304
 11
701.8865645686
 21
25.4639248304
  0
LINE
  5
231
100
AcDbEntity
  8
0
100
AcDbLine
 62
7
  6
CONTINUOUS
 10
1317.3865645686
 20
28.4639248304
 11
1262.3865645686
 21
28.4639248304
  0
LINE
  5
232
100
AcDbEntity
  8
0
100
AcDbLine
 62
7
  6
CONTINUOUS
 10
1212.3865645686
 20
28.4639248304
 11
1157.3865645686
 21
28.4639248304
  0
LINE
  5
233
100
AcDbEntity
  8
0
100
AcDbLine
 62
3
  6
CONTINUOUS
 10
701.8865645686
 20
29.4639248304
 11
737.8865645686
 21
29.4639248304
  0
LINE
  5
234
100
AcDbEntity
  8
0
100
AcDbLine
 62
3
  6
CONTINUOUS
 10
975.8865645686
 20
29.4639248304
 11
1011.8865645686
 21
29.4639248304
  0
LINE
  5
235
100
AcDbEntity
  8
0
100
AcDbLine
 62
9
  6
CONTINUOUS
 10
971.8865645686
 20
33.4639248304
 11
967.8865645686
 21
33.4639248304
  0
LINE
  5
236
100
AcDbEntity
  8
0
100
AcDbLine
 62
9
  6
CONTINUOUS
 10
741.8865645686
 20
33.4639248304
 11
745.8865645686
 21
33.4639248304
  0
LINE
  5
237
100
AcDbEntity
  8
02___PRT_ALL_AXES
100
AcDbLine
 62
7
  6
CONTINUOUS
 10
1336.2810081002
 20
35.4639248304
 11
1352.3865645686
 21
35.4639248304
  0
LINE
  5
238
100
AcDbEntity
  8
0
100
AcDbLine
 62
9
  6
CONTINUOUS
 10
1212.3865645686
 20
40.4639248304
 11
1262.3865645686
 21
40.4639248304
  0
LINE
  5
239
100
AcDbEntity
  8
0
100
AcDbLine
 62
7
  6
CONTINUOUS
 10
1215.3865645686
 20
43.4639248304
 11
1259.3865645686
 21
43.4639248304
  0
LINE
  5
23A
100
AcDbEntity
  8
0
100
AcDbLine
 62
9
  6
CONTINUOUS
 10
971.8865645686
 20
45.4639248304
 11
967.8865645686
 21
45.4639248304
  0
LINE
  5
23B
100
AcDbEntity
  8
0
100
AcDbLine
 62
9
  6
CONTINUOUS
 10
741.8865645686
 20
45.4639248304
 11
745.8865645686
 21
45.4639248304
  0
LINE
  5
23C
100
AcDbEntity
  8
0
100
AcDbLine
 62
7
  6
CONTINUOUS
 10
963.8865645686
 20
49.4639248304
 11
749.8865645686
 21
49.4639248304
  0
LINE
  5
23D
100
AcDbEntity
  8
0
100
AcDbLine
 62
7
  6
CONTINUOUS
 10
1131.8865645686
 20
50.4639248304
 11
1122.8865645686
 21
50.4639248304
  0
LINE
  5
23E
100
AcDbEntity
  8
0
100
AcDbLine
 62
3
  6
CONTINUOUS
 10
963.8865645686
 20
53.4639248304
 11
749.8865645686
 21
53.4639248304
  0
LINE
  5
23F
100
AcDbEntity
  8
0
100
AcDbLine
 62
7
  6
CONTINUOUS
 10
747.8865645686
 20
53.4639248304
 11
749.8865645686
 21
53.4639248304
  0
LINE
  5
240
100
AcDbEntity
  8
0
100
AcDbLine
 62
7
  6
CONTINUOUS
 10
963.8865645686
 20
53.4639248304
 11
965.8865645686
 21
53.4639248304
  0
LINE
  5
241
100
AcDbEntity
  8
02___PRT_ALL_AXES
100
AcDbLine
 62
7
  6
CONTINUOUS
 10
645.170811205
 20
55.4639248304
 11
686.8865645686
 21
55.4639248304
  0
LINE
  5
242
100
AcDbEntity
  8
02___PRT_ALL_AXES
100
AcDbLine
 62
7
  6
CONTINUOUS
 10
696.8865645686
 20
55.4639248304
 11
747.8865645686
 21
55.4639248304
  0
LINE
  5
243
100
AcDbEntity
  8
02___PRT_ALL_AXES
100
AcDbLine
 62
7
  6
CONTINUOUS
 10
965.8865645686
 20
55.4639248304
 11
1014.8865645056
 21
55.4639248304
  0
LINE
  5
244
100
AcDbEntity
  8
02___PRT_ALL_AXES
100
AcDbLine
 62
7
  6
CONTINUOUS
 10
1262.3865645686
 20
61.7720467268
 11
1212.3865645686
 21
61.7720467268
  0
LINE
  5
245
100
AcDbEntity
  8
3_ALL_AXES
100
AcDbLine
 62
7
  6
CONTINUOUS
 10
1132.3865645686
 20
62.9639248304
 11
1131.8865645686
 21
62.9639248304
  0
LINE
  5
246
100
AcDbEntity
  8
0
100
AcDbLine
 62
7
  6
CONTINUOUS
 10
747.8865645686
 20
68.4639248304
 11
965.8865645686
 21
68.4639248304
  0
LINE
  5
247
100
AcDbEntity
  8
0
100
AcDbLine
 62
7
  6
CONTINUOUS
 10
844.8865645686
 20
295.0084363314
 11
844.8865645686
 21
365.4639248304
  0
LINE
  5
248
100
AcDbEntity
  8
0
100
AcDbLine
 62
9
  6
CONTINUOUS
 10
1114.8911854719
 20
109.2659661837
 11
1117.8865645686
 21
109.4324115712
  0
LINE
  5
249
100
AcDbEntity
  8
3_ALL_AXES
100
AcDbLine
 62
7
  6
CONTINUOUS
 10
1047.8865645686
 20
85.4639248304
 11
1035.8865645686
 21
85.4639248304
  0
LINE
  5
24A
100
AcDbEntity
  8
0
100
AcDbLine
 62
7
  6
CONTINUOUS
 10
1035.8865645686
 20
85.4639248304
 11
1116.8865645686
 21
85.4639248304
  0
LINE
  5
24B
100
AcDbEntity
  8
0
100
AcDbLine
 62
9
  6
CONTINUOUS
 10
1049.8865645686
 20
87.4639248304
 11
1120.8865645686
 21
87.4639248302
  0
LINE
  5
24C
100
AcDbEntity
  8
02___PRT_ALL_AXES
100
AcDbLine
 62
7
  6
CONTINUOUS
 10
1352.3865645686
 20
95.4639248304
 11
1346.3865645686
 21
95.4639248304
  0
LINE
  5
24D
100
AcDbEntity
  8
0
100
AcDbLine
 62
7
  6
CONTINUOUS
 10
1052.8865645686
 20
95.4639248304
 11
1114.8865645686
 21
95.4639248304
  0
LINE
  5
24E
100
AcDbEntity
  8
0
100
AcDbLine
 62
9
  6
CONTINUOUS
 10
1120.8865645686
 20
96.5909414839
 11
1118.8843858583
 21
96.5909414842
  0
LINE
  5
24F
100
AcDbEntity
  8
0
100
AcDbLine
 62
9
  6
CONTINUOUS
 10
1049.8865645686
 20
98.4639248304
 11
1117.8865645686
 21
98.4639248304
  0
LINE
  5
250
100
AcDbEntity
  8
0
100
AcDbLine
 62
9
  6
CONTINUOUS
 10
1117.8865645686
 20
115.4639338599
 11
1120.8865645686
 21
115.4639248304
  0
LINE
  5
251
100
AcDbEntity
  8
0
100
AcDbLine
 62
9
  6
CONTINUOUS
 10
1034.8865645686
 20
125.4639248304
 11
1049.8865645686
 21
125.4639248304
  0
LINE
  5
252
100
AcDbEntity
  8
0
100
AcDbLine
 62
7
  6
CONTINUOUS
 10
1352.3865645686
 20
130.4639248304
 11
1346.3865645686
 21
130.4639248304
  0
LINE
  5
253
100
AcDbEntity
  8
0
100
AcDbLine
 62
9
  6
CONTINUOUS
 10
1078.1443406295
 20
141.8605992692
 11
1053.8865645686
 21
141.8605992692
  0
LINE
  5
254
100
AcDbEntity
  8
0
100
AcDbLine
 62
9
  6
CONTINUOUS
 10
1078.1443406295
 20
144.7355438117
 11
1053.8865645686
 21
144.7355438117
  0
LINE
  5
255
100
AcDbEntity
  8
0
100
AcDbLine
 62
9
  6
CONTINUOUS
 10
1342.3865645686
 20
155.4639248304
 11
1352.3865645686
 21
155.4639248304
  0
LINE
  5
256
100
AcDbEntity
  8
0
100
AcDbLine
 62
9
  6
CONTINUOUS
 10
1052.837703936
 20
140.2788594584
 11
1049.8865645686
 21
140.8180963579
  0
LINE
  5
257
100
AcDbEntity
  8
0
100
AcDbLine
 62
7
  6
CONTINUOUS
 10
1368.8689264784
 20
274.6982910811
 11
1390.3865645686
 21
280.4639248304
  0
LINE
  5
258
100
AcDbEntity
  8
0
100
AcDbLine
 62
9
  6
CONTINUOUS
 10
1049.8865645686
 20
177.4639248304
 11
1047.8865645686
 21
177.4639248304
  0
LINE
  5
259
100
AcDbEntity
  8
0
100
AcDbLine
 62
9
  6
CONTINUOUS
 10
1117.8865645686
 20
177.4639248304
 11
1120.8865645686
 21
177.4639248304
  0
LINE
  5
25A
100
AcDbEntity
  8
0
100
AcDbLine
 62
9
  6
CONTINUOUS
 10
1053.8865645686
 20
177.9913973579
 11
1078.1443406295
 21
177.9913973579
  0
LINE
  5
25B
100
AcDbEntity
  8
0
100
AcDbLine
 62
7
  6
CONTINUOUS
 10
1117.8865645686
 20
180.4639248304
 11
1052.8865645686
 21
180.4639248304
  0
LINE
  5
25C
100
AcDbEntity
  8
0
100
AcDbLine
 62
9
  6
CONTINUOUS
 10
1052.8865645686
 20
182.4639248304
 11
1120.8865645686
 21
182.4639248306
  0
LINE
  5
25D
100
AcDbEntity
  8
0
100
AcDbLine
 62
9
  6
CONTINUOUS
 10
1132.3865645686
 20
185.4639248304
 11
1342.3865645686
 21
185.4639248304
  0
LINE
  5
25E
100
AcDbEntity
  8
0
100
AcDbLine
 62
9
  6
CONTINUOUS
 10
1052.8865645686
 20
188.4639248304
 11
1120.8865645686
 21
188.4639248302
  0
LINE
  5
25F
100
AcDbEntity
  8
0
100
AcDbLine
 62
7
  6
CONTINUOUS
 10
1052.8865645686
 20
190.4639248304
 11
1117.8865645686
 21
190.4639248304
  0
LINE
  5
260
100
AcDbEntity
  8
0
100
AcDbLine
 62
9
  6
CONTINUOUS
 10
1078.1443406295
 20
192.9364523029
 11
1053.8865645686
 21
192.9364523029
  0
LINE
  5
261
100
AcDbEntity
  8
0
100
AcDbLine
 62
9
  6
CONTINUOUS
 10
963.8865645686
 20
53.4639248304
 11
963.8865645686
 21
49.4639248304
  0
LINE
  5
262
100
AcDbEntity
  8
0
100
AcDbLine
 62
7
  6
CONTINUOUS
 10
965.8865645686
 20
53.4639248304
 11
965.8865645686
 21
68.4639248304
  0
LINE
  5
263
100
AcDbEntity
  8
0
100
AcDbLine
 62
7
  6
CONTINUOUS
 10
967.8865645686
 20
33.4639248304
 11
967.8865645686
 21
45.4639248304
  0
LINE
  5
264
100
AcDbEntity
  8
0
100
AcDbLine
 62
3
  6
CONTINUOUS
 10
971.8865645686
 20
33.4639248304
 11
971.8865645686
 21
45.4639248304
  0
LINE
  5
265
100
AcDbEntity
  8
0
100
AcDbLine
 62
9
  6
CONTINUOUS
 10
975.8865645686
 20
29.4639248304
 11
975.8865645686
 21
25.4639248304
  0
LINE
  5
266
100
AcDbEntity
  8
0
100
AcDbLine
 62
9
  6
CONTINUOUS
 10
1052.837703936
 20
230.6489902025
 11
1049.8865645686
 21
230.109753303
  0
LINE
  5
267
100
AcDbEntity
  8
0
100
AcDbLine
 62
9
  6
CONTINUOUS
 10
1120.8865645686
 20
193.4639248304
 11
1117.8865645686
 21
193.4639248304
  0
LINE
  5
268
100
AcDbEntity
  8
0
100
AcDbLine
 62
9
  6
CONTINUOUS
 10
1049.8865645686
 20
193.4639248304
 11
1047.8865645686
 21
193.4639248306
  0
LINE
  5
269
100
AcDbEntity
  8
0
100
AcDbLine
 62
7
  6
CONTINUOUS
 10
984.8865645686
 20
295.0084363314
 11
984.8865645686
 21
365.4639248304
  0
LINE
  5
26A
100
AcDbEntity
  8
0
100
AcDbLine
 62
9
  6
CONTINUOUS
 10
996.8865645686
 20
25.4639248304
 11
996.8865645686
 21
29.4639248304
  0
LINE
  5
26B
100
AcDbEntity
  8
0
100
AcDbLine
 62
9
  6
CONTINUOUS
 10
1342.3865645686
 20
225.4639248304
 11
1352.3865645686
 21
225.4639248304
  0
LINE
  5
26C
100
AcDbEntity
  8
0
100
AcDbLine
 62
9
  6
CONTINUOUS
 10
1053.8865645686
 20
226.1923058492
 11
1078.1443406295
 21
226.1923058492
  0
LINE
  5
26D
100
AcDbEntity
  8
0
100
AcDbLine
 62
9
  6
CONTINUOUS
 10
1053.8865645686
 20
229.0672503917
 11
1078.1443406295
 21
229.0672503917
  0
LINE
  5
26E
100
AcDbEntity
  8
0
100
AcDbLine
 62
9
  6
CONTINUOUS
 10
1034.8865645686
 20
245.4639248304
 11
1049.8865645686
 21
245.4639248304
  0
LINE
  5
26F
100
AcDbEntity
  8
0
100
AcDbLine
 62
7
  6
CONTINUOUS
 10
1352.3865645686
 20
250.4639248304
 11
1346.3865645686
 21
250.4639248304
  0
LINE
  5
270
100
AcDbEntity
  8
02___PRT_ALL_AXES
100
AcDbLine
 62
7
  6
CONTINUOUS
 10
1346.3865645686
 20
250.4639248304
 11
1352.3865645686
 21
250.4639248304
  0
LINE
  5
271
100
AcDbEntity
  8
0
100
AcDbLine
 62
7
  6
CONTINUOUS
 10
1011.8865645686
 20
25.4639248304
 11
1011.8865645686
 21
29.4639248304
  0
LINE
  5
272
100
AcDbEntity
  8
0
100
AcDbLine
 62
7
  6
CONTINUOUS
 10
1014.8865646294
 20
315.4639248304
 11
1014.8865646294
 21
55.4639248304
  0
LINE
  5
273
100
AcDbEntity
  8
0
100
AcDbLine
 62
7
  6
CONTINUOUS
 10
1034.8865645686
 20
295.4626466429
 11
1034.8865645686
 21
75.4652030179
  0
LINE
  5
274
100
AcDbEntity
  8
0
100
AcDbLine
 62
9
  6
CONTINUOUS
 10
1035.8865645686
 20
85.4639248304
 11
1035.8865645686
 21
285.4639248304
  0
LINE
  5
275
100
AcDbEntity
  8
0
100
AcDbLine
 62
9
  6
CONTINUOUS
 10
1120.8865645686
 20
255.4639248304
 11
1117.8865645686
 21
255.4639158377
  0
LINE
  5
276
100
AcDbEntity
  8
0
100
AcDbLine
 62
7
  6
CONTINUOUS
 10
1365.3865645686
 20
265.4639248304
 11
1342.3865645686
 21
265.4639248304
  0
LINE
  5
277
100
AcDbEntity
  8
0
100
AcDbLine
 62
9
  6
CONTINUOUS
 10
1049.8865645686
 20
272.4639248304
 11
1117.8865645686
 21
272.4639248304
  0
LINE
  5
278
100
AcDbEntity
  8
0
100
AcDbLine
 62
9
  6
CONTINUOUS
 10
1118.8843860054
 20
274.3369081766
 11
1120.8865645686
 21
274.3369081769
  0
LINE
  5
279
100
AcDbEntity
  8
0
100
AcDbLine
 62
7
  6
CONTINUOUS
 10
1114.8865645686
 20
275.4639248304
 11
1052.8865645686
 21
275.4639248304
  0
LINE
  5
27A
100
AcDbEntity
  8
0
100
AcDbLine
 62
9
  6
CONTINUOUS
 10
1132.3865645686
 20
282.3014305393
 11
1342.3865645686
 21
282.3014305393
  0
LINE
  5
27B
100
AcDbEntity
  8
0
100
AcDbLine
 62
9
  6
CONTINUOUS
 10
1114.8911854719
 20
261.6618834771
 11
1117.8865645686
 21
261.4954380896
  0
LINE
  5
27C
100
AcDbEntity
  8
0
100
AcDbLine
 62
9
  6
CONTINUOUS
 10
1047.8865645686
 20
285.4639248304
 11
1047.8865645686
 21
193.4639248304
  0
LINE
  5
27D
100
AcDbEntity
  8
0
100
AcDbLine
 62
9
  6
CONTINUOUS
 10
1047.8865645686
 20
177.4639248304
 11
1047.8865645686
 21
85.4639248304
  0
LINE
  5
27E
100
AcDbEntity
  8
0
100
AcDbLine
 62
7
  6
CONTINUOUS
 10
1049.8865645686
 20
283.4639248304
 11
1049.8865645686
 21
193.4639248304
  0
LINE
  5
27F
100
AcDbEntity
  8
0
100
AcDbLine
 62
7
  6
CONTINUOUS
 10
1049.8865645686
 20
177.4639248304
 11
1049.8865645686
 21
87.4639248304
  0
LINE
  5
280
100
AcDbEntity
  8
0
100
AcDbLine
 62
9
  6
CONTINUOUS
 10
1052.8865645686
 20
190.4639248304
 11
1052.8865645686
 21
188.4639248304
  0
LINE
  5
281
100
AcDbEntity
  8
0
100
AcDbLine
 62
9
  6
CONTINUOUS
 10
1052.8865645686
 20
140.0519220118
 11
1052.8865645686
 21
85.4639248304
  0
LINE
  5
282
100
AcDbEntity
  8
0
100
AcDbLine
 62
9
  6
CONTINUOUS
 10
1052.8865645686
 20
180.4639248304
 11
1052.8865645688
 21
182.4639248304
  0
LINE
  5
283
100
AcDbEntity
  8
0
100
AcDbLine
 62
9
  6
CONTINUOUS
 10
1052.8865645686
 20
230.875927649
 11
1052.8865645688
 21
285.4639248304
  0
LINE
  5
284
100
AcDbEntity
  8
0
100
AcDbLine
 62
9
  6
CONTINUOUS
 10
1053.8865645686
 20
229.0672503917
 11
1053.8865645686
 21
190.4639248304
  0
LINE
  5
285
100
AcDbEntity
  8
0
100
AcDbLine
 62
9
  6
CONTINUOUS
 10
1053.8865645686
 20
141.8605992692
 11
1053.8865645686
 21
180.4639248304
  0
LWPOLYLINE
  5
286
100
AcDbEntity
  8
0
100
AcDbPolyline
 62
7
  6
CONTINUOUS
 90
5
 70
0
 10
1202.1428159379
 20
427.5122715506
 10
1201.5782139484
 20
426.7058309091
 10
1200.6502498648
 20
425.9692641467
 10
1199.380721632
 20
425.518011774
 10
1198.7694017447
 20
425.4639642582
  0
LINE
  5
287
100
AcDbEntity
  8
0
100
AcDbLine
 62
9
  6
CONTINUOUS
 10
1367.3865645686
 20
283.4639248304
 11
1352.3865645686
 21
283.4639248304
  0
LINE
  5
288
100
AcDbEntity
  8
0
100
AcDbLine
 62
9
  6
CONTINUOUS
 10
1049.8865645686
 20
283.4639248304
 11
1120.8865645686
 21
283.4639248306
  0
LINE
  5
289
100
AcDbEntity
  8
0
100
AcDbLine
 62
9
  6
CONTINUOUS
 10
1352.3865645686
 20
285.4639248304
 11
1342.3865645686
 21
285.4639248304
  0
LINE
  5
28A
100
AcDbEntity
  8
0
100
AcDbLine
 62
7
  6
CONTINUOUS
 10
1116.8865645686
 20
285.4639248304
 11
1035.8865645686
 21
285.4639248304
  0
LINE
  5
28B
100
AcDbEntity
  8
0
100
AcDbLine
 62
7
  6
CONTINUOUS
 10
844.8865645686
 20
295.0084363314
 11
984.8865645686
 21
295.0084363314
  0
LINE
  5
28C
100
AcDbEntity
  8
3_ALL_AXES
100
AcDbLine
 62
7
  6
CONTINUOUS
 10
1132.3865645686
 20
307.9639248304
 11
1131.8865645686
 21
307.9639248304
  0
LINE
  5
28D
100
AcDbEntity
  8
0
100
AcDbLine
 62
7
  6
CONTINUOUS
 10
1034.8865753213
 20
295.4639355325
 11
1014.8865772149
 21
315.4639375397
  0
LINE
  5
28E
100
AcDbEntity
  8
0
100
AcDbLine
 62
9
  6
CONTINUOUS
 10
1081.4804654837
 20
230.3876219523
 11
1083.286641507
 21
228.0796259268
  0
LINE
  5
28F
100
AcDbEntity
  8
0
100
AcDbLine
 62
9
  6
CONTINUOUS
 10
1078.1443406295
 20
141.8605992692
 11
1078.1443406295
 21
180.4639248304
  0
LINE
  5
290
100
AcDbEntity
  8
0
100
AcDbLine
 62
9
  6
CONTINUOUS
 10
1078.1443406295
 20
190.4639248304
 11
1078.1443406295
 21
229.0672503917
  0
LINE
  5
291
100
AcDbEntity
  8
0
100
AcDbLine
 62
9
  6
CONTINUOUS
 10
1083.286641507
 20
142.8482237458
 11
1083.286641507
 21
177.8578642813
  0
LINE
  5
292
100
AcDbEntity
  8
0
100
AcDbLine
 62
9
  6
CONTINUOUS
 10
1083.286641507
 20
193.0699853795
 11
1083.286641507
 21
228.0796259268
  0
LINE
  5
293
100
AcDbEntity
  8
02___PRT_ALL_AXES
100
AcDbLine
 62
7
  6
CONTINUOUS
 10
645.170811205
 20
315.4639248304
 11
686.8865645686
 21
315.4639248304
  0
LINE
  5
294
100
AcDbEntity
  8
02___PRT_ALL_AXES
100
AcDbLine
 62
7
  6
CONTINUOUS
 10
696.8865645686
 20
315.4639248304
 11
844.8865645686
 21
315.4639248304
  0
LINE
  5
295
100
AcDbEntity
  8
02___PRT_ALL_AXES
100
AcDbLine
 62
7
  6
CONTINUOUS
 10
984.8865645686
 20
315.4639248304
 11
1014.8865645056
 21
315.4639248304
  0
LINE
  5
296
100
AcDbEntity
  8
0
100
AcDbLine
 62
7
  6
CONTINUOUS
 10
1131.8865645686
 20
320.4639248304
 11
1122.8865645686
 21
320.4639248304
  0
LINE
  5
297
100
AcDbEntity
  8
0
100
AcDbLine
 62
9
  6
CONTINUOUS
 10
1113.1071087204
 20
257.6122747757
 11
1115.0288654461
 21
255.3449529836
  0
LINE
  5
298
100
AcDbEntity
  8
0
100
AcDbLine
 62
9
  6
CONTINUOUS
 10
1113.3097835887
 20
257.7910739164
 11
1115.2325415993
 21
255.5224579408
  0
LINE
  5
299
100
AcDbEntity
  8
0
100
AcDbLine
 62
9
  6
CONTINUOUS
 10
1114.8865645686
 20
93.4639003341
 11
1114.8865645686
 21
108.979998359
  0
LINE
  5
29A
100
AcDbEntity
  8
0
100
AcDbLine
 62
9
  6
CONTINUOUS
 10
1114.8865645686
 20
261.9478513018
 11
1114.8865645686
 21
277.4639493307
  0
LINE
  5
29B
100
AcDbEntity
  8
0
100
AcDbLine
 62
9
  6
CONTINUOUS
 10
1115.0288654461
 20
115.5828966773
 11
1115.0288654461
 21
177.7147283275
  0
LINE
  5
29C
100
AcDbEntity
  8
0
100
AcDbLine
 62
9
  6
CONTINUOUS
 10
1115.0288654461
 20
193.2131213333
 11
1115.0288654461
 21
255.3449529836
  0
LINE
  5
29D
100
AcDbEntity
  8
0
100
AcDbLine
 62
9
  6
CONTINUOUS
 10
1116.8865645686
 20
85.4639248304
 11
1116.8865645686
 21
93.7703075904
  0
LINE
  5
29E
100
AcDbEntity
  8
0
100
AcDbLine
 62
9
  6
CONTINUOUS
 10
1116.8865645686
 20
277.1575423101
 11
1116.8865645686
 21
285.4639248304
  0
LINE
  5
29F
100
AcDbEntity
  8
0
100
AcDbLine
 62
7
  6
CONTINUOUS
 10
1117.8865645686
 20
98.4639248304
 11
1117.8865645686
 21
177.4639248304
  0
LINE
  5
2A0
100
AcDbEntity
  8
0
100
AcDbLine
 62
9
  6
CONTINUOUS
 10
1117.8865645686
 20
180.4639248304
 11
1117.8865645686
 21
190.4639248304
  0
LINE
  5
2A1
100
AcDbEntity
  8
0
100
AcDbLine
 62
7
  6
CONTINUOUS
 10
1117.8865645686
 20
193.4639248304
 11
1117.8865645686
 21
272.4639248304
  0
LINE
  5
2A2
100
AcDbEntity
  8
0
100
AcDbLine
 62
9
  6
CONTINUOUS
 10
1119.3865645672
 20
115.4639248304
 11
1119.3865645686
 21
177.4639248304
  0
LINE
  5
2A3
100
AcDbEntity
  8
0
100
AcDbLine
 62
9
  6
CONTINUOUS
 10
1119.3865645686
 20
193.4639248304
 11
1119.3865645672
 21
255.4639248312
  0
LINE
  5
2A4
100
AcDbEntity
  8
0
100
AcDbLine
 62
7
  6
CONTINUOUS
 10
1120.8865645686
 20
318.4639248304
 11
1120.8865645686
 21
52.4639248304
  0
LINE
  5
2A5
100
AcDbEntity
  8
0
100
AcDbLine
 62
9
  6
CONTINUOUS
 10
1122.8865645686
 20
320.4639248304
 11
1122.8865645686
 21
50.4639248304
  0
LINE
  5
2A6
100
AcDbEntity
  8
0
100
AcDbLine
 62
7
  6
CONTINUOUS
 10
1163.4965751663
 20
457.9462867402
 11
1167.3865645686
 21
472.4639248304
  0
LINE
  5
2A7
100
AcDbEntity
  8
0
100
AcDbLine
 62
7
  6
CONTINUOUS
 10
844.8865645686
 20
365.4639248304
 11
984.8865645686
 21
365.4639248304
  0
LINE
  5
2A8
100
AcDbEntity
  8
0
100
AcDbLine
 62
7
  6
CONTINUOUS
 10
1131.8865645686
 20
320.4639248304
 11
1131.8865645686
 21
50.4639248304
  0
LINE
  5
2A9
100
AcDbEntity
  8
3_ALL_AXES
100
AcDbLine
 62
7
  6
CONTINUOUS
 10
1132.3865645686
 20
228.9936634735
 11
1132.3865645686
 21
78.7118296765
  0
LINE
  5
2AA
100
AcDbEntity
  8
0
100
AcDbLine
 62
7
  6
CONTINUOUS
 10
1132.3865645686
 20
53.4639248826
 11
1132.3865645686
 21
78.7118296765
  0
LINE
  5
2AB
100
AcDbEntity
  8
0
100
AcDbLine
 62
7
  6
CONTINUOUS
 10
1132.3865645686
 20
228.9936634735
 11
1132.3865645686
 21
400.4639248304
  0
LINE
  5
2AC
100
AcDbEntity
  8
0
100
AcDbLine
 62
7
  6
CONTINUOUS
 10
1152.3865645686
 20
454.4639248304
 11
1152.3865645686
 21
425.4639248304
  0
LINE
  5
2AD
100
AcDbEntity
  8
0
100
AcDbLine
 62
9
  6
CONTINUOUS
 10
1081.4804624882
 20
140.5402300532
 11
1083.286641507
 21
142.8482237458
  0
LINE
  5
2AE
100
AcDbEntity
  8
0
100
AcDbLine
 62
7
  6
CONTINUOUS
 10
1034.8865753213
 20
75.4639141283
 11
1014.8865772149
 21
55.4639121211
  0
LINE
  5
2AF
100
AcDbEntity
  8
0
100
AcDbLine
 62
9
  6
CONTINUOUS
 10
1157.3865645686
 20
28.4639248304
 11
1157.3865645951
 21
425.4639248304
  0
LINE
  5
2B0
100
AcDbEntity
  8
0
100
AcDbLine
 62
9
  6
CONTINUOUS
 10
1170.3865645686
 20
456.4639248304
 11
1170.3865645686
 21
440.4639248304
  0
LINE
  5
2B1
100
AcDbEntity
  8
0
100
AcDbLine
 62
9
  6
CONTINUOUS
 10
1172.3865645686
 20
440.4639248304
 11
1172.3865645686
 21
425.4639248304
  0
LWPOLYLINE
  5
2B2
100
AcDbEntity
  8
0
100
AcDbPolyline
 62
7
  6
CONTINUOUS
 90
3
 70
0
 10
1202.3865645686
 20
428.146962893
 10
1202.3737427503
 20
428.0913860937
 10
1202.1428159379
 20
427.5122715506
  0
LINE
  5
2B3
100
AcDbEntity
  8
0
100
AcDbLine
 62
9
  6
CONTINUOUS
 10
1113.1071087462
 20
113.3155748633
 11
1115.0288654461
 21
115.5828966773
  0
LINE
  5
2B4
100
AcDbEntity
  8
0
100
AcDbLine
 62
9
  6
CONTINUOUS
 10
1113.3097835887
 20
113.1367757444
 11
1115.2325415993
 21
115.40539172
  0
LINE
  5
2B5
100
AcDbEntity
  8
0
100
AcDbLine
 62
7
  6
CONTINUOUS
 10
1198.7336990553
 20
425.4638045621
 11
1198.7694017447
 21
425.4639642582
  0
LINE
  5
2B6
100
AcDbEntity
  8
0
100
AcDbLine
 62
9
  6
CONTINUOUS
 10
1352.3865645686
 20
405.4639248304
 11
1337.4879325644
 21
405.4639248304
  0
LINE
  5
2B7
100
AcDbEntity
  8
0
100
AcDbLine
 62
9
  6
CONTINUOUS
 10
1367.3865645686
 20
407.4639248304
 11
1352.3865645686
 21
407.4639248304
  0
LINE
  5
2B8
100
AcDbEntity
  8
0
100
AcDbLine
 62
9
  6
CONTINUOUS
 10
1266.3856632825
 20
423.4438510043
 11
1317.3865645686
 21
423.4438510043
  0
LINE
  5
2B9
100
AcDbEntity
  8
0
100
AcDbLine
 62
9
  6
CONTINUOUS
 10
1157.3865646022
 20
423.4438805656
 11
1198.3874658546
 21
423.4438510043
  0
LINE
  5
2BA
100
AcDbEntity
  8
0
100
AcDbLine
 62
7
  6
CONTINUOUS
 10
1365.3865645686
 20
425.4639248304
 11
1266.0394300817
 21
425.4639248304
  0
LINE
  5
2BB
100
AcDbEntity
  8
0
100
AcDbLine
 62
7
  6
CONTINUOUS
 10
1198.7336990554
 20
425.4639248304
 11
1152.3865645686
 21
425.4639248304
  0
LINE
  5
2BC
100
AcDbEntity
  8
0
100
AcDbLine
 62
7
  6
CONTINUOUS
 10
1266.0394300804
 20
425.4639245893
 11
1266.0030528692
 21
425.4640908197
  0
LINE
  5
2BD
100
AcDbEntity
  8
0
100
AcDbLine
 62
7
  6
CONTINUOUS
 10
1202.3865646635
 20
427.2833541489
 11
1202.3874409621
 21
427.0398362391
  0
LINE
  5
2BE
100
AcDbEntity
  8
02___PRT_ALL_AXES
100
AcDbLine
 62
7
  6
CONTINUOUS
 10
1202.3865645686
 20
440.4639248304
 11
1202.3865645686
 21
427.2812015354
  0
LINE
  5
2BF
100
AcDbEntity
  8
0
100
AcDbLine
 62
7
  6
CONTINUOUS
 10
1212.3865645686
 20
25.4639248304
 11
1212.3865645686
 21
61.7720467268
  0
LINE
  5
2C0
100
AcDbEntity
  8
02___PRT_ALL_AXES
100
AcDbLine
 62
7
  6
CONTINUOUS
 10
1292.3865645686
 20
440.4639248304
 11
1262.3865645686
 21
440.4639248304
  0
LINE
  5
2C1
100
AcDbEntity
  8
0
100
AcDbLine
 62
7
  6
CONTINUOUS
 10
1152.3865645686
 20
440.4639248304
 11
1202.3865645686
 21
440.4639248304
  0
LINE
  5
2C2
100
AcDbEntity
  8
02___PRT_ALL_AXES
100
AcDbLine
 62
7
  6
CONTINUOUS
 10
1172.3865645686
 20
440.4639248304
 11
1262.3825279775
 21
440.4639248304
  0
LINE
  5
2C3
100
AcDbEntity
  8
0
100
AcDbLine
 62
7
  6
CONTINUOUS
 10
1262.3865645686
 20
440.4639248304
 11
1312.3865645686
 21
440.4639248304
  0
LINE
  5
2C4
100
AcDbEntity
  8
0
100
AcDbLine
 62
9
  6
CONTINUOUS
 10
1152.3865645686
 20
454.4639248304
 11
1312.3865645686
 21
454.4639248304
  0
LINE
  5
2C5
100
AcDbEntity
  8
0
100
AcDbLine
 62
7
  6
CONTINUOUS
 10
1154.3865645686
 20
456.4639248304
 11
1310.3865645686
 21
456.4639248304
  0
LINE
  5
2C6
100
AcDbEntity
  8
0
100
AcDbLine
 62
9
  6
CONTINUOUS
 10
1163.4965751663
 20
457.9462867402
 11
1301.2765539708
 21
457.9462867402
  0
LWPOLYLINE
  5
2C7
100
AcDbEntity
  8
0
100
AcDbPolyline
 62
7
  6
CONTINUOUS
 90
5
 70
0
 10
1266.0030516776
 20
425.4639703467
 10
1265.3757465269
 20
425.5208610251
 10
1264.1279104828
 20
425.9664139609
 10
1263.2315835424
 20
426.6665533283
 10
1262.671937236
 20
427.4336551003
  0
LINE
  5
2C8
100
AcDbEntity
  8
0
100
AcDbLine
 62
9
  6
CONTINUOUS
 10
1224.3865645686
 20
25.4639248304
 11
1224.3865645686
 21
43.4639248304
  0
LINE
  5
2C9
100
AcDbEntity
  8
0
100
AcDbLine
 62
7
  6
CONTINUOUS
 10
1167.3865645686
 20
472.4639248304
 11
1297.3865645686
 21
472.4639248304
  0
LINE
  5
2CA
100
AcDbEntity
  8
0
100
AcDbLine
 62
9
  6
CONTINUOUS
 10
1250.3865645686
 20
25.4639248304
 11
1250.3865645686
 21
43.4639248304
  0
LINE
  5
2CB
100
AcDbEntity
  8
0
100
AcDbLine
 62
7
  6
CONTINUOUS
 10
1262.3865645686
 20
61.7720467268
 11
1262.3865645686
 21
25.4639248304
  0
LINE
  5
2CC
100
AcDbEntity
  8
02___PRT_ALL_AXES
100
AcDbLine
 62
7
  6
CONTINUOUS
 10
1262.3865645686
 20
427.2812006178
 11
1262.3865645686
 21
440.4639248304
  0
LINE
  5
2CD
100
AcDbEntity
  8
0
100
AcDbLine
 62
7
  6
CONTINUOUS
 10
1262.3856881751
 20
427.0398362391
 11
1262.3865644645
 21
427.2834043448
  0
LINE
  5
2CE
100
AcDbEntity
  8
0
100
AcDbLine
 62
7
  6
CONTINUOUS
 10
1368.8689264784
 20
416.2295585797
 11
1390.3865645686
 21
410.4639248304
  0
LINE
  5
2CF
100
AcDbEntity
  8
0
100
AcDbLine
 62
9
  6
CONTINUOUS
 10
1292.3865645686
 20
440.4639248304
 11
1292.3865645686
 21
425.4639248304
  0
LINE
  5
2D0
100
AcDbEntity
  8
0
100
AcDbLine
 62
9
  6
CONTINUOUS
 10
1294.3865645686
 20
456.4639248304
 11
1294.3865645686
 21
440.4639248304
  0
LINE
  5
2D1
100
AcDbEntity
  8
0
100
AcDbLine
 62
7
  6
CONTINUOUS
 10
1262.4172137453
 20
428.0311113544
 11
1262.3865645686
 21
428.1432196509
  0
LINE
  5
2D2
100
AcDbEntity
  8
0
100
AcDbLine
 62
7
  6
CONTINUOUS
 10
1312.3865645686
 20
454.4639248304
 11
1312.3865645686
 21
425.4639248304
  0
LINE
  5
2D3
100
AcDbEntity
  8
0
100
AcDbLine
 62
9
  6
CONTINUOUS
 10
1317.3865645686
 20
423.4438510043
 11
1317.3865645686
 21
28.4639248304
  0
LINE
  5
2D4
100
AcDbEntity
  8
0
100
AcDbLine
 62
7
  6
CONTINUOUS
 10
1262.671937236
 20
427.4336551003
 11
1262.4172137453
 21
428.0311113544
  0
LINE
  5
2D5
100
AcDbEntity
  8
0
100
AcDbLine
 62
7
  6
CONTINUOUS
 10
1342.3865645686
 20
387.2966685266
 11
1342.3865645686
 21
72.1623218258
  0
LINE
  5
2D6
100
AcDbEntity
  8
0
100
AcDbLine
 62
9
  6
CONTINUOUS
 10
1346.3865645686
 20
250.4639248304
 11
1346.3865645686
 21
130.4639248304
  0
LINE
  5
2D7
100
AcDbEntity
  8
0
100
AcDbLine
 62
9
  6
CONTINUOUS
 10
1346.3865645686
 20
95.4639248304
 11
1346.3865645686
 21
70.7226509232
  0
LINE
  5
2D8
100
AcDbEntity
  8
02___PRT_ALL_AXES
100
AcDbLine
 62
7
  6
CONTINUOUS
 10
1352.3865645686
 20
250.4639248304
 11
1352.3865645686
 21
130.4639248304
  0
LINE
  5
2D9
100
AcDbEntity
  8
02___PRT_ALL_AXES
100
AcDbLine
 62
7
  6
CONTINUOUS
 10
1352.3865645686
 20
95.4639248304
 11
1352.3865645686
 21
35.4639248304
  0
LINE
  5
2DA
100
AcDbEntity
  8
0
100
AcDbLine
 62
7
  6
CONTINUOUS
 10
1352.3865645686
 20
265.4639248304
 11
1352.3865645686
 21
425.4639248304
  0
LINE
  5
2DB
100
AcDbEntity
  8
0
100
AcDbLine
 62
7
  6
CONTINUOUS
 10
1301.2765539708
 20
457.9462867402
 11
1297.3865645686
 21
472.4639248304
  0
LINE
  5
2DC
100
AcDbEntity
  8
0
100
AcDbLine
 62
9
  6
CONTINUOUS
 10
1365.3865645686
 20
425.4639248304
 11
1365.3865645686
 21
265.4639248304
  0
LINE
  5
2DD
100
AcDbEntity
  8
0
100
AcDbLine
 62
7
  6
CONTINUOUS
 10
1367.3865645686
 20
423.4639248304
 11
1367.3865645686
 21
267.4639248304
  0
LINE
  5
2DE
100
AcDbEntity
  8
0
100
AcDbLine
 62
9
  6
CONTINUOUS
 10
1368.8689264784
 20
416.2295585797
 11
1368.8689264784
 21
274.6982910811
  0
LINE
  5
2DF
100
AcDbEntity
  8
0
100
AcDbLine
 62
7
  6
CONTINUOUS
 10
1390.3865645686
 20
410.4639248304
 11
1390.3865645686
 21
280.4639248304
  0
LWPOLYLINE
  5
2E0
100
AcDbEntity
  8
0
100
AcDbPolyline
 62
7
  6
CONTINUOUS
 90
4
 70
0
 10
1333.6748779409
 20
34.4984075282
 10
1334.4468351154
 20
35.0186131448
 10
1335.7497993327
 20
35.4284950106
 10
1336.281008099
 20
35.463924763
  0
LINE
  5
2E1
100
AcDbEntity
  8
0
100
AcDbLine
 62
7
  6
CONTINUOUS
 10
311.3569069262
 20
25.4639248304
 11
21.3569069262
 21
25.4639248304
  0
LINE
  5
2E2
100
AcDbEntity
  8
0
100
AcDbLine
 62
7
  6
CONTINUOUS
 10
263.8569069262
 20
28.4639248304
 11
68.8569069262
 21
28.4639248304
  0
LINE
  5
2E3
100
AcDbEntity
  8
0
100
AcDbLine
 62
9
  6
CONTINUOUS
 10
21.3569069262
 20
40.4639248304
 11
65.8569069262
 21
40.4639248304
  0
LINE
  5
2E4
100
AcDbEntity
  8
0
100
AcDbLine
 62
9
  6
CONTINUOUS
 10
266.8569069262
 20
40.4639248304
 11
311.3569069262
 21
40.4639248304
  0
LINE
  5
2E5
100
AcDbEntity
  8
0
100
AcDbLine
 62
7
  6
CONTINUOUS
 10
24.3569069262
 20
43.4639248304
 11
68.8569069262
 21
43.4639248304
  0
LINE
  5
2E6
100
AcDbEntity
  8
0
100
AcDbLine
 62
7
  6
CONTINUOUS
 10
263.8569069262
 20
43.4639248304
 11
308.3569069262
 21
43.4639248304
  0
LINE
  5
2E7
100
AcDbEntity
  8
0
100
AcDbLine
 62
9
  6
CONTINUOUS
 10
296.3569069262
 20
45.4639248304
 11
261.8569069262
 21
45.4639248304
  0
LINE
  5
2E8
100
AcDbEntity
  8
0
100
AcDbLine
 62
9
  6
CONTINUOUS
 10
70.8569069262
 20
45.4639248304
 11
36.3569069262
 21
45.4639248304
  0
LINE
  5
2E9
100
AcDbEntity
  8
0
100
AcDbLine
 62
7
  6
CONTINUOUS
 10
36.3569069262
 20
53.4639248304
 11
78.8569069262
 21
53.4639248304
  0
LINE
  5
2EA
100
AcDbEntity
  8
0
100
AcDbLine
 62
7
  6
CONTINUOUS
 10
268.8401142736
 20
53.4639248304
 11
296.3569069262
 21
53.4639248304
  0
LINE
  5
2EB
100
AcDbEntity
  8
0
100
AcDbLine
 62
9
  6
CONTINUOUS
 10
116.1313851714
 20
72.1623197974
 11
119.8634054951
 21
70.7226187771
  0
LINE
  5
2EC
100
AcDbEntity
  8
0
100
AcDbLine
 62
7
  6
CONTINUOUS
 10
36.3569069262
 20
68.4639248304
 11
79.3374882736
 21
68.4639248304
  0
LINE
  5
2ED
100
AcDbEntity
  8
0
100
AcDbLine
 62
7
  6
CONTINUOUS
 10
288.3759509909
 20
68.4639248304
 11
296.3569069262
 21
68.4639248304
  0
LINE
  5
2EE
100
AcDbEntity
  8
0
100
AcDbLine
 62
7
  6
CONTINUOUS
 10
21.3569069262
 20
25.4639248304
 11
21.3569069262
 21
40.4639248304
  0
LINE
  5
2EF
100
AcDbEntity
  8
0
100
AcDbLine
 62
7
  6
CONTINUOUS
 10
26.8569069262
 20
282.3014305393
 11
26.8569069262
 21
185.4639248304
  0
LINE
  5
2F0
100
AcDbEntity
  8
0
100
AcDbLine
 62
9
  6
CONTINUOUS
 10
33.3569069262
 20
25.4639248304
 11
33.3569069262
 21
43.4639248304
  0
LINE
  5
2F1
100
AcDbEntity
  8
0
100
AcDbLine
 62
3
  6
CONTINUOUS
 10
36.3569069262
 20
43.4639248304
 11
36.3569069262
 21
53.4639248304
  0
LINE
  5
2F2
100
AcDbEntity
  8
0
100
AcDbLine
 62
7
  6
CONTINUOUS
 10
36.3569069262
 20
53.4639248304
 11
36.3569069262
 21
68.4639248304
  0
LINE
  5
2F3
100
AcDbEntity
  8
02___PRT_ALL_AXES
100
AcDbLine
 62
7
  6
CONTINUOUS
 10
48.8569069262
 20
440.4639248304
 11
48.8569069262
 21
363.5418753356
  0
LINE
  5
2F4
100
AcDbEntity
  8
0
100
AcDbLine
 62
9
  6
CONTINUOUS
 10
51.8569069262
 20
282.3014305393
 11
51.8569069262
 21
185.4639248304
  0
LWPOLYLINE
  5
2F5
100
AcDbEntity
  8
0
100
AcDbPolyline
 62
7
  6
CONTINUOUS
 90
4
 70
0
 10
48.8569295295
 20
363.5418719477
 10
48.8546232095
 20
363.4060638515
 10
48.7045857371
 20
362.4484957624
 10
48.3305943752
 20
361.5585780018
  0
LINE
  5
2F6
100
AcDbEntity
  8
02___PRT_ALL_AXES
100
AcDbLine
 62
7
  6
CONTINUOUS
 10
68.8569069262
 20
25.4639248304
 11
68.8569069262
 21
29.3217892067
  0
LINE
  5
2F7
100
AcDbEntity
  8
0
100
AcDbLine
 62
9
  6
CONTINUOUS
 10
118.8569069262
 20
126.4639248304
 11
248.8569069262
 21
126.4639248304
  0
LINE
  5
2F8
100
AcDbEntity
  8
02___PRT_ALL_AXES
100
AcDbLine
 62
7
  6
CONTINUOUS
 10
118.8569069262
 20
130.4639248304
 11
248.8569069262
 21
130.4639248304
  0
LINE
  5
2F9
100
AcDbEntity
  8
0
100
AcDbLine
 62
9
  6
CONTINUOUS
 10
89.8569069262
 20
225.4639248304
 11
89.8569069262
 21
155.4639248304
  0
LINE
  5
2FA
100
AcDbEntity
  8
0
100
AcDbLine
 62
9
  6
CONTINUOUS
 10
277.8569069262
 20
155.4639248304
 11
273.8569069262
 21
155.4639248304
  0
LINE
  5
2FB
100
AcDbEntity
  8
0
100
AcDbLine
 62
9
  6
CONTINUOUS
 10
89.8569069262
 20
155.4639248304
 11
93.8569069262
 21
155.4639248304
  0
LINE
  5
2FC
100
AcDbEntity
  8
02___PRT_ALL_AXES
100
AcDbLine
 62
7
  6
CONTINUOUS
 10
250.0695569022
 20
43.1091392307
 11
263.8569069262
 21
29.3217892067
  0
LINE
  5
2FD
100
AcDbEntity
  8
02___PRT_ALL_AXES
100
AcDbLine
 62
7
  6
CONTINUOUS
 10
93.8569069262
 20
225.4639248304
 11
93.8569069262
 21
155.4639248304
  0
LINE
  5
2FE
100
AcDbEntity
  8
0
100
AcDbLine
 62
7
  6
CONTINUOUS
 10
103.8569069262
 20
407.4639248304
 11
103.8569069262
 21
283.4639248304
  0
LINE
  5
2FF
100
AcDbEntity
  8
0
100
AcDbLine
 62
9
  6
CONTINUOUS
 10
105.8569069262
 20
407.4639248304
 11
105.8569069262
 21
283.4639248304
  0
LINE
  5
300
100
AcDbEntity
  8
0
100
AcDbLine
 62
7
  6
CONTINUOUS
 10
266.8569069262
 20
40.4639248304
 11
259.4566255
 21
47.8642062567
  0
LINE
  5
301
100
AcDbEntity
  8
0
100
AcDbLine
 62
9
  6
CONTINUOUS
 10
118.8569069262
 20
254.4639248304
 11
118.8569069262
 21
250.4639248304
  0
LINE
  5
302
100
AcDbEntity
  8
0
100
AcDbLine
 62
9
  6
CONTINUOUS
 10
118.8569069262
 20
126.4639248304
 11
118.8569069262
 21
130.4639248304
  0
LINE
  5
303
100
AcDbEntity
  8
0
100
AcDbLine
 62
9
  6
CONTINUOUS
 10
121.8569069262
 20
267.4639248304
 11
121.8569069262
 21
265.4639248304
  0
LINE
  5
304
100
AcDbEntity
  8
0
100
AcDbLine
 62
9
  6
CONTINUOUS
 10
121.8569069262
 20
423.4639248304
 11
121.8569069262
 21
425.4639248304
  0
LINE
  5
305
100
AcDbEntity
  8
0
100
AcDbLine
 62
7
  6
CONTINUOUS
 10
164.9669175239
 20
457.9462867402
 11
168.8569069262
 21
472.4639248304
  0
LINE
  5
306
100
AcDbEntity
  8
0
100
AcDbLine
 62
9
  6
CONTINUOUS
 10
51.8569069262
 20
185.4639248304
 11
26.8569069262
 21
185.4639248305
  0
LINE
  5
307
100
AcDbEntity
  8
0
100
AcDbLine
 62
9
  6
CONTINUOUS
 10
315.8569069262
 20
185.4639248304
 11
340.8569069262
 21
185.4639248304
  0
LINE
  5
308
100
AcDbEntity
  8
0
100
AcDbLine
 62
7
  6
CONTINUOUS
 10
153.8569069262
 20
454.4639248304
 11
153.8569069262
 21
425.4639248304
  0
LINE
  5
309
100
AcDbEntity
  8
0
100
AcDbLine
 62
9
  6
CONTINUOUS
 10
277.8569069262
 20
225.4639248304
 11
273.8569069262
 21
225.4639248304
  0
LINE
  5
30A
100
AcDbEntity
  8
0
100
AcDbLine
 62
9
  6
CONTINUOUS
 10
89.8569069262
 20
225.4639248304
 11
93.8569069262
 21
225.4639248304
  0
LINE
  5
30B
100
AcDbEntity
  8
0
100
AcDbLine
 62
9
  6
CONTINUOUS
 10
171.8569069262
 20
456.4639248304
 11
171.8569069262
 21
440.4639248304
  0
LINE
  5
30C
100
AcDbEntity
  8
0
100
AcDbLine
 62
9
  6
CONTINUOUS
 10
173.8569069262
 20
440.4639248304
 11
173.8569069262
 21
425.4639248304
  0
LINE
  5
30D
100
AcDbEntity
  8
02___PRT_ALL_AXES
100
AcDbLine
 62
7
  6
CONTINUOUS
 10
248.8569069262
 20
250.4639248304
 11
118.8569069262
 21
250.4639248304
  0
LINE
  5
30E
100
AcDbEntity
  8
0
100
AcDbLine
 62
9
  6
CONTINUOUS
 10
248.8569069262
 20
254.4639248304
 11
118.8569069262
 21
254.4639248304
  0
LINE
  5
30F
100
AcDbEntity
  8
0
100
AcDbLine
 62
7
  6
CONTINUOUS
 10
121.8569069262
 20
265.4639248304
 11
245.8569069262
 21
265.4639248304
  0
LINE
  5
310
100
AcDbEntity
  8
0
100
AcDbLine
 62
9
  6
CONTINUOUS
 10
121.8569069262
 20
267.4639248304
 11
245.8569069262
 21
267.4639248304
  0
LINE
  5
311
100
AcDbEntity
  8
0
100
AcDbLine
 62
9
  6
CONTINUOUS
 10
51.8569069262
 20
282.3014305393
 11
26.8569069262
 21
282.3014305393
  0
LINE
  5
312
100
AcDbEntity
  8
0
100
AcDbLine
 62
9
  6
CONTINUOUS
 10
315.8569069262
 20
282.3014305393
 11
340.8569069262
 21
282.3014305385
  0
LINE
  5
313
100
AcDbEntity
  8
0
100
AcDbLine
 62
9
  6
CONTINUOUS
 10
105.8569069262
 20
283.4639248304
 11
103.8569069262
 21
283.4639248304
  0
LINE
  5
314
100
AcDbEntity
  8
0
100
AcDbLine
 62
9
  6
CONTINUOUS
 10
261.8569069262
 20
283.4639248304
 11
263.8569069262
 21
283.4639248304
  0
LINE
  5
315
100
AcDbEntity
  8
0
100
AcDbLine
 62
9
  6
CONTINUOUS
 10
245.8569069262
 20
267.4639248304
 11
245.8569069262
 21
265.4639248304
  0
LINE
  5
316
100
AcDbEntity
  8
0
100
AcDbLine
 62
9
  6
CONTINUOUS
 10
245.8569069262
 20
423.4639248304
 11
245.8569069262
 21
425.4639248304
  0
LINE
  5
317
100
AcDbEntity
  8
0
100
AcDbLine
 62
9
  6
CONTINUOUS
 10
248.8569069262
 20
254.4639248304
 11
248.8569069262
 21
250.4639248304
  0
LINE
  5
318
100
AcDbEntity
  8
0
100
AcDbLine
 62
9
  6
CONTINUOUS
 10
248.8569069262
 20
126.4639248304
 11
248.8569069262
 21
130.4639248304
  0
LINE
  5
319
100
AcDbEntity
  8
0
100
AcDbLine
 62
7
  6
CONTINUOUS
 10
87.1650288226
 20
61.7720467268
 11
65.8569069262
 21
40.4639248304
  0
LINE
  5
31A
100
AcDbEntity
  8
0
100
AcDbLine
 62
9
  6
CONTINUOUS
 10
261.8569069262
 20
283.4639248304
 11
261.8569069262
 21
407.4639248304
  0
LINE
  5
31B
100
AcDbEntity
  8
02___PRT_ALL_AXES
100
AcDbLine
 62
7
  6
CONTINUOUS
 10
263.8569069262
 20
25.4639248304
 11
263.8569069262
 21
29.3217892067
  0
LINE
  5
31C
100
AcDbEntity
  8
0
100
AcDbLine
 62
7
  6
CONTINUOUS
 10
263.8569069262
 20
283.4639248304
 11
263.8569069262
 21
407.4639248304
  0
LINE
  5
31D
100
AcDbEntity
  8
02___PRT_ALL_AXES
100
AcDbLine
 62
7
  6
CONTINUOUS
 10
273.8569069262
 20
155.4639248304
 11
273.8569069262
 21
225.4639248304
  0
LINE
  5
31E
100
AcDbEntity
  8
0
100
AcDbLine
 62
9
  6
CONTINUOUS
 10
273.8569069262
 20
410.9443471729
 11
273.8569069262
 21
425.4639248304
  0
LINE
  5
31F
100
AcDbEntity
  8
02___PRT_ALL_AXES
100
AcDbLine
 62
7
  6
CONTINUOUS
 10
68.8569069262
 20
29.3217892067
 11
95.3347523589
 21
55.7996346393
  0
LINE
  5
320
100
AcDbEntity
  8
0
100
AcDbLine
 62
9
  6
CONTINUOUS
 10
277.8569069262
 20
155.4639248304
 11
277.8569069262
 21
225.4639248304
  0
LINE
  5
321
100
AcDbEntity
  8
0
100
AcDbLine
 62
9
  6
CONTINUOUS
 10
293.8569069262
 20
440.4639248304
 11
293.8569069262
 21
425.4639248304
  0
LINE
  5
322
100
AcDbEntity
  8
0
100
AcDbLine
 62
7
  6
CONTINUOUS
 10
293.8569069262
 20
394.323749744
 11
293.8569069262
 21
425.4639248304
  0
LINE
  5
323
100
AcDbEntity
  8
0
100
AcDbLine
 62
9
  6
CONTINUOUS
 10
295.8569069262
 20
456.4639248304
 11
295.8569069262
 21
440.4639248304
  0
LINE
  5
324
100
AcDbEntity
  8
0
100
AcDbLine
 62
3
  6
CONTINUOUS
 10
296.3569069262
 20
43.4639248304
 11
296.3569069262
 21
53.4639248304
  0
LINE
  5
325
100
AcDbEntity
  8
0
100
AcDbLine
 62
7
  6
CONTINUOUS
 10
296.3569069262
 20
53.4639248304
 11
296.3569069262
 21
68.4639248304
  0
LINE
  5
326
100
AcDbEntity
  8
0
100
AcDbLine
 62
9
  6
CONTINUOUS
 10
299.3569069262
 20
25.4639248304
 11
299.3569069262
 21
43.4639248304
  0
LINE
  5
327
100
AcDbEntity
  8
0
100
AcDbLine
 62
7
  6
CONTINUOUS
 10
311.3569069262
 20
40.4639248304
 11
311.3569069262
 21
25.4639248304
  0
LINE
  5
328
100
AcDbEntity
  8
0
100
AcDbLine
 62
7
  6
CONTINUOUS
 10
313.8569069262
 20
454.4639248304
 11
313.8569069262
 21
425.4639248304
  0
LINE
  5
329
100
AcDbEntity
  8
0
100
AcDbLine
 62
9
  6
CONTINUOUS
 10
315.8569069262
 20
185.4639248304
 11
315.8569069262
 21
282.3014305393
  0
LINE
  5
32A
100
AcDbEntity
  8
0
100
AcDbLine
 62
7
  6
CONTINUOUS
 10
340.8569069262
 20
185.4639248304
 11
340.8569069262
 21
282.3014305393
  0
LINE
  5
32B
100
AcDbEntity
  8
0
100
AcDbLine
 62
9
  6
CONTINUOUS
 10
105.8569069262
 20
407.4639248304
 11
103.8569069262
 21
407.4639248304
  0
LINE
  5
32C
100
AcDbEntity
  8
0
100
AcDbLine
 62
9
  6
CONTINUOUS
 10
261.8569069262
 20
407.4639248304
 11
263.8569069262
 21
407.4639248304
  0
LINE
  5
32D
100
AcDbEntity
  8
0
100
AcDbLine
 62
9
  6
CONTINUOUS
 10
245.8569069262
 20
423.4639248304
 11
121.8569069262
 21
423.4639248304
  0
LINE
  5
32E
100
AcDbEntity
  8
0
100
AcDbLine
 62
7
  6
CONTINUOUS
 10
313.8569069262
 20
425.4639248304
 11
121.8569069262
 21
425.4639248304
  0
LINE
  5
32F
100
AcDbEntity
  8
0
100
AcDbLine
 62
9
  6
CONTINUOUS
 10
123.5783326044
 20
429.4639248304
 11
153.8569059937
 21
429.4639248304
  0
LINE
  5
330
100
AcDbEntity
  8
0
100
AcDbLine
 62
7
  6
CONTINUOUS
 10
302.7468963285
 20
457.9462867402
 11
298.8569069262
 21
472.4639248304
  0
LINE
  5
331
100
AcDbEntity
  8
0
100
AcDbLine
 62
9
  6
CONTINUOUS
 10
251.5824286811
 20
72.1623197975
 11
247.8504896747
 21
70.7226501368
  0
LINE
  5
332
100
AcDbEntity
  8
0
100
AcDbLine
 62
7
  6
CONTINUOUS
 10
313.8569069262
 20
440.4639248304
 11
153.8569069262
 21
440.4639248304
  0
LINE
  5
333
100
AcDbEntity
  8
02___PRT_ALL_AXES
100
AcDbLine
 62
7
  6
CONTINUOUS
 10
48.8518578594
 20
440.4639248304
 11
153.8569069262
 21
440.4639248304
  0
LINE
  5
334
100
AcDbEntity
  8
0
100
AcDbLine
 62
9
  6
CONTINUOUS
 10
153.8569069262
 20
454.4639248304
 11
313.8569069262
 21
454.4639248304
  0
LINE
  5
335
100
AcDbEntity
  8
0
100
AcDbLine
 62
7
  6
CONTINUOUS
 10
155.8569069262
 20
456.4639248304
 11
311.8569069262
 21
456.4639248304
  0
LINE
  5
336
100
AcDbEntity
  8
0
100
AcDbLine
 62
9
  6
CONTINUOUS
 10
164.9669175239
 20
457.9462867402
 11
302.7468963285
 21
457.9462867402
  0
LINE
  5
337
100
AcDbEntity
  8
0
100
AcDbLine
 62
7
  6
CONTINUOUS
 10
168.8569069262
 20
472.4639248304
 11
298.8569069262
 21
472.4639248304
  0
LINE
  5
338
100
AcDbEntity
  8
0
100
AcDbLine
 62
7
  6
CONTINUOUS
 10
-1008.5016259552
 20
280.4639248304
 11
-1008.5016259552
 21
410.4639248304
  0
LINE
  5
339
100
AcDbEntity
  8
0
100
AcDbLine
 62
9
  6
CONTINUOUS
 10
-986.983987865
 20
274.6982910811
 11
-986.983987865
 21
416.2295585797
  0
LINE
  5
33A
100
AcDbEntity
  8
0
100
AcDbLine
 62
7
  6
CONTINUOUS
 10
-985.5016259552
 20
267.4639248304
 11
-985.5016259552
 21
423.4639248304
  0
LINE
  5
33B
100
AcDbEntity
  8
0
100
AcDbLine
 62
9
  6
CONTINUOUS
 10
-983.5016259552
 20
265.4639248304
 11
-983.5016259552
 21
425.4639248304
  0
LINE
  5
33C
100
AcDbEntity
  8
02___PRT_ALL_AXES
100
AcDbLine
 62
7
  6
CONTINUOUS
 10
-970.5016259552
 20
35.4639248304
 11
-970.5016259552
 21
95.4639248304
  0
LINE
  5
33D
100
AcDbEntity
  8
02___PRT_ALL_AXES
100
AcDbLine
 62
7
  6
CONTINUOUS
 10
-970.5016259552
 20
130.4639248304
 11
-970.5016259552
 21
250.4639248304
  0
LINE
  5
33E
100
AcDbEntity
  8
0
100
AcDbLine
 62
7
  6
CONTINUOUS
 10
-970.5016259552
 20
265.4639248304
 11
-970.5016259552
 21
425.4639248304
  0
LINE
  5
33F
100
AcDbEntity
  8
0
100
AcDbLine
 62
9
  6
CONTINUOUS
 10
-964.5016259552
 20
70.7226509232
 11
-964.5016259552
 21
95.4639248291
  0
LINE
  5
340
100
AcDbEntity
  8
0
100
AcDbLine
 62
9
  6
CONTINUOUS
 10
-964.5016259552
 20
130.4639248304
 11
-964.5016259552
 21
250.4639248304
  0
LINE
  5
341
100
AcDbEntity
  8
0
100
AcDbLine
 62
7
  6
CONTINUOUS
 10
-960.5016259552
 20
72.1623216752
 11
-960.5016259552
 21
387.2966685266
  0
LINE
  5
342
100
AcDbEntity
  8
0
100
AcDbLine
 62
7
  6
CONTINUOUS
 10
-919.3916153575
 20
457.9462867402
 11
-915.5016259552
 21
472.4639248304
  0
LINE
  5
343
100
AcDbEntity
  8
0
100
AcDbLine
 62
9
  6
CONTINUOUS
 10
-935.5016259552
 20
28.4639248304
 11
-935.5016259552
 21
423.4438510043
  0
LINE
  5
344
100
AcDbEntity
  8
0
100
AcDbLine
 62
7
  6
CONTINUOUS
 10
-930.5016259552
 20
454.4639248304
 11
-930.5016259552
 21
425.4639248304
  0
LINE
  5
345
100
AcDbEntity
  8
0
100
AcDbLine
 62
9
  6
CONTINUOUS
 10
-912.5016259552
 20
456.4639248304
 11
-912.5016259552
 21
440.4639248304
  0
LINE
  5
346
100
AcDbEntity
  8
0
100
AcDbLine
 62
9
  6
CONTINUOUS
 10
-910.5016259552
 20
440.4639248304
 11
-910.5016259552
 21
425.4639248304
  0
LINE
  5
347
100
AcDbEntity
  8
0
100
AcDbLine
 62
7
  6
CONTINUOUS
 10
-910.5016259552
 20
410.9443471729
 11
-910.5016259552
 21
425.4639248304
  0
LINE
  5
348
100
AcDbEntity
  8
0
100
AcDbLine
 62
9
  6
CONTINUOUS
 10
-890.5016259552
 20
394.323749744
 11
-890.5016259552
 21
425.4639248304
  0
LINE
  5
349
100
AcDbEntity
  8
0
100
AcDbLine
 62
7
  6
CONTINUOUS
 10
-880.5016259552
 20
25.4639248304
 11
-880.5016259552
 21
47.8642062567
  0
LINE
  5
34A
100
AcDbEntity
  8
0
100
AcDbLine
 62
9
  6
CONTINUOUS
 10
-868.5016259552
 20
25.4639248304
 11
-868.5016259552
 21
43.4639248304
  0
LWPOLYLINE
  5
34B
100
AcDbEntity
  8
0
100
AcDbPolyline
 62
7
  6
CONTINUOUS
 90
4
 70
0
 10
-954.3960694857
 20
35.463924763
 10
-953.8648607194
 20
35.4284950106
 10
-952.5618965021
 20
35.0186131448
 10
-951.7899393275
 20
34.4984075282
  0
LINE
  5
34C
100
AcDbEntity
  8
0
100
AcDbLine
 62
9
  6
CONTINUOUS
 10
-842.5016259552
 20
25.4639248304
 11
-842.5016259552
 21
43.4639248304
  0
LINE
  5
34D
100
AcDbEntity
  8
0
100
AcDbLine
 62
7
  6
CONTINUOUS
 10
-830.5016259552
 20
25.4639248304
 11
-830.5016259552
 21
47.8642062567
  0
LINE
  5
34E
100
AcDbEntity
  8
0
100
AcDbLine
 62
7
  6
CONTINUOUS
 10
-320.0016259552
 20
25.4639248304
 11
-356.0016259552
 21
25.4639248304
  0
LINE
  5
34F
100
AcDbEntity
  8
0
100
AcDbLine
 62
7
  6
CONTINUOUS
 10
-594.0016259552
 20
25.4639248304
 11
-630.0016259552
 21
25.4639248304
  0
LINE
  5
350
100
AcDbEntity
  8
0
100
AcDbLine
 62
7
  6
CONTINUOUS
 10
-830.5016259552
 20
25.4639248304
 11
-880.5016259552
 21
25.4639248304
  0
LINE
  5
351
100
AcDbEntity
  8
0
100
AcDbLine
 62
7
  6
CONTINUOUS
 10
-935.5016259552
 20
28.4639248304
 11
-880.5016259552
 21
28.4639248304
  0
LINE
  5
352
100
AcDbEntity
  8
0
100
AcDbLine
 62
7
  6
CONTINUOUS
 10
-830.5016259552
 20
28.4639248304
 11
-775.5016259552
 21
28.4639248304
  0
LINE
  5
353
100
AcDbEntity
  8
0
100
AcDbLine
 62
3
  6
CONTINUOUS
 10
-630.0016259552
 20
29.4639248304
 11
-594.0016259552
 21
29.4639248304
  0
LINE
  5
354
100
AcDbEntity
  8
0
100
AcDbLine
 62
3
  6
CONTINUOUS
 10
-356.0016259552
 20
29.4639248304
 11
-320.0016259552
 21
29.4639248304
  0
LINE
  5
355
100
AcDbEntity
  8
0
100
AcDbLine
 62
9
  6
CONTINUOUS
 10
-590.0016259552
 20
33.4639248304
 11
-586.0016259552
 21
33.4639248304
  0
LINE
  5
356
100
AcDbEntity
  8
0
100
AcDbLine
 62
9
  6
CONTINUOUS
 10
-360.0016259552
 20
33.4639248304
 11
-364.0016259552
 21
33.4639248304
  0
LINE
  5
357
100
AcDbEntity
  8
02___PRT_ALL_AXES
100
AcDbLine
 62
7
  6
CONTINUOUS
 10
-970.5016259552
 20
35.4639248304
 11
-954.3960694869
 21
35.4639248304
  0
LINE
  5
358
100
AcDbEntity
  8
0
100
AcDbLine
 62
9
  6
CONTINUOUS
 10
-880.5016259552
 20
40.4639248304
 11
-830.5016259552
 21
40.4639248304
  0
LINE
  5
359
100
AcDbEntity
  8
0
100
AcDbLine
 62
7
  6
CONTINUOUS
 10
-877.5016259552
 20
43.4639248304
 11
-833.5016259552
 21
43.4639248304
  0
LINE
  5
35A
100
AcDbEntity
  8
0
100
AcDbLine
 62
9
  6
CONTINUOUS
 10
-810.5016259552
 20
394.323749744
 11
-810.5016259552
 21
425.4639248304
  0
LINE
  5
35B
100
AcDbEntity
  8
0
100
AcDbLine
 62
9
  6
CONTINUOUS
 10
-590.0016259552
 20
45.4639248304
 11
-586.0016259552
 21
45.4639248304
  0
LINE
  5
35C
100
AcDbEntity
  8
0
100
AcDbLine
 62
9
  6
CONTINUOUS
 10
-360.0016259552
 20
45.4639248304
 11
-364.0016259552
 21
45.4639248304
  0
LINE
  5
35D
100
AcDbEntity
  8
02___PRT_ALL_AXES
100
AcDbLine
 62
7
  6
CONTINUOUS
 10
-880.5016259552
 20
47.8642062567
 11
-830.5016259552
 21
47.8642062567
  0
LINE
  5
35E
100
AcDbEntity
  8
0
100
AcDbLine
 62
7
  6
CONTINUOUS
 10
-582.0016259552
 20
49.4639248304
 11
-368.0016259552
 21
49.4639248304
  0
LINE
  5
35F
100
AcDbEntity
  8
0
100
AcDbLine
 62
7
  6
CONTINUOUS
 10
-750.0016259552
 20
50.4639248304
 11
-741.0016259552
 21
50.4639248304
  0
LINE
  5
360
100
AcDbEntity
  8
0
100
AcDbLine
 62
7
  6
CONTINUOUS
 10
-584.0016259552
 20
53.4639248304
 11
-582.0016259552
 21
53.4639248304
  0
LINE
  5
361
100
AcDbEntity
  8
0
100
AcDbLine
 62
3
  6
CONTINUOUS
 10
-582.0016259552
 20
53.4639248304
 11
-368.0016259552
 21
53.4639248304
  0
LINE
  5
362
100
AcDbEntity
  8
0
100
AcDbLine
 62
7
  6
CONTINUOUS
 10
-368.0016259552
 20
53.4639248304
 11
-366.0016259552
 21
53.4639248304
  0
LINE
  5
363
100
AcDbEntity
  8
02___PRT_ALL_AXES
100
AcDbLine
 62
7
  6
CONTINUOUS
 10
-263.2858725917
 20
55.4639248304
 11
-305.0016259552
 21
55.4639248304
  0
LINE
  5
364
100
AcDbEntity
  8
02___PRT_ALL_AXES
100
AcDbLine
 62
7
  6
CONTINUOUS
 10
-315.0016259552
 20
55.4639248304
 11
-366.0016259552
 21
55.4639248304
  0
LINE
  5
365
100
AcDbEntity
  8
02___PRT_ALL_AXES
100
AcDbLine
 62
7
  6
CONTINUOUS
 10
-584.0016259552
 20
55.4639248304
 11
-633.0016258923
 21
55.4639248304
  0
LINE
  5
366
100
AcDbEntity
  8
3_ALL_AXES
100
AcDbLine
 62
7
  6
CONTINUOUS
 10
-750.5016259552
 20
62.9639248304
 11
-750.0016259552
 21
62.9639248304
  0
LINE
  5
367
100
AcDbEntity
  8
0
100
AcDbLine
 62
7
  6
CONTINUOUS
 10
-584.0016259552
 20
68.4639248304
 11
-366.0016259552
 21
68.4639248304
  0
LINE
  5
368
100
AcDbEntity
  8
0
100
AcDbLine
 62
9
  6
CONTINUOUS
 10
-790.5016259552
 20
440.4639248304
 11
-790.5016259552
 21
425.4639248304
  0
LINE
  5
369
100
AcDbEntity
  8
0
100
AcDbLine
 62
7
  6
CONTINUOUS
 10
-790.5016259552
 20
410.9443471729
 11
-790.5016259552
 21
425.4639248304
  0
LINE
  5
36A
100
AcDbEntity
  8
0
100
AcDbLine
 62
9
  6
CONTINUOUS
 10
-788.5016259552
 20
456.4639248304
 11
-788.5016259552
 21
440.4639248304
  0
LINE
  5
36B
100
AcDbEntity
  8
0
100
AcDbLine
 62
9
  6
CONTINUOUS
 10
-775.5016259552
 20
423.4438805622
 11
-775.5016259552
 21
28.4639248304
  0
LINE
  5
36C
100
AcDbEntity
  8
0
100
AcDbLine
 62
7
  6
CONTINUOUS
 10
-770.5016259552
 20
454.4639248304
 11
-770.5016259552
 21
425.4639248304
  0
LINE
  5
36D
100
AcDbEntity
  8
0
100
AcDbLine
 62
7
  6
CONTINUOUS
 10
-735.0016259552
 20
85.4639248304
 11
-654.0016259552
 21
85.4639248304
  0
LINE
  5
36E
100
AcDbEntity
  8
0
100
AcDbLine
 62
9
  6
CONTINUOUS
 10
-668.0016259552
 20
87.4639248304
 11
-739.0016259552
 21
87.4639248302
  0
LINE
  5
36F
100
AcDbEntity
  8
0
100
AcDbLine
 62
7
  6
CONTINUOUS
 10
-733.0016259552
 20
95.4639248304
 11
-671.0016259552
 21
95.4639248304
  0
LINE
  5
370
100
AcDbEntity
  8
02___PRT_ALL_AXES
100
AcDbLine
 62
7
  6
CONTINUOUS
 10
-964.5016259552
 20
95.4639248304
 11
-970.5016259552
 21
95.4639248304
  0
LINE
  5
371
100
AcDbEntity
  8
0
100
AcDbLine
 62
9
  6
CONTINUOUS
 10
-736.9994473921
 20
96.5909414842
 11
-739.0016259552
 21
96.5909414839
  0
LINE
  5
372
100
AcDbEntity
  8
0
100
AcDbLine
 62
9
  6
CONTINUOUS
 10
-668.0016259552
 20
98.4639248304
 11
-736.0016259552
 21
98.4639248304
  0
LINE
  5
373
100
AcDbEntity
  8
0
100
AcDbLine
 62
9
  6
CONTINUOUS
 10
-733.0062468585
 20
109.2659661837
 11
-736.0016259552
 21
109.4324115712
  0
LINE
  5
374
100
AcDbEntity
  8
0
100
AcDbLine
 62
9
  6
CONTINUOUS
 10
-731.4248449754
 20
113.1367757444
 11
-733.347602986
 21
115.40539172
  0
LINE
  5
375
100
AcDbEntity
  8
0
100
AcDbLine
 62
9
  6
CONTINUOUS
 10
-731.2221701071
 20
113.3155748852
 11
-733.1439268327
 21
115.5828966773
  0
LINE
  5
376
100
AcDbEntity
  8
0
100
AcDbLine
 62
7
  6
CONTINUOUS
 10
-750.5016259552
 20
400.4639248304
 11
-750.5016259552
 21
53.4639248826
  0
LINE
  5
377
100
AcDbEntity
  8
0
100
AcDbLine
 62
7
  6
CONTINUOUS
 10
-750.0016259552
 20
50.4639248304
 11
-750.0016259552
 21
320.4639248304
  0
LINE
  5
378
100
AcDbEntity
  8
0
100
AcDbLine
 62
9
  6
CONTINUOUS
 10
-741.0016259552
 20
50.4639248304
 11
-741.0016259552
 21
320.4639248304
  0
LINE
  5
379
100
AcDbEntity
  8
0
100
AcDbLine
 62
7
  6
CONTINUOUS
 10
-739.0016259552
 20
52.4639248304
 11
-739.0016259552
 21
318.4639248304
  0
LINE
  5
37A
100
AcDbEntity
  8
0
100
AcDbLine
 62
9
  6
CONTINUOUS
 10
-737.5016259539
 20
255.4639248304
 11
-737.5016259552
 21
193.4639248304
  0
LINE
  5
37B
100
AcDbEntity
  8
0
100
AcDbLine
 62
9
  6
CONTINUOUS
 10
-737.5016259552
 20
177.4639248304
 11
-737.5016259538
 21
115.4639248296
  0
LINE
  5
37C
100
AcDbEntity
  8
0
100
AcDbLine
 62
9
  6
CONTINUOUS
 10
-736.0016259552
 20
115.4639338231
 11
-739.0016259552
 21
115.4639248304
  0
LINE
  5
37D
100
AcDbEntity
  8
0
100
AcDbLine
 62
9
  6
CONTINUOUS
 10
-653.0016259552
 20
125.4639248304
 11
-668.0016259552
 21
125.4639248304
  0
LINE
  5
37E
100
AcDbEntity
  8
0
100
AcDbLine
 62
7
  6
CONTINUOUS
 10
-970.5016259552
 20
130.4639248304
 11
-964.5016259552
 21
130.4639248304
  0
LINE
  5
37F
100
AcDbEntity
  8
02___PRT_ALL_AXES
100
AcDbLine
 62
7
  6
CONTINUOUS
 10
-964.5016259552
 20
130.4639248304
 11
-970.5016259552
 21
130.4639248304
  0
LINE
  5
380
100
AcDbEntity
  8
0
100
AcDbLine
 62
7
  6
CONTINUOUS
 10
-653.001636708
 20
75.4639141283
 11
-633.0016386016
 21
55.4639121211
  0
LINE
  5
381
100
AcDbEntity
  8
0
100
AcDbLine
 62
9
  6
CONTINUOUS
 10
-699.5955268703
 20
140.5402277085
 11
-701.4017028937
 21
142.848223734
  0
LINE
  5
382
100
AcDbEntity
  8
0
100
AcDbLine
 62
7
  6
CONTINUOUS
 10
-736.0016259552
 20
272.4639248304
 11
-736.0016259552
 21
193.4639248304
  0
LINE
  5
383
100
AcDbEntity
  8
0
100
AcDbLine
 62
7
  6
CONTINUOUS
 10
-736.0016259552
 20
177.4639248304
 11
-736.0016259552
 21
98.4639248304
  0
LINE
  5
384
100
AcDbEntity
  8
0
100
AcDbLine
 62
9
  6
CONTINUOUS
 10
-736.0016259552
 20
180.4639248304
 11
-736.0016259552
 21
190.4639248304
  0
LINE
  5
385
100
AcDbEntity
  8
0
100
AcDbLine
 62
9
  6
CONTINUOUS
 10
-735.0016259552
 20
85.4639248304
 11
-735.0016259552
 21
93.7703073507
  0
LINE
  5
386
100
AcDbEntity
  8
0
100
AcDbLine
 62
9
  6
CONTINUOUS
 10
-735.0016259552
 20
277.1575420705
 11
-735.0016259552
 21
285.4639248304
  0
LINE
  5
387
100
AcDbEntity
  8
0
100
AcDbLine
 62
9
  6
CONTINUOUS
 10
-733.1439268327
 20
255.3449529836
 11
-733.1439268327
 21
193.2131213333
  0
LINE
  5
388
100
AcDbEntity
  8
0
100
AcDbLine
 62
9
  6
CONTINUOUS
 10
-733.1439268327
 20
177.7147283275
 11
-733.1439268327
 21
115.5828966773
  0
LINE
  5
389
100
AcDbEntity
  8
0
100
AcDbLine
 62
9
  6
CONTINUOUS
 10
-733.0016259552
 20
108.979998359
 11
-733.0016259552
 21
93.4639003301
  0
LINE
  5
38A
100
AcDbEntity
  8
0
100
AcDbLine
 62
9
  6
CONTINUOUS
 10
-733.0016259552
 20
261.9478513018
 11
-733.0016259552
 21
277.4639493267
  0
LINE
  5
38B
100
AcDbEntity
  8
0
100
AcDbLine
 62
9
  6
CONTINUOUS
 10
-733.347602986
 20
255.5224579408
 11
-731.4248449754
 21
257.7910739164
  0
LINE
  5
38C
100
AcDbEntity
  8
0
100
AcDbLine
 62
9
  6
CONTINUOUS
 10
-733.1439268327
 20
255.3449529836
 11
-731.2221701329
 21
257.6122747976
  0
LINE
  5
38D
100
AcDbEntity
  8
0
100
AcDbLine
 62
9
  6
CONTINUOUS
 10
-670.9527653227
 20
140.2788594584
 11
-668.0016259552
 21
140.8180963579
  0
LINE
  5
38E
100
AcDbEntity
  8
0
100
AcDbLine
 62
9
  6
CONTINUOUS
 10
-672.0016259552
 20
141.8605992692
 11
-696.2594020162
 21
141.8605992692
  0
LINE
  5
38F
100
AcDbEntity
  8
0
100
AcDbLine
 62
9
  6
CONTINUOUS
 10
-672.0016259552
 20
144.7355438117
 11
-696.2594020162
 21
144.7355438117
  0
LINE
  5
390
100
AcDbEntity
  8
0
100
AcDbLine
 62
9
  6
CONTINUOUS
 10
-960.5016259552
 20
155.4639248304
 11
-970.5016259552
 21
155.4639248304
  0
LINE
  5
391
100
AcDbEntity
  8
0
100
AcDbLine
 62
7
  6
CONTINUOUS
 10
-781.611636553
 20
457.9462867402
 11
-785.5016259552
 21
472.4639248304
  0
LINE
  5
392
100
AcDbEntity
  8
0
100
AcDbLine
 62
9
  6
CONTINUOUS
 10
-701.4017028937
 20
228.079625915
 11
-701.4017028937
 21
193.0699853795
  0
LINE
  5
393
100
AcDbEntity
  8
0
100
AcDbLine
 62
9
  6
CONTINUOUS
 10
-701.4017028937
 20
177.8578642813
 11
-701.4017028937
 21
142.848223734
  0
LINE
  5
394
100
AcDbEntity
  8
0
100
AcDbLine
 62
9
  6
CONTINUOUS
 10
-696.2594020162
 20
141.8605992692
 11
-696.2594020162
 21
180.4639248304
  0
LINE
  5
395
100
AcDbEntity
  8
0
100
AcDbLine
 62
9
  6
CONTINUOUS
 10
-696.2594020162
 20
190.4639248304
 11
-696.2594020162
 21
229.0672503917
  0
LINE
  5
396
100
AcDbEntity
  8
0
100
AcDbLine
 62
9
  6
CONTINUOUS
 10
-739.0016259552
 20
177.4639248304
 11
-736.0016259552
 21
177.4639248304
  0
LINE
  5
397
100
AcDbEntity
  8
0
100
AcDbLine
 62
9
  6
CONTINUOUS
 10
-668.0016259552
 20
177.4639248304
 11
-666.0016259553
 21
177.4639248302
  0
LINE
  5
398
100
AcDbEntity
  8
0
100
AcDbLine
 62
9
  6
CONTINUOUS
 10
-696.2594020162
 20
177.9913973579
 11
-672.0016259552
 21
177.9913973579
  0
LINE
  5
399
100
AcDbEntity
  8
0
100
AcDbLine
 62
7
  6
CONTINUOUS
 10
-671.0016259552
 20
180.4639248304
 11
-736.0016259552
 21
180.4639248304
  0
LINE
  5
39A
100
AcDbEntity
  8
0
100
AcDbLine
 62
9
  6
CONTINUOUS
 10
-671.0016259552
 20
182.4639248304
 11
-739.0016259552
 21
182.4639248306
  0
LINE
  5
39B
100
AcDbEntity
  8
0
100
AcDbLine
 62
9
  6
CONTINUOUS
 10
-750.5016259552
 20
185.4639248304
 11
-960.5016259552
 21
185.4639248304
  0
LINE
  5
39C
100
AcDbEntity
  8
0
100
AcDbLine
 62
9
  6
CONTINUOUS
 10
-671.0016259552
 20
188.4639248304
 11
-739.0016259552
 21
188.4639248302
  0
LINE
  5
39D
100
AcDbEntity
  8
0
100
AcDbLine
 62
7
  6
CONTINUOUS
 10
-736.0016259552
 20
190.4639248304
 11
-671.0016259552
 21
190.4639248304
  0
LINE
  5
39E
100
AcDbEntity
  8
0
100
AcDbLine
 62
9
  6
CONTINUOUS
 10
-672.0016259552
 20
192.9364523029
 11
-696.2594020162
 21
192.9364523029
  0
LINE
  5
39F
100
AcDbEntity
  8
0
100
AcDbLine
 62
7
  6
CONTINUOUS
 10
-986.983987865
 20
274.6982910811
 11
-1008.5016259552
 21
280.4639248304
  0
LINE
  5
3A0
100
AcDbEntity
  8
0
100
AcDbLine
 62
9
  6
CONTINUOUS
 10
-672.0016259552
 20
141.8605992692
 11
-672.0016259552
 21
180.4639248304
  0
LINE
  5
3A1
100
AcDbEntity
  8
0
100
AcDbLine
 62
9
  6
CONTINUOUS
 10
-672.0016259552
 20
190.4639248304
 11
-672.0016259552
 21
229.0672503917
  0
LINE
  5
3A2
100
AcDbEntity
  8
0
100
AcDbLine
 62
9
  6
CONTINUOUS
 10
-671.0016259552
 20
190.4639248304
 11
-671.0016259555
 21
188.4639248305
  0
LINE
  5
3A3
100
AcDbEntity
  8
0
100
AcDbLine
 62
9
  6
CONTINUOUS
 10
-671.0016259555
 20
85.4639248304
 11
-671.0016259552
 21
140.0519220118
  0
LINE
  5
3A4
100
AcDbEntity
  8
0
100
AcDbLine
 62
9
  6
CONTINUOUS
 10
-671.0016259552
 20
180.4639248304
 11
-671.0016259552
 21
182.4639248304
  0
LINE
  5
3A5
100
AcDbEntity
  8
0
100
AcDbLine
 62
9
  6
CONTINUOUS
 10
-671.0016259552
 20
230.875927649
 11
-671.0016259552
 21
285.4639248304
  0
LINE
  5
3A6
100
AcDbEntity
  8
0
100
AcDbLine
 62
7
  6
CONTINUOUS
 10
-668.0016259552
 20
87.4639248304
 11
-668.0016259552
 21
177.4639248304
  0
LINE
  5
3A7
100
AcDbEntity
  8
0
100
AcDbLine
 62
7
  6
CONTINUOUS
 10
-668.0016259552
 20
193.4639248304
 11
-668.0016259552
 21
283.4639248304
  0
LINE
  5
3A8
100
AcDbEntity
  8
0
100
AcDbLine
 62
9
  6
CONTINUOUS
 10
-666.0016259552
 20
85.4639248304
 11
-666.0016259552
 21
177.4639248304
  0
LINE
  5
3A9
100
AcDbEntity
  8
0
100
AcDbLine
 62
9
  6
CONTINUOUS
 10
-666.0016259552
 20
193.4639248304
 11
-666.0016259552
 21
285.4639248304
  0
LINE
  5
3AA
100
AcDbEntity
  8
0
100
AcDbLine
 62
9
  6
CONTINUOUS
 10
-654.0016259552
 20
285.4639248304
 11
-654.0016259552
 21
85.4639248304
  0
LINE
  5
3AB
100
AcDbEntity
  8
0
100
AcDbLine
 62
7
  6
CONTINUOUS
 10
-653.0016259552
 20
75.4652030179
 11
-653.0016259552
 21
295.4626466429
  0
LINE
  5
3AC
100
AcDbEntity
  8
0
100
AcDbLine
 62
9
  6
CONTINUOUS
 10
-701.4017028937
 20
228.079625915
 11
-699.5955238749
 21
230.3876196076
  0
LINE
  5
3AD
100
AcDbEntity
  8
0
100
AcDbLine
 62
7
  6
CONTINUOUS
 10
-653.001636708
 20
295.4639355325
 11
-633.0016386016
 21
315.4639375397
  0
LINE
  5
3AE
100
AcDbEntity
  8
0
100
AcDbLine
 62
9
  6
CONTINUOUS
 10
-668.0016259552
 20
193.4639248304
 11
-666.0016259552
 21
193.4639248304
  0
LINE
  5
3AF
100
AcDbEntity
  8
0
100
AcDbLine
 62
9
  6
CONTINUOUS
 10
-736.0016259552
 20
193.4639248304
 11
-739.0016259552
 21
193.4639248304
  0
LINE
  5
3B0
100
AcDbEntity
  8
0
100
AcDbLine
 62
9
  6
CONTINUOUS
 10
-668.0016259552
 20
230.109753303
 11
-670.9527653227
 21
230.6489902025
  0
LINE
  5
3B1
100
AcDbEntity
  8
0
100
AcDbLine
 62
7
  6
CONTINUOUS
 10
-633.0016260161
 20
55.4639248304
 11
-633.0016260161
 21
315.4639248304
  0
LINE
  5
3B2
100
AcDbEntity
  8
0
100
AcDbLine
 62
7
  6
CONTINUOUS
 10
-630.0016259552
 20
25.4639248304
 11
-630.0016259552
 21
29.4639248304
  0
LINE
  5
3B3
100
AcDbEntity
  8
0
100
AcDbLine
 62
9
  6
CONTINUOUS
 10
-960.5016259552
 20
225.4639248304
 11
-970.5016259552
 21
225.4639248304
  0
LINE
  5
3B4
100
AcDbEntity
  8
0
100
AcDbLine
 62
9
  6
CONTINUOUS
 10
-696.2594020162
 20
226.1923058492
 11
-672.0016259552
 21
226.1923058492
  0
LINE
  5
3B5
100
AcDbEntity
  8
0
100
AcDbLine
 62
9
  6
CONTINUOUS
 10
-696.2594020162
 20
229.0672503917
 11
-672.0016259552
 21
229.0672503917
  0
LINE
  5
3B6
100
AcDbEntity
  8
0
100
AcDbLine
 62
9
  6
CONTINUOUS
 10
-653.0016259552
 20
245.4639248304
 11
-668.0016259552
 21
245.4639248304
  0
LINE
  5
3B7
100
AcDbEntity
  8
0
100
AcDbLine
 62
7
  6
CONTINUOUS
 10
-970.5016259552
 20
250.4639248304
 11
-964.5016259552
 21
250.4639248304
  0
LINE
  5
3B8
100
AcDbEntity
  8
0
100
AcDbLine
 62
9
  6
CONTINUOUS
 10
-615.0016259552
 20
25.4639248304
 11
-615.0016259552
 21
29.4639248304
  0
LINE
  5
3B9
100
AcDbEntity
  8
0
100
AcDbLine
 62
7
  6
CONTINUOUS
 10
-603.0016259552
 20
295.0084363314
 11
-603.0016259552
 21
365.4639248304
  0
LINE
  5
3BA
100
AcDbEntity
  8
0
100
AcDbLine
 62
9
  6
CONTINUOUS
 10
-594.0016259552
 20
29.4639248304
 11
-594.0016259552
 21
25.4639248304
  0
LINE
  5
3BB
100
AcDbEntity
  8
0
100
AcDbLine
 62
3
  6
CONTINUOUS
 10
-590.0016259552
 20
33.4639248304
 11
-590.0016259552
 21
45.4639248304
  0
LINE
  5
3BC
100
AcDbEntity
  8
0
100
AcDbLine
 62
9
  6
CONTINUOUS
 10
-736.0016259552
 20
261.4954380896
 11
-733.0062468585
 21
261.6618834771
  0
LINE
  5
3BD
100
AcDbEntity
  8
0
100
AcDbLine
 62
9
  6
CONTINUOUS
 10
-739.0016259552
 20
255.4639248304
 11
-736.0016259552
 21
255.4639158009
  0
LINE
  5
3BE
100
AcDbEntity
  8
0
100
AcDbLine
 62
7
  6
CONTINUOUS
 10
-983.5016259552
 20
265.4639248304
 11
-960.5016259552
 21
265.4639248304
  0
LINE
  5
3BF
100
AcDbEntity
  8
0
100
AcDbLine
 62
9
  6
CONTINUOUS
 10
-668.0016259552
 20
272.4639248304
 11
-736.0016259552
 21
272.4639248304
  0
LINE
  5
3C0
100
AcDbEntity
  8
0
100
AcDbLine
 62
9
  6
CONTINUOUS
 10
-739.0016259552
 20
274.3369081769
 11
-736.999447245
 21
274.3369081766
  0
LINE
  5
3C1
100
AcDbEntity
  8
0
100
AcDbLine
 62
7
  6
CONTINUOUS
 10
-671.0016259552
 20
275.4639248304
 11
-733.0016259552
 21
275.4639248304
  0
LINE
  5
3C2
100
AcDbEntity
  8
0
100
AcDbLine
 62
9
  6
CONTINUOUS
 10
-750.5016259552
 20
282.3014305393
 11
-960.5016259552
 21
282.3014305393
  0
LINE
  5
3C3
100
AcDbEntity
  8
0
100
AcDbLine
 62
7
  6
CONTINUOUS
 10
-586.0016259552
 20
33.4639248304
 11
-586.0016259552
 21
45.4639248304
  0
LINE
  5
3C4
100
AcDbEntity
  8
0
100
AcDbLine
 62
7
  6
CONTINUOUS
 10
-584.0016259552
 20
53.4639248304
 11
-584.0016259552
 21
68.4639248304
  0
LINE
  5
3C5
100
AcDbEntity
  8
0
100
AcDbLine
 62
9
  6
CONTINUOUS
 10
-582.0016259552
 20
53.4639248304
 11
-582.0016259552
 21
49.4639248304
  0
LINE
  5
3C6
100
AcDbEntity
  8
0
100
AcDbLine
 62
9
  6
CONTINUOUS
 10
-985.5016259552
 20
283.4639248304
 11
-970.5016259552
 21
283.4639248304
  0
LINE
  5
3C7
100
AcDbEntity
  8
0
100
AcDbLine
 62
9
  6
CONTINUOUS
 10
-668.0016259552
 20
283.4639248304
 11
-739.0016259552
 21
283.4639248306
  0
LINE
  5
3C8
100
AcDbEntity
  8
0
100
AcDbLine
 62
9
  6
CONTINUOUS
 10
-970.5016259552
 20
285.4639248304
 11
-960.5016259552
 21
285.4639248304
  0
LINE
  5
3C9
100
AcDbEntity
  8
3_ALL_AXES
100
AcDbLine
 62
7
  6
CONTINUOUS
 10
-666.0016259552
 20
285.4639248304
 11
-654.0016259552
 21
285.4639248304
  0
LINE
  5
3CA
100
AcDbEntity
  8
0
100
AcDbLine
 62
7
  6
CONTINUOUS
 10
-654.0016259552
 20
285.4639248304
 11
-735.0016259552
 21
285.4639248304
  0
LINE
  5
3CB
100
AcDbEntity
  8
0
100
AcDbLine
 62
7
  6
CONTINUOUS
 10
-463.0016259552
 20
295.0084363314
 11
-603.0016259552
 21
295.0084363314
  0
LINE
  5
3CC
100
AcDbEntity
  8
3_ALL_AXES
100
AcDbLine
 62
7
  6
CONTINUOUS
 10
-750.5016259552
 20
307.9639248304
 11
-750.0016259552
 21
307.9639248304
  0
LINE
  5
3CD
100
AcDbEntity
  8
02___PRT_ALL_AXES
100
AcDbLine
 62
7
  6
CONTINUOUS
 10
-263.2858725917
 20
315.4639248304
 11
-305.0016259552
 21
315.4639248304
  0
LINE
  5
3CE
100
AcDbEntity
  8
02___PRT_ALL_AXES
100
AcDbLine
 62
7
  6
CONTINUOUS
 10
-315.0016259552
 20
315.4639248304
 11
-463.0016259552
 21
315.4639248304
  0
LINE
  5
3CF
100
AcDbEntity
  8
02___PRT_ALL_AXES
100
AcDbLine
 62
7
  6
CONTINUOUS
 10
-603.0016259552
 20
315.4639248304
 11
-633.0016258923
 21
315.4639248304
  0
LINE
  5
3D0
100
AcDbEntity
  8
0
100
AcDbLine
 62
7
  6
CONTINUOUS
 10
-750.0016259552
 20
320.4639248304
 11
-741.0016259552
 21
320.4639248304
  0
LINE
  5
3D1
100
AcDbEntity
  8
0
100
AcDbLine
 62
7
  6
CONTINUOUS
 10
-603.0016259552
 20
365.4639248304
 11
-463.0016259552
 21
365.4639248304
  0
LINE
  5
3D2
100
AcDbEntity
  8
0
100
AcDbLine
 62
7
  6
CONTINUOUS
 10
-890.5016259552
 20
394.323749744
 11
-810.5016259552
 21
394.323749744
  0
LINE
  5
3D3
100
AcDbEntity
  8
0
100
AcDbLine
 62
7
  6
CONTINUOUS
 10
-463.0016259552
 20
295.0084363314
 11
-463.0016259552
 21
365.4639248304
  0
LINE
  5
3D4
100
AcDbEntity
  8
0
100
AcDbLine
 62
9
  6
CONTINUOUS
 10
-955.602993951
 20
405.4639248304
 11
-970.5016259552
 21
405.4639248304
  0
LINE
  5
3D5
100
AcDbEntity
  8
0
100
AcDbLine
 62
9
  6
CONTINUOUS
 10
-985.5016259552
 20
407.4639248304
 11
-970.5016259552
 21
407.4639248304
  0
LINE
  5
3D6
100
AcDbEntity
  8
0
100
AcDbLine
 62
9
  6
CONTINUOUS
 10
-910.5016259552
 20
423.4438510043
 11
-935.5016259552
 21
423.4438510043
  0
LINE
  5
3D7
100
AcDbEntity
  8
0
100
AcDbLine
 62
9
  6
CONTINUOUS
 10
-775.5016259889
 20
423.4438805622
 11
-790.5016259552
 21
423.4438510043
  0
LINE
  5
3D8
100
AcDbEntity
  8
0
100
AcDbLine
 62
7
  6
CONTINUOUS
 10
-770.5016259552
 20
425.4639248304
 11
-983.5016259552
 21
425.4639248304
  0
LINE
  5
3D9
100
AcDbEntity
  8
0
100
AcDbLine
 62
7
  6
CONTINUOUS
 10
-770.5016259552
 20
440.4639248304
 11
-930.5016259552
 21
440.4639248304
  0
LINE
  5
3DA
100
AcDbEntity
  8
0
100
AcDbLine
 62
9
  6
CONTINUOUS
 10
-930.5016259552
 20
454.4639248304
 11
-770.5016259552
 21
454.4639248304
  0
LINE
  5
3DB
100
AcDbEntity
  8
0
100
AcDbLine
 62
7
  6
CONTINUOUS
 10
-928.5016259552
 20
456.4639248304
 11
-772.5016259552
 21
456.4639248304
  0
LINE
  5
3DC
100
AcDbEntity
  8
0
100
AcDbLine
 62
9
  6
CONTINUOUS
 10
-919.3916153575
 20
457.9462867402
 11
-781.611636553
 21
457.9462867402
  0
LINE
  5
3DD
100
AcDbEntity
  8
0
100
AcDbLine
 62
7
  6
CONTINUOUS
 10
-915.5016259552
 20
472.4639248304
 11
-785.5016259552
 21
472.4639248304
  0
LINE
  5
3DE
100
AcDbEntity
  8
0
100
AcDbLine
 62
9
  6
CONTINUOUS
 10
-368.0016259552
 20
53.4639248304
 11
-368.0016259552
 21
49.4639248304
  0
LINE
  5
3DF
100
AcDbEntity
  8
0
100
AcDbLine
 62
7
  6
CONTINUOUS
 10
-366.0016259552
 20
53.4639248304
 11
-366.0016259552
 21
68.4639248304
  0
LINE
  5
3E0
100
AcDbEntity
  8
0
100
AcDbLine
 62
7
  6
CONTINUOUS
 10
-364.0016259552
 20
45.4639248304
 11
-364.0016259552
 21
33.4639248304
  0
LINE
  5
3E1
100
AcDbEntity
  8
0
100
AcDbLine
 62
3
  6
CONTINUOUS
 10
-360.0016259552
 20
45.4639248304
 11
-360.0016259552
 21
33.4639248304
  0
LINE
  5
3E2
100
AcDbEntity
  8
0
100
AcDbLine
 62
9
  6
CONTINUOUS
 10
-356.0016259552
 20
29.4639248304
 11
-356.0016259552
 21
25.4639248304
  0
LINE
  5
3E3
100
AcDbEntity
  8
0
100
AcDbLine
 62
7
  6
CONTINUOUS
 10
-986.983987865
 20
416.2295585797
 11
-1008.5016259552
 21
410.4639248304
  0
LINE
  5
3E4
100
AcDbEntity
  8
0
100
AcDbLine
 62
7
  6
CONTINUOUS
 10
-305.0016259552
 20
305.4639248304
 11
-315.0016259552
 21
315.4639248304
  0
LINE
  5
3E5
100
AcDbEntity
  8
0
100
AcDbLine
 62
9
  6
CONTINUOUS
 10
-335.0016259552
 20
25.4639248304
 11
-335.0016259552
 21
29.4639248304
  0
LINE
  5
3E6
100
AcDbEntity
  8
0
100
AcDbLine
 62
7
  6
CONTINUOUS
 10
-320.0016259552
 20
25.4639248304
 11
-320.0016259552
 21
29.4639248304
  0
LINE
  5
3E7
100
AcDbEntity
  8
0
100
AcDbLine
 62
7
  6
CONTINUOUS
 10
-315.0016259552
 20
55.4639248304
 11
-315.0016259552
 21
315.4639248304
  0
LINE
  5
3E8
100
AcDbEntity
  8
0
100
AcDbLine
 62
7
  6
CONTINUOUS
 10
-305.0016259552
 20
55.4654484676
 11
-305.0016259552
 21
315.4624011933
  0
LINE
  5
3E9
100
AcDbEntity
  8
0
100
AcDbLine
 62
7
  6
CONTINUOUS
 10
-240.8594888839
 20
301.3218107314
 11
-249.1437355729
 21
309.6060590631
  0
LINE
  5
3EA
100
AcDbEntity
  8
0
100
AcDbLine
 62
9
  6
CONTINUOUS
 10
-263.2858726005
 20
55.4639248433
 11
-263.2858726005
 21
315.4639248175
  0
LINE
  5
3EB
100
AcDbEntity
  8
0
100
AcDbLine
 62
7
  6
CONTINUOUS
 10
-305.0016259552
 20
65.4639248304
 11
-315.0016259552
 21
55.4639248304
  0
LINE
  5
3EC
100
AcDbEntity
  8
0
100
AcDbLine
 62
9
  6
CONTINUOUS
 10
-249.1437355972
 20
61.3217905857
 11
-249.1437355972
 21
309.6060590751
  0
LINE
  5
3ED
100
AcDbEntity
  8
0
100
AcDbLine
 62
9
  6
CONTINUOUS
 10
-240.8594888839
 20
301.3218107314
 11
-240.8594888839
 21
69.6060389294
  0
LINE
  5
3EE
100
AcDbEntity
  8
0
100
AcDbLine
 62
7
  6
CONTINUOUS
 10
-235.0016259552
 20
287.1796765312
 11
-235.0016259552
 21
83.7481731296
  0
LINE
  5
3EF
100
AcDbEntity
  8
0
100
AcDbLine
 62
7
  6
CONTINUOUS
 10
-240.8594888839
 20
69.6060389294
 11
-249.1437355729
 21
61.3217905977
  0
LINE
  5
3F0
100
AcDbEntity
  8
0
100
AcDbLine
 62
7
  6
CONTINUOUS
 10
1668.875731654
 20
25.4639248304
 11
1958.875731654
 21
25.4639248304
  0
LINE
  5
3F1
100
AcDbEntity
  8
0
100
AcDbLine
 62
3
  6
CONTINUOUS
 10
1683.875731654
 20
29.4639248304
 11
1943.875731654
 21
29.4639248304
  0
LINE
  5
3F2
100
AcDbEntity
  8
0
100
AcDbLine
 62
9
  6
CONTINUOUS
 10
1683.875731654
 20
33.4639248304
 11
1943.875731654
 21
33.4639248304
  0
LINE
  5
3F3
100
AcDbEntity
  8
0
100
AcDbLine
 62
9
  6
CONTINUOUS
 10
1668.875731654
 20
40.4639248304
 11
1683.875731654
 21
40.4639248304
  0
LINE
  5
3F4
100
AcDbEntity
  8
0
100
AcDbLine
 62
9
  6
CONTINUOUS
 10
1943.875731654
 20
40.4639248304
 11
1958.875731654
 21
40.4639248304
  0
LINE
  5
3F5
100
AcDbEntity
  8
0
100
AcDbLine
 62
7
  6
CONTINUOUS
 10
1671.875731654
 20
43.4639248304
 11
1683.875731654
 21
43.4639248304
  0
LINE
  5
3F6
100
AcDbEntity
  8
0
100
AcDbLine
 62
7
  6
CONTINUOUS
 10
1943.875731654
 20
43.4639248304
 11
1955.875731654
 21
43.4639248304
  0
LINE
  5
3F7
100
AcDbEntity
  8
0
100
AcDbLine
 62
9
  6
CONTINUOUS
 10
1683.875731654
 20
45.4639248304
 11
1943.875731654
 21
45.4639248304
  0
LINE
  5
3F8
100
AcDbEntity
  8
0
100
AcDbLine
 62
7
  6
CONTINUOUS
 10
1683.875731654
 20
53.4639248304
 11
1943.875731654
 21
53.4639248304
  0
LINE
  5
3F9
100
AcDbEntity
  8
0
100
AcDbLine
 62
7
  6
CONTINUOUS
 10
1677.4857422517
 20
457.9462867402
 11
1681.375731654
 21
472.4639248304
  0
LINE
  5
3FA
100
AcDbEntity
  8
0
100
AcDbLine
 62
7
  6
CONTINUOUS
 10
1683.875731654
 20
68.4639248304
 11
1757.2100453879
 21
68.4639248304
  0
LINE
  5
3FB
100
AcDbEntity
  8
0
100
AcDbLine
 62
7
  6
CONTINUOUS
 10
1870.54141792
 20
68.4639248304
 11
1943.875731654
 21
68.4639248304
  0
LINE
  5
3FC
100
AcDbEntity
  8
0
100
AcDbLine
 62
7
  6
CONTINUOUS
 10
1639.375731654
 20
282.3014305393
 11
1639.375731654
 21
185.4639248304
  0
LINE
  5
3FD
100
AcDbEntity
  8
0
100
AcDbLine
 62
9
  6
CONTINUOUS
 10
1664.375731654
 20
282.3014305393
 11
1664.375731654
 21
185.4639248304
  0
LINE
  5
3FE
100
AcDbEntity
  8
0
100
AcDbLine
 62
7
  6
CONTINUOUS
 10
1666.375731654
 20
454.4639248304
 11
1666.375731654
 21
425.4639248304
  0
LINE
  5
3FF
100
AcDbEntity
  8
0
100
AcDbLine
 62
7
  6
CONTINUOUS
 10
1668.875731654
 20
25.4639248304
 11
1668.875731654
 21
40.4639248304
  0
LINE
  5
400
100
AcDbEntity
  8
0
100
AcDbLine
 62
9
  6
CONTINUOUS
 10
1680.875731654
 20
25.4639248304
 11
1680.875731654
 21
43.4639248304
  0
LINE
  5
401
100
AcDbEntity
  8
0
100
AcDbLine
 62
3
  6
CONTINUOUS
 10
1683.875731654
 20
53.4639248304
 11
1683.875731654
 21
29.4639248304
  0
LINE
  5
402
100
AcDbEntity
  8
0
100
AcDbLine
 62
7
  6
CONTINUOUS
 10
1683.875731654
 20
25.4639248304
 11
1683.875731654
 21
29.4639248304
  0
LINE
  5
403
100
AcDbEntity
  8
0
100
AcDbLine
 62
7
  6
CONTINUOUS
 10
1683.875731654
 20
53.4639248304
 11
1683.875731654
 21
68.4639248304
  0
LINE
  5
404
100
AcDbEntity
  8
0
100
AcDbLine
 62
9
  6
CONTINUOUS
 10
1684.375731654
 20
456.4639248304
 11
1684.375731654
 21
440.4639248304
  0
LINE
  5
405
100
AcDbEntity
  8
0
100
AcDbLine
 62
9
  6
CONTINUOUS
 10
1686.375731654
 20
440.4639248304
 11
1686.375731654
 21
425.4639248304
  0
LINE
  5
406
100
AcDbEntity
  8
0
100
AcDbLine
 62
7
  6
CONTINUOUS
 10
1686.375731654
 20
394.323749744
 11
1686.375731654
 21
425.4639248304
  0
LINE
  5
407
100
AcDbEntity
  8
0
100
AcDbLine
 62
9
  6
CONTINUOUS
 10
1698.875731654
 20
25.4639248304
 11
1698.875731654
 21
29.4639248304
  0
LINE
  5
408
100
AcDbEntity
  8
0
100
AcDbLine
 62
9
  6
CONTINUOUS
 10
1706.375731654
 20
410.9443471729
 11
1706.375731654
 21
425.4639248304
  0
LINE
  5
409
100
AcDbEntity
  8
0
100
AcDbLine
 62
7
  6
CONTINUOUS
 10
1743.875731654
 20
295.0084363314
 11
1743.875731654
 21
365.4639248304
  0
LINE
  5
40A
100
AcDbEntity
  8
0
100
AcDbLine
 62
9
  6
CONTINUOUS
 10
1664.375731654
 20
185.4639248304
 11
1639.375731654
 21
185.4639248304
  0
LINE
  5
40B
100
AcDbEntity
  8
0
100
AcDbLine
 62
9
  6
CONTINUOUS
 10
1948.7934933025
 20
185.4639248304
 11
1953.375731654
 21
185.4639248304
  0
LINE
  5
40C
100
AcDbEntity
  8
0
100
AcDbLine
 62
9
  6
CONTINUOUS
 10
1806.375731654
 20
440.4639248304
 11
1806.375731654
 21
425.4639248304
  0
LINE
  5
40D
100
AcDbEntity
  8
0
100
AcDbLine
 62
9
  6
CONTINUOUS
 10
1808.375731654
 20
456.4639248304
 11
1808.375731654
 21
440.4639248304
  0
LINE
  5
40E
100
AcDbEntity
  8
0
100
AcDbLine
 62
7
  6
CONTINUOUS
 10
1826.375731654
 20
454.4639248304
 11
1826.375731654
 21
425.4639248304
  0
LINE
  5
40F
100
AcDbEntity
  8
0
100
AcDbLine
 62
9
  6
CONTINUOUS
 10
1664.375731654
 20
282.3014305393
 11
1639.375731654
 21
282.3014305393
  0
LINE
  5
410
100
AcDbEntity
  8
0
100
AcDbLine
 62
9
  6
CONTINUOUS
 10
1928.375731654
 20
282.3014305393
 11
1953.375731654
 21
282.3014305389
  0
LINE
  5
411
100
AcDbEntity
  8
0
100
AcDbLine
 62
7
  6
CONTINUOUS
 10
1815.2657210562
 20
457.9462867402
 11
1811.375731654
 21
472.4639248304
  0
LINE
  5
412
100
AcDbEntity
  8
0
100
AcDbLine
 62
7
  6
CONTINUOUS
 10
1883.875731654
 20
295.0084363314
 11
1883.875731654
 21
365.4639248304
  0
LINE
  5
413
100
AcDbEntity
  8
0
100
AcDbLine
 62
9
  6
CONTINUOUS
 10
1928.375731654
 20
256.826219411
 11
1928.375731654
 21
282.3014305393
  0
LINE
  5
414
100
AcDbEntity
  8
0
100
AcDbLine
 62
9
  6
CONTINUOUS
 10
1928.875731654
 20
25.4639248304
 11
1928.875731654
 21
29.4639248304
  0
LINE
  5
415
100
AcDbEntity
  8
0
100
AcDbLine
 62
7
  6
CONTINUOUS
 10
1743.875731654
 20
365.4639248304
 11
1883.875731654
 21
365.4639248304
  0
LINE
  5
416
100
AcDbEntity
  8
02___PRT_ALL_AXES
100
AcDbLine
 62
7
  6
CONTINUOUS
 10
1931.375731654
 20
363.5418753356
 11
1931.375731654
 21
440.4639248304
  0
LINE
  5
417
100
AcDbEntity
  8
0
100
AcDbLine
 62
3
  6
CONTINUOUS
 10
1943.875731654
 20
53.4639248304
 11
1943.875731654
 21
29.4639248304
  0
LINE
  5
418
100
AcDbEntity
  8
0
100
AcDbLine
 62
7
  6
CONTINUOUS
 10
1943.875731654
 20
25.4639248304
 11
1943.875731654
 21
29.4639248304
  0
LINE
  5
419
100
AcDbEntity
  8
0
100
AcDbLine
 62
7
  6
CONTINUOUS
 10
1943.875731654
 20
53.4639248304
 11
1943.875731654
 21
68.4639248304
  0
LINE
  5
41A
100
AcDbEntity
  8
0
100
AcDbLine
 62
9
  6
CONTINUOUS
 10
1946.875731654
 20
25.4639248304
 11
1946.875731654
 21
43.4639248304
  0
LINE
  5
41B
100
AcDbEntity
  8
0
100
AcDbLine
 62
7
  6
CONTINUOUS
 10
1953.375731654
 20
185.4639248304
 11
1953.375731654
 21
282.3014305393
  0
LINE
  5
41C
100
AcDbEntity
  8
0
100
AcDbLine
 62
7
  6
CONTINUOUS
 10
1958.875731654
 20
25.4639248304
 11
1958.875731654
 21
40.4639248304
  0
LINE
  5
41D
100
AcDbEntity
  8
0
100
AcDbLine
 62
9
  6
CONTINUOUS
 10
1855.2110095346
 20
400.4639248304
 11
1737.5404618672
 21
400.4639248304
  0
LWPOLYLINE
  5
41E
100
AcDbEntity
  8
0
100
AcDbPolyline
 62
7
  6
CONTINUOUS
 90
4
 70
0
 10
1931.902044205
 20
361.5585780018
 10
1931.5280528431
 20
362.4484957624
 10
1931.3780153706
 20
363.4060638515
 10
1931.3757090506
 20
363.5418719477
  0
LINE
  5
41F
100
AcDbEntity
  8
0
100
AcDbLine
 62
7
  6
CONTINUOUS
 10
1856.3757286209
 20
425.4639248304
 11
1666.375731654
 21
425.4639248304
  0
LINE
  5
420
100
AcDbEntity
  8
0
100
AcDbLine
 62
9
  6
CONTINUOUS
 10
1826.3757323341
 20
429.4639248304
 11
1856.6543059758
 21
429.4639248304
  0
LINE
  5
421
100
AcDbEntity
  8
0
100
AcDbLine
 62
7
  6
CONTINUOUS
 10
1826.375731654
 20
440.4639248304
 11
1666.375731654
 21
440.4639248304
  0
LINE
  5
422
100
AcDbEntity
  8
02___PRT_ALL_AXES
100
AcDbLine
 62
7
  6
CONTINUOUS
 10
1826.375731654
 20
440.4639248304
 11
1931.3807807208
 21
440.4639248304
  0
LINE
  5
423
100
AcDbEntity
  8
0
100
AcDbLine
 62
9
  6
CONTINUOUS
 10
1666.375731654
 20
454.4639248304
 11
1826.375731654
 21
454.4639248304
  0
LINE
  5
424
100
AcDbEntity
  8
0
100
AcDbLine
 62
7
  6
CONTINUOUS
 10
1668.375731654
 20
456.4639248304
 11
1824.375731654
 21
456.4639248304
  0
LINE
  5
425
100
AcDbEntity
  8
0
100
AcDbLine
 62
9
  6
CONTINUOUS
 10
1677.4857422517
 20
457.9462867402
 11
1815.2657210562
 21
457.9462867402
  0
LINE
  5
426
100
AcDbEntity
  8
0
100
AcDbLine
 62
7
  6
CONTINUOUS
 10
1681.375731654
 20
472.4639248304
 11
1811.375731654
 21
472.4639248304
  0
LINE
  5
427
100
AcDbEntity
  8
0
100
AcDbLine
 62
7
  6
CONTINUOUS
 10
616.8865645686
 20
-425.3090640482
 11
616.8865645686
 21
-221.877560599
  0
LINE
  5
428
100
AcDbEntity
  8
0
100
AcDbLine
 62
9
  6
CONTINUOUS
 10
622.7444275428
 20
-439.4511982706
 11
622.7444275428
 21
-207.7354263774
  0
LINE
  5
429
100
AcDbEntity
  8
0
100
AcDbLine
 62
9
  6
CONTINUOUS
 10
631.0286741752
 20
-199.4511781023
 11
631.0286741752
 21
-447.7354465456
  0
LINE
  5
42A
100
AcDbEntity
  8
0
100
AcDbLine
 62
7
  6
CONTINUOUS
 10
622.7444275428
 20
-439.4511982706
 11
631.0286741752
 21
-447.7354465456
  0
LINE
  5
42B
100
AcDbEntity
  8
0
100
AcDbLine
 62
9
  6
CONTINUOUS
 10
645.170811201
 20
-193.593312324
 11
645.170811201
 21
-453.593312324
  0
LINE
  5
42C
100
AcDbEntity
  8
0
100
AcDbLine
 62
7
  6
CONTINUOUS
 10
622.7444275428
 20
-207.7354263774
 11
631.0286741752
 21
-199.4511781023
  0
LINE
  5
42D
100
AcDbEntity
  8
0
100
AcDbLine
 62
7
  6
CONTINUOUS
 10
686.8865645686
 20
-193.593312324
 11
686.8865645686
 21
-453.593312324
  0
LINE
  5
42E
100
AcDbEntity
  8
0
100
AcDbLine
 62
7
  6
CONTINUOUS
 10
696.8865645686
 20
-193.593312324
 11
696.8865645686
 21
-453.593312324
  0
LINE
  5
42F
100
AcDbEntity
  8
0
100
AcDbLine
 62
7
  6
CONTINUOUS
 10
686.8865645686
 20
-443.593312324
 11
696.8865645686
 21
-453.593312324
  0
LINE
  5
430
100
AcDbEntity
  8
0
100
AcDbLine
 62
7
  6
CONTINUOUS
 10
686.8865645686
 20
-203.593312324
 11
696.8865645686
 21
-193.593312324
  0
LINE
  5
431
100
AcDbEntity
  8
0
100
AcDbLine
 62
7
  6
CONTINUOUS
 10
844.8865645686
 20
-253.593312324
 11
844.8865645686
 21
-393.593312324
  0
LINE
  5
432
100
AcDbEntity
  8
0
100
AcDbLine
 62
7
  6
CONTINUOUS
 10
1368.8689264784
 20
-376.8589460732
 11
1390.3865645686
 21
-371.093312324
  0
LINE
  5
433
100
AcDbEntity
  8
0
100
AcDbLine
 62
7
  6
CONTINUOUS
 10
1224.3865645686
 20
-468.593312324
 11
1250.3865645686
 21
-468.593312324
  0
LINE
  5
434
100
AcDbEntity
  8
0
100
AcDbLine
 62
9
  6
CONTINUOUS
 10
1224.3865645686
 20
-465.593312324
 11
1250.3865645686
 21
-465.593312324
  0
LINE
  5
435
100
AcDbEntity
  8
0
100
AcDbLine
 62
7
  6
CONTINUOUS
 10
1317.3865645686
 20
-463.093312324
 11
1157.3865645686
 21
-463.093312324
  0
LINE
  5
436
100
AcDbEntity
  8
0
100
AcDbLine
 62
7
  6
CONTINUOUS
 10
1131.8865645686
 20
-458.593312324
 11
1122.8865645686
 21
-458.593312324
  0
LINE
  5
437
100
AcDbEntity
  8
0
100
AcDbLine
 62
7
  6
CONTINUOUS
 10
645.170811201
 20
-453.593312324
 11
686.8865645686
 21
-453.593312324
  0
LINE
  5
438
100
AcDbEntity
  8
02___PRT_ALL_AXES
100
AcDbLine
 62
7
  6
CONTINUOUS
 10
645.170811201
 20
-453.593312324
 11
686.8865645686
 21
-453.593312324
  0
LINE
  5
439
100
AcDbEntity
  8
02___PRT_ALL_AXES
100
AcDbLine
 62
7
  6
CONTINUOUS
 10
696.8865645686
 20
-453.593312324
 11
1014.8865645686
 21
-453.593312324
  0
LINE
  5
43A
100
AcDbEntity
  8
0
100
AcDbLine
 62
7
  6
CONTINUOUS
 10
696.8865645686
 20
-453.593312324
 11
1014.8865645686
 21
-453.593312324
  0
LINE
  5
43B
100
AcDbEntity
  8
3_ALL_AXES
100
AcDbLine
 62
7
  6
CONTINUOUS
 10
1131.8865645686
 20
-446.093312324
 11
1132.3865645686
 21
-446.093312324
  0
LINE
  5
43C
100
AcDbEntity
  8
3_ALL_AXES
100
AcDbLine
 62
7
  6
CONTINUOUS
 10
1047.8865645686
 20
-423.593312324
 11
1035.8865645686
 21
-423.593312324
  0
LINE
  5
43D
100
AcDbEntity
  8
0
100
AcDbLine
 62
7
  6
CONTINUOUS
 10
1035.8865645686
 20
-423.593312324
 11
1117.8865645686
 21
-423.593312324
  0
LINE
  5
43E
100
AcDbEntity
  8
0
100
AcDbLine
 62
9
  6
CONTINUOUS
 10
1049.8865645686
 20
-421.593312324
 11
1120.8865645686
 21
-421.593312324
  0
LINE
  5
43F
100
AcDbEntity
  8
0
100
AcDbLine
 62
9
  6
CONTINUOUS
 10
1120.8865645686
 20
-412.4662956702
 11
1117.8865645686
 21
-412.4662956702
  0
LINE
  5
440
100
AcDbEntity
  8
0
100
AcDbLine
 62
9
  6
CONTINUOUS
 10
1117.8865645686
 20
-406.2212976718
 11
1114.8865645686
 21
-406.2212976718
  0
LINE
  5
441
100
AcDbEntity
  8
0
100
AcDbLine
 62
9
  6
CONTINUOUS
 10
1117.8865645686
 20
-400.3122213913
 11
1114.8865645686
 21
-400.3122213913
  0
LINE
  5
442
100
AcDbEntity
  8
0
100
AcDbLine
 62
7
  6
CONTINUOUS
 10
1352.3865645686
 20
-396.093312324
 11
1346.3865645686
 21
-396.093312324
  0
LINE
  5
443
100
AcDbEntity
  8
0
100
AcDbLine
 62
7
  6
CONTINUOUS
 10
844.8865645686
 20
-393.593312324
 11
984.8865645686
 21
-393.593312324
  0
LINE
  5
444
100
AcDbEntity
  8
0
100
AcDbLine
 62
9
  6
CONTINUOUS
 10
1117.8865645686
 20
-393.5933032945
 11
1120.8865645686
 21
-393.593312324
  0
LINE
  5
445
100
AcDbEntity
  8
0
100
AcDbLine
 62
9
  6
CONTINUOUS
 10
1266.0394300804
 20
-366.0933123061
 11
1262.0491430913
 21
-366.371886593
  0
LINE
  5
446
100
AcDbEntity
  8
0
100
AcDbLine
 62
7
  6
CONTINUOUS
 10
1365.3865645686
 20
-386.093312324
 11
1337.4879325644
 21
-386.093312324
  0
LINE
  5
447
100
AcDbEntity
  8
0
100
AcDbLine
 62
9
  6
CONTINUOUS
 10
1034.8865645686
 20
-383.593312324
 11
1049.8865645686
 21
-383.593312324
  0
LINE
  5
448
100
AcDbEntity
  8
0
100
AcDbLine
 62
9
  6
CONTINUOUS
 10
1266.3856632825
 20
-374.8524364115
 11
1317.3865645686
 21
-374.8524364115
  0
LINE
  5
449
100
AcDbEntity
  8
0
100
AcDbLine
 62
9
  6
CONTINUOUS
 10
1157.3865646022
 20
-374.8523757306
 11
1198.3874658546
 21
-374.8524364115
  0
LINE
  5
44A
100
AcDbEntity
  8
0
100
AcDbLine
 62
9
  6
CONTINUOUS
 10
1049.8865645686
 20
-369.3999712285
 11
1052.8865645686
 21
-369.3999712285
  0
LINE
  5
44B
100
AcDbEntity
  8
0
100
AcDbLine
 62
9
  6
CONTINUOUS
 10
1078.1443406295
 20
-368.3844944919
 11
1053.8865645686
 21
-368.3844944919
  0
LINE
  5
44C
100
AcDbEntity
  8
0
100
AcDbLine
 62
9
  6
CONTINUOUS
 10
1367.3865645686
 20
-368.093312324
 11
1352.3865645686
 21
-368.093312324
  0
LINE
  5
44D
100
AcDbEntity
  8
0
100
AcDbLine
 62
9
  6
CONTINUOUS
 10
1117.8865645686
 20
-367.593312324
 11
1120.8865645686
 21
-367.593312324
  0
LINE
  5
44E
100
AcDbEntity
  8
0
100
AcDbLine
 62
9
  6
CONTINUOUS
 10
1049.8865645686
 20
-366.593312324
 11
1047.8865645686
 21
-366.593312324
  0
LINE
  5
44F
100
AcDbEntity
  8
0
100
AcDbLine
 62
9
  6
CONTINUOUS
 10
1352.3865645686
 20
-366.093312324
 11
1266.0394300817
 21
-366.093312324
  0
LINE
  5
450
100
AcDbEntity
  8
0
100
AcDbLine
 62
9
  6
CONTINUOUS
 10
1198.7336990554
 20
-366.093312324
 11
1157.3865645686
 21
-366.0933092909
  0
LINE
  5
451
100
AcDbEntity
  8
0
100
AcDbLine
 62
9
  6
CONTINUOUS
 10
1078.1443406295
 20
-365.4312297336
 11
1053.8865645686
 21
-365.4312297336
  0
LINE
  5
452
100
AcDbEntity
  8
0
100
AcDbLine
 62
7
  6
CONTINUOUS
 10
1116.8865645686
 20
-363.593312324
 11
1052.8865645686
 21
-363.593312324
  0
LINE
  5
453
100
AcDbEntity
  8
0
100
AcDbLine
 62
9
  6
CONTINUOUS
 10
1052.8865645686
 20
-361.593312324
 11
1120.8865645686
 21
-361.593312324
  0
LINE
  5
454
100
AcDbEntity
  8
0
100
AcDbLine
 62
7
  6
CONTINUOUS
 10
1170.3865645686
 20
-336.093312324
 11
1294.3865645686
 21
-336.093312324
  0
LINE
  5
455
100
AcDbEntity
  8
0
100
AcDbLine
 62
9
  6
CONTINUOUS
 10
1170.3865645686
 20
-334.093312324
 11
1294.3865645686
 21
-334.093312324
  0
LINE
  5
456
100
AcDbEntity
  8
0
100
AcDbLine
 62
9
  6
CONTINUOUS
 10
1198.7336990553
 20
-366.0933123052
 11
1202.7239893658
 21
-366.3718868243
  0
LINE
  5
457
100
AcDbEntity
  8
0
100
AcDbLine
 62
7
  6
CONTINUOUS
 10
984.8865645686
 20
-393.593312324
 11
984.8865645686
 21
-253.593312324
  0
LINE
  5
458
100
AcDbEntity
  8
0
100
AcDbLine
 62
9
  6
CONTINUOUS
 10
1154.3865645686
 20
-318.093312324
 11
1152.3865645686
 21
-318.093312324
  0
LINE
  5
459
100
AcDbEntity
  8
0
100
AcDbLine
 62
9
  6
CONTINUOUS
 10
1310.3865645686
 20
-318.093312324
 11
1312.3865645686
 21
-318.093312324
  0
LINE
  5
45A
100
AcDbEntity
  8
0
100
AcDbLine
 62
7
  6
CONTINUOUS
 10
1014.8865645686
 20
-193.593312324
 11
1014.8865645686
 21
-453.593312324
  0
LINE
  5
45B
100
AcDbEntity
  8
0
100
AcDbLine
 62
7
  6
CONTINUOUS
 10
1034.8865645686
 20
-213.593312324
 11
1034.8865645686
 21
-433.5933123239
  0
LINE
  5
45C
100
AcDbEntity
  8
0
100
AcDbLine
 62
9
  6
CONTINUOUS
 10
1052.8865645686
 20
-285.593312324
 11
1120.8865645686
 21
-285.5933123239
  0
LINE
  5
45D
100
AcDbEntity
  8
0
100
AcDbLine
 62
7
  6
CONTINUOUS
 10
1052.8865645686
 20
-283.593312324
 11
1116.8865645686
 21
-283.593312324
  0
LINE
  5
45E
100
AcDbEntity
  8
0
100
AcDbLine
 62
9
  6
CONTINUOUS
 10
1053.8865645686
 20
-281.7553949144
 11
1078.1443406295
 21
-281.7553949144
  0
LINE
  5
45F
100
AcDbEntity
  8
0
100
AcDbLine
 62
9
  6
CONTINUOUS
 10
1049.8865645686
 20
-280.593312324
 11
1047.8865645686
 21
-280.5933123237
  0
LINE
  5
460
100
AcDbEntity
  8
0
100
AcDbLine
 62
9
  6
CONTINUOUS
 10
1117.8865645686
 20
-279.593312324
 11
1120.8865645686
 21
-279.593312324
  0
LINE
  5
461
100
AcDbEntity
  8
0
100
AcDbLine
 62
9
  6
CONTINUOUS
 10
1053.8865645686
 20
-278.802130156
 11
1078.1443406295
 21
-278.802130156
  0
LINE
  5
462
100
AcDbEntity
  8
0
100
AcDbLine
 62
9
  6
CONTINUOUS
 10
1049.8865645686
 20
-277.7866534194
 11
1052.8865645686
 21
-277.7866534194
  0
LINE
  5
463
100
AcDbEntity
  8
0
100
AcDbLine
 62
9
  6
CONTINUOUS
 10
1035.8865645686
 20
-423.593312324
 11
1035.8865645686
 21
-223.593312324
  0
LINE
  5
464
100
AcDbEntity
  8
0
100
AcDbLine
 62
9
  6
CONTINUOUS
 10
1047.8865645686
 20
-223.593312324
 11
1047.8865645686
 21
-280.593312324
  0
LINE
  5
465
100
AcDbEntity
  8
0
100
AcDbLine
 62
9
  6
CONTINUOUS
 10
1047.8865645686
 20
-366.593312324
 11
1047.8865645686
 21
-423.593312324
  0
LINE
  5
466
100
AcDbEntity
  8
0
100
AcDbLine
 62
7
  6
CONTINUOUS
 10
1049.8865645686
 20
-225.593312324
 11
1049.8865645686
 21
-280.593312324
  0
LINE
  5
467
100
AcDbEntity
  8
0
100
AcDbLine
 62
7
  6
CONTINUOUS
 10
1049.8865645686
 20
-366.593312324
 11
1049.8865645686
 21
-421.593312324
  0
LINE
  5
468
100
AcDbEntity
  8
0
100
AcDbLine
 62
9
  6
CONTINUOUS
 10
1052.8865645686
 20
-363.593312324
 11
1052.8865645688
 21
-361.593312324
  0
LINE
  5
469
100
AcDbEntity
  8
0
100
AcDbLine
 62
9
  6
CONTINUOUS
 10
1052.8865645688
 20
-223.593312324
 11
1052.8865645686
 21
-277.7866534194
  0
LINE
  5
46A
100
AcDbEntity
  8
0
100
AcDbLine
 62
9
  6
CONTINUOUS
 10
1052.8865645686
 20
-283.593312324
 11
1052.8865645686
 21
-285.593312324
  0
LINE
  5
46B
100
AcDbEntity
  8
0
100
AcDbLine
 62
9
  6
CONTINUOUS
 10
1052.8865645686
 20
-369.3999712285
 11
1052.8865645686
 21
-423.593312324
  0
LINE
  5
46C
100
AcDbEntity
  8
0
100
AcDbLine
 62
9
  6
CONTINUOUS
 10
1053.8865645686
 20
-278.802130156
 11
1053.8865645686
 21
-283.593312324
  0
LINE
  5
46D
100
AcDbEntity
  8
0
100
AcDbLine
 62
9
  6
CONTINUOUS
 10
1053.8865645686
 20
-363.593312324
 11
1053.8865645686
 21
-368.3844944919
  0
LINE
  5
46E
100
AcDbEntity
  8
0
100
AcDbLine
 62
9
  6
CONTINUOUS
 10
1034.8865645686
 20
-263.593312324
 11
1049.8865645686
 21
-263.593312324
  0
LINE
  5
46F
100
AcDbEntity
  8
0
100
AcDbLine
 62
9
  6
CONTINUOUS
 10
1120.8865645686
 20
-253.593312324
 11
1117.8865645686
 21
-253.5933213165
  0
LINE
  5
470
100
AcDbEntity
  8
0
100
AcDbLine
 62
7
  6
CONTINUOUS
 10
984.8865645686
 20
-253.593312324
 11
844.8865645686
 21
-253.593312324
  0
LINE
  5
471
100
AcDbEntity
  8
0
100
AcDbLine
 62
9
  6
CONTINUOUS
 10
1078.1443406295
 20
-283.593312324
 11
1078.1443406295
 21
-278.802130156
  0
LINE
  5
472
100
AcDbEntity
  8
0
100
AcDbLine
 62
9
  6
CONTINUOUS
 10
1078.1443406295
 20
-363.593312324
 11
1078.1443406295
 21
-368.3844944919
  0
LINE
  5
473
100
AcDbEntity
  8
0
100
AcDbLine
 62
9
  6
CONTINUOUS
 10
1083.286641507
 20
-367.3081916509
 11
1083.286641507
 21
-363.593312324
  0
LINE
  5
474
100
AcDbEntity
  8
0
100
AcDbLine
 62
9
  6
CONTINUOUS
 10
1083.286641507
 20
-283.593312324
 11
1083.286641507
 21
-279.878432997
  0
LINE
  5
475
100
AcDbEntity
  8
0
100
AcDbLine
 62
9
  6
CONTINUOUS
 10
1117.8865645686
 20
-246.8744032566
 11
1114.8865645686
 21
-246.8744032566
  0
LINE
  5
476
100
AcDbEntity
  8
0
100
AcDbLine
 62
9
  6
CONTINUOUS
 10
1352.3865645686
 20
-246.093312324
 11
1312.3865645686
 21
-246.093312324
  0
LINE
  5
477
100
AcDbEntity
  8
0
100
AcDbLine
 62
9
  6
CONTINUOUS
 10
1367.3865645686
 20
-244.093312324
 11
1352.3865645686
 21
-244.093312324
  0
LINE
  5
478
100
AcDbEntity
  8
0
100
AcDbLine
 62
9
  6
CONTINUOUS
 10
1117.8865645686
 20
-240.9653269761
 11
1114.8865645686
 21
-240.9653269761
  0
LINE
  5
479
100
AcDbEntity
  8
0
100
AcDbLine
 62
9
  6
CONTINUOUS
 10
1312.3865645686
 20
-237.3341882364
 11
1317.3865645686
 21
-237.3341882364
  0
LINE
  5
47A
100
AcDbEntity
  8
0
100
AcDbLine
 62
9
  6
CONTINUOUS
 10
1120.8865645686
 20
-234.7203289777
 11
1117.8865645686
 21
-234.7203289777
  0
LINE
  5
47B
100
AcDbEntity
  8
0
100
AcDbLine
 62
7
  6
CONTINUOUS
 10
1337.4879325644
 20
-226.093312324
 11
1365.3865645686
 21
-226.093312324
  0
LINE
  5
47C
100
AcDbEntity
  8
0
100
AcDbLine
 62
9
  6
CONTINUOUS
 10
1049.8865645686
 20
-225.593312324
 11
1120.8865645686
 21
-225.5933123239
  0
LINE
  5
47D
100
AcDbEntity
  8
0
100
AcDbLine
 62
7
  6
CONTINUOUS
 10
1117.8865645686
 20
-223.593312324
 11
1035.8865645686
 21
-223.593312324
  0
LINE
  5
47E
100
AcDbEntity
  8
0
100
AcDbLine
 62
9
  6
CONTINUOUS
 10
1083.2866415019
 20
-279.878432991
 11
1081.3582786779
 21
-277.6143153966
  0
LINE
  5
47F
100
AcDbEntity
  8
0
100
AcDbLine
 62
9
  6
CONTINUOUS
 10
1114.8865645686
 20
-406.2212976718
 11
1114.8865645686
 21
-400.3122213913
  0
LINE
  5
480
100
AcDbEntity
  8
0
100
AcDbLine
 62
9
  6
CONTINUOUS
 10
1114.8865645686
 20
-246.8744032566
 11
1114.8865645686
 21
-240.9653269761
  0
LINE
  5
481
100
AcDbEntity
  8
0
100
AcDbLine
 62
9
  6
CONTINUOUS
 10
1115.0288654461
 20
-394.1757298347
 11
1115.0288654461
 21
-363.593312324
  0
LINE
  5
482
100
AcDbEntity
  8
0
100
AcDbLine
 62
9
  6
CONTINUOUS
 10
1115.0288654461
 20
-283.593312324
 11
1115.0288654461
 21
-253.0108948132
  0
LINE
  5
483
100
AcDbEntity
  8
0
100
AcDbLine
 62
9
  6
CONTINUOUS
 10
1116.8865645686
 20
-283.593312324
 11
1116.8865645686
 21
-363.593312324
  0
LINE
  5
484
100
AcDbEntity
  8
0
100
AcDbLine
 62
7
  6
CONTINUOUS
 10
1117.8865645686
 20
-406.2212976663
 11
1117.8865645686
 21
-363.7206615561
  0
LINE
  5
485
100
AcDbEntity
  8
0
100
AcDbLine
 62
7
  6
CONTINUOUS
 10
1117.8865645686
 20
-283.4659542295
 11
1117.8865645686
 21
-240.9653269815
  0
LINE
  5
486
100
AcDbEntity
  8
0
100
AcDbLine
 62
9
  6
CONTINUOUS
 10
1117.8865645686
 20
-223.593312324
 11
1117.8865645686
 21
-234.7203289777
  0
LINE
  5
487
100
AcDbEntity
  8
0
100
AcDbLine
 62
9
  6
CONTINUOUS
 10
1117.8865645686
 20
-412.4662956702
 11
1117.8865645686
 21
-423.593312324
  0
LINE
  5
488
100
AcDbEntity
  8
0
100
AcDbLine
 62
9
  6
CONTINUOUS
 10
1083.2866394759
 20
-367.3081940358
 11
1081.3582786779
 21
-369.5723092513
  0
LINE
  5
489
100
AcDbEntity
  8
0
100
AcDbLine
 62
7
  6
CONTINUOUS
 10
1034.8865752968
 20
-433.5933230506
 11
1014.8865772473
 21
-453.5933250009
  0
LINE
  5
48A
100
AcDbEntity
  8
0
100
AcDbLine
 62
7
  6
CONTINUOUS
 10
1352.3865645686
 20
-216.093312324
 11
1346.3865645686
 21
-216.093312324
  0
LINE
  5
48B
100
AcDbEntity
  8
3_ALL_AXES
100
AcDbLine
 62
7
  6
CONTINUOUS
 10
1131.8865645686
 20
-201.093312324
 11
1132.3865645686
 21
-201.093312324
  0
LINE
  5
48C
100
AcDbEntity
  8
0
100
AcDbLine
 62
9
  6
CONTINUOUS
 10
1154.3865645686
 20
-194.093312324
 11
1152.3865645686
 21
-194.093312324
  0
LINE
  5
48D
100
AcDbEntity
  8
0
100
AcDbLine
 62
9
  6
CONTINUOUS
 10
1310.3865645686
 20
-194.093312324
 11
1312.3865645686
 21
-194.093312324
  0
LINE
  5
48E
100
AcDbEntity
  8
0
100
AcDbLine
 62
7
  6
CONTINUOUS
 10
645.170811201
 20
-193.593312324
 11
686.8865645686
 21
-193.593312324
  0
LINE
  5
48F
100
AcDbEntity
  8
02___PRT_ALL_AXES
100
AcDbLine
 62
7
  6
CONTINUOUS
 10
645.170811201
 20
-193.593312324
 11
686.8865645686
 21
-193.593312324
  0
LINE
  5
490
100
AcDbEntity
  8
0
100
AcDbLine
 62
7
  6
CONTINUOUS
 10
696.8865645686
 20
-193.593312324
 11
1014.8865645686
 21
-193.593312324
  0
LINE
  5
491
100
AcDbEntity
  8
02___PRT_ALL_AXES
100
AcDbLine
 62
7
  6
CONTINUOUS
 10
696.8865645686
 20
-193.593312324
 11
1014.8865645686
 21
-193.593312324
  0
LINE
  5
492
100
AcDbEntity
  8
0
100
AcDbLine
 62
7
  6
CONTINUOUS
 10
1034.8865752964
 20
-213.593301597
 11
1014.8865772469
 21
-193.5932996466
  0
LINE
  5
493
100
AcDbEntity
  8
0
100
AcDbLine
 62
9
  6
CONTINUOUS
 10
1119.3865645672
 20
-393.593312324
 11
1119.3865550243
 21
-367.593312324
  0
LINE
  5
494
100
AcDbEntity
  8
0
100
AcDbLine
 62
9
  6
CONTINUOUS
 10
1119.3865550234
 20
-279.593312324
 11
1119.3865645672
 21
-253.593312323
  0
LINE
  5
495
100
AcDbEntity
  8
0
100
AcDbLine
 62
7
  6
CONTINUOUS
 10
1120.8865645686
 20
-456.593312324
 11
1120.8865645686
 21
-190.593312324
  0
LINE
  5
496
100
AcDbEntity
  8
0
100
AcDbLine
 62
9
  6
CONTINUOUS
 10
1122.8865645686
 20
-188.593312324
 11
1122.8865645686
 21
-458.593312324
  0
LINE
  5
497
100
AcDbEntity
  8
0
100
AcDbLine
 62
7
  6
CONTINUOUS
 10
1131.8865645686
 20
-188.5933874548
 11
1131.8865645686
 21
-458.5932371931
  0
LINE
  5
498
100
AcDbEntity
  8
0
100
AcDbLine
 62
7
  6
CONTINUOUS
 10
1132.3865645686
 20
-438.093312324
 11
1132.3865645686
 21
-174.093312324
  0
LINE
  5
499
100
AcDbEntity
  8
3_ALL_AXES
100
AcDbLine
 62
7
  6
CONTINUOUS
 10
1132.3865645686
 20
-438.093312324
 11
1132.3865645686
 21
-446.093312324
  0
LINE
  5
49A
100
AcDbEntity
  8
0
100
AcDbLine
 62
9
  6
CONTINUOUS
 10
1115.028865445
 20
-394.175729836
 11
1113.100502617
 21
-396.4601366297
  0
LINE
  5
49B
100
AcDbEntity
  8
0
100
AcDbLine
 62
7
  6
CONTINUOUS
 10
1131.8865645686
 20
-188.593312324
 11
1122.8865645686
 21
-188.593312324
  0
LINE
  5
49C
100
AcDbEntity
  8
0
100
AcDbLine
 62
9
  6
CONTINUOUS
 10
1294.3865645686
 20
-178.093312324
 11
1170.3865645686
 21
-178.093312324
  0
LINE
  5
49D
100
AcDbEntity
  8
0
100
AcDbLine
 62
7
  6
CONTINUOUS
 10
1294.3865645686
 20
-176.093312324
 11
1170.3865645686
 21
-176.093312324
  0
LINE
  5
49E
100
AcDbEntity
  8
0
100
AcDbLine
 62
9
  6
CONTINUOUS
 10
1115.0288632904
 20
-253.0108922598
 11
1113.100502617
 21
-250.7264880182
  0
LINE
  5
49F
100
AcDbEntity
  8
0
100
AcDbLine
 62
9
  6
CONTINUOUS
 10
1119.3865645682
 20
-237.8428279772
 11
1117.5115645686
 21
-235.5009537275
  0
LINE
  5
4A0
100
AcDbEntity
  8
0
100
AcDbLine
 62
7
  6
CONTINUOUS
 10
1152.3865645686
 20
-194.093312324
 11
1152.3865645686
 21
-318.093312324
  0
LINE
  5
4A1
100
AcDbEntity
  8
0
100
AcDbLine
 62
9
  6
CONTINUOUS
 10
1154.3865645686
 20
-194.093312324
 11
1154.3865645686
 21
-318.093312324
  0
LINE
  5
4A2
100
AcDbEntity
  8
0
100
AcDbLine
 62
9
  6
CONTINUOUS
 10
1157.3865645686
 20
-463.093312324
 11
1157.3865645686
 21
-330.5376706009
  0
LINE
  5
4A3
100
AcDbEntity
  8
0
100
AcDbLine
 62
9
  6
CONTINUOUS
 10
1157.3865645686
 20
-181.6489540469
 11
1157.3865645686
 21
-149.093312324
  0
LINE
  5
4A4
100
AcDbEntity
  8
0
100
AcDbLine
 62
9
  6
CONTINUOUS
 10
1170.3865645686
 20
-178.093312324
 11
1170.3865645686
 21
-176.093312324
  0
LINE
  5
4A5
100
AcDbEntity
  8
0
100
AcDbLine
 62
9
  6
CONTINUOUS
 10
1170.3865645686
 20
-334.093312324
 11
1170.3865645686
 21
-336.093312324
  0
LINE
  5
4A6
100
AcDbEntity
  8
0
100
AcDbLine
 62
9
  6
CONTINUOUS
 10
1119.3865645687
 20
-409.3437966711
 11
1117.5115645687
 21
-411.6856709205
  0
LINE
  5
4A7
100
AcDbEntity
  8
0
100
AcDbLine
 62
7
  6
CONTINUOUS
 10
1157.3865645686
 20
-149.093312324
 11
1317.3865645686
 21
-149.093312324
  0
LINE
  5
4A8
100
AcDbEntity
  8
0
100
AcDbLine
 62
7
  6
CONTINUOUS
 10
1368.8689264784
 20
-235.3276785747
 11
1390.3865645686
 21
-241.093312324
  0
LINE
  5
4A9
100
AcDbEntity
  8
0
100
AcDbLine
 62
9
  6
CONTINUOUS
 10
1224.3865645686
 20
-465.593312324
 11
1224.3865645686
 21
-468.593312324
  0
LINE
  5
4AA
100
AcDbEntity
  8
0
100
AcDbLine
 62
9
  6
CONTINUOUS
 10
1250.3865645686
 20
-465.593312324
 11
1250.3865645392
 21
-468.593312324
  0
LINE
  5
4AB
100
AcDbEntity
  8
0
100
AcDbLine
 62
9
  6
CONTINUOUS
 10
1294.3865645686
 20
-178.093312324
 11
1294.3865645686
 21
-176.093312324
  0
LINE
  5
4AC
100
AcDbEntity
  8
0
100
AcDbLine
 62
9
  6
CONTINUOUS
 10
1294.3865645686
 20
-334.093312324
 11
1294.3865645686
 21
-336.093312324
  0
LINE
  5
4AD
100
AcDbEntity
  8
0
100
AcDbLine
 62
9
  6
CONTINUOUS
 10
1310.3865645686
 20
-318.093312324
 11
1310.3865645686
 21
-194.093312324
  0
LINE
  5
4AE
100
AcDbEntity
  8
0
100
AcDbLine
 62
7
  6
CONTINUOUS
 10
1312.3865645686
 20
-318.093312324
 11
1312.3865645686
 21
-194.093312324
  0
LINE
  5
4AF
100
AcDbEntity
  8
0
100
AcDbLine
 62
9
  6
CONTINUOUS
 10
1317.3865645686
 20
-149.093312324
 11
1317.3865645686
 21
-237.3341882364
  0
LINE
  5
4B0
100
AcDbEntity
  8
0
100
AcDbLine
 62
9
  6
CONTINUOUS
 10
1317.3865645686
 20
-374.8524364115
 11
1317.3865645686
 21
-463.093312324
  0
LINE
  5
4B1
100
AcDbEntity
  8
0
100
AcDbLine
 62
7
  6
CONTINUOUS
 10
1342.3865645686
 20
-226.093312324
 11
1342.3865645686
 21
-174.093312324
  0
LINE
  5
4B2
100
AcDbEntity
  8
0
100
AcDbLine
 62
7
  6
CONTINUOUS
 10
1342.3865645686
 20
-386.093312324
 11
1342.3865645686
 21
-438.093312324
  0
LINE
  5
4B3
100
AcDbEntity
  8
0
100
AcDbLine
 62
9
  6
CONTINUOUS
 10
1346.3865645686
 20
-216.093312324
 11
1346.3865645686
 21
-226.093312324
  0
LINE
  5
4B4
100
AcDbEntity
  8
0
100
AcDbLine
 62
9
  6
CONTINUOUS
 10
1346.3865645686
 20
-386.093312324
 11
1346.3865645686
 21
-396.093312324
  0
LINE
  5
4B5
100
AcDbEntity
  8
02___PRT_ALL_AXES
100
AcDbLine
 62
7
  6
CONTINUOUS
 10
1352.3865645686
 20
-216.093312324
 11
1352.3865645686
 21
-226.093312324
  0
LINE
  5
4B6
100
AcDbEntity
  8
0
100
AcDbLine
 62
7
  6
CONTINUOUS
 10
1352.3865645686
 20
-226.093312324
 11
1352.3865645686
 21
-386.093312324
  0
LINE
  5
4B7
100
AcDbEntity
  8
02___PRT_ALL_AXES
100
AcDbLine
 62
7
  6
CONTINUOUS
 10
1352.3865645686
 20
-386.093312324
 11
1352.3865645686
 21
-396.093312324
  0
LINE
  5
4B8
100
AcDbEntity
  8
0
100
AcDbLine
 62
9
  6
CONTINUOUS
 10
1365.3865645686
 20
-226.093312324
 11
1365.3865645686
 21
-386.093312324
  0
LINE
  5
4B9
100
AcDbEntity
  8
0
100
AcDbLine
 62
7
  6
CONTINUOUS
 10
1367.3865645686
 20
-228.093312324
 11
1367.3865645686
 21
-384.093312324
  0
LINE
  5
4BA
100
AcDbEntity
  8
0
100
AcDbLine
 62
9
  6
CONTINUOUS
 10
1368.8689264784
 20
-235.3276785747
 11
1368.8689264784
 21
-376.8589460732
  0
LINE
  5
4BB
100
AcDbEntity
  8
0
100
AcDbLine
 62
7
  6
CONTINUOUS
 10
1390.3865645686
 20
-241.093312324
 11
1390.3865645686
 21
-371.093312324
  0
ARC
  5
4BC
100
AcDbEntity
  8
0
100
AcDbCircle
 62
7
  6
CONTINUOUS
 10
636.8865645686
 20
83.7481731055
 40
20.0
100
AcDbArc
 50
179.999999797
 51
224.999994135
  0
ARC
  5
4BD
100
AcDbEntity
  8
0
100
AcDbCircle
 62
7
  6
CONTINUOUS
 10
645.170811201
 20
75.4639248304
 40
20.0
100
AcDbArc
 50
224.9999943643
 51
270.0
  0
ARC
  5
4BE
100
AcDbEntity
  8
0
100
AcDbCircle
 62
7
  6
CONTINUOUS
 10
737.8865645686
 20
33.4639248304
 40
8.0
100
AcDbArc
 50
270.0
 51
360.0
  0
ARC
  5
4BF
100
AcDbEntity
  8
0
100
AcDbCircle
 62
7
  6
CONTINUOUS
 10
975.8865645686
 20
33.4639248304
 40
8.0
100
AcDbArc
 50
180.0
 51
270.0
  0
ARC
  5
4C0
100
AcDbEntity
  8
0
100
AcDbCircle
 62
3
  6
CONTINUOUS
 10
749.8865645686
 20
45.4639248304
 40
8.0
100
AcDbArc
 50
90.0
 51
180.0
  0
ARC
  5
4C1
100
AcDbEntity
  8
0
100
AcDbCircle
 62
3
  6
CONTINUOUS
 10
963.8865645686
 20
45.4639248304
 40
8.0
100
AcDbArc
 50
0.0
 51
90.0
  0
ARC
  5
4C2
100
AcDbEntity
  8
0
100
AcDbCircle
 62
7
  6
CONTINUOUS
 10
749.8865645686
 20
45.4639248304
 40
4.0
100
AcDbArc
 50
90.0
 51
180.0
  0
ARC
  5
4C3
100
AcDbEntity
  8
0
100
AcDbCircle
 62
7
  6
CONTINUOUS
 10
963.8865645686
 20
45.4639248304
 40
4.0
100
AcDbArc
 50
0.0
 51
90.0
  0
ARC
  5
4C4
100
AcDbEntity
  8
0
100
AcDbCircle
 62
3
  6
CONTINUOUS
 10
737.8865645686
 20
33.4639248304
 40
4.0
100
AcDbArc
 50
270.0
 51
360.0
  0
ARC
  5
4C5
100
AcDbEntity
  8
0
100
AcDbCircle
 62
3
  6
CONTINUOUS
 10
975.8865645686
 20
33.4639248304
 40
4.0
100
AcDbArc
 50
180.0
 51
270.0
  0
ARC
  5
4C6
100
AcDbEntity
  8
0
100
AcDbCircle
 62
9
  6
CONTINUOUS
 10
1134.8972184772
 20
-7732.5407890404
 40
7925.7788134199
100
AcDbArc
 50
90.1436292879
 51
90.3730976105
  0
ARC
  5
4C7
100
AcDbEntity
  8
0
100
AcDbCircle
 62
7
  6
CONTINUOUS
 10
1052.8872870691
 20
98.4639824676
 40
3.0007225011
100
AcDbArc
 50
180.0011005244
 51
189.001436173
  0
ARC
  5
4C8
100
AcDbEntity
  8
0
100
AcDbCircle
 62
7
  6
CONTINUOUS
 10
1035.8865645686
 20
88.4639248304
 40
3.0
100
AcDbArc
 50
250.5287793655
 51
270.0
  0
ARC
  5
4C9
100
AcDbEntity
  8
0
100
AcDbCircle
 62
7
  6
CONTINUOUS
 10
1052.886563977
 20
98.4639242388
 40
2.9999994084
100
AcDbArc
 50
179.9999887013
 51
270.0000112987
  0
ARC
  5
4CA
100
AcDbEntity
  8
0
100
AcDbCircle
 62
7
  6
CONTINUOUS
 10
1047.8865645686
 20
87.4639248304
 40
2.0
100
AcDbArc
 50
270.0
 51
360.0
  0
ARC
  5
4CB
100
AcDbEntity
  8
0
100
AcDbCircle
 62
7
  6
CONTINUOUS
 10
1157.3865645686
 20
53.4639248304
 40
25.0
100
AcDbArc
 50
179.9999999296
 51
270.0
  0
ARC
  5
4CC
100
AcDbEntity
  8
0
100
AcDbCircle
 62
7
  6
CONTINUOUS
 10
1122.8865645686
 20
52.4639248304
 40
2.0
100
AcDbArc
 50
180.0
 51
270.0
  0
ARC
  5
4CD
100
AcDbEntity
  8
0
100
AcDbCircle
 62
9
  6
CONTINUOUS
 10
1123.7330424144
 20
108.980070941
 40
8.8464778462
100
AcDbArc
 50
178.1480263931
 51
180.0004700902
  0
ARC
  5
4CE
100
AcDbEntity
  8
0
100
AcDbCircle
 62
9
  6
CONTINUOUS
 10
1109.8256195628
 20
109.4323467796
 40
8.060945006
100
AcDbArc
 50
0.0004605272
 51
3.748799154
  0
ARC
  5
4CF
100
AcDbEntity
  8
0
100
AcDbCircle
 62
9
  6
CONTINUOUS
 10
1109.828371755
 20
109.4324555636
 40
8.0581915904
100
AcDbArc
 50
3.749306778
 51
4.5876920569
  0
ARC
  5
4D0
100
AcDbEntity
  8
0
100
AcDbCircle
 62
9
  6
CONTINUOUS
 10
1107.91178936
 20
107.2222358495
 40
8.0075042218
100
AcDbArc
 50
47.614387124
 51
49.5483357646
  0
ARC
  5
4D1
100
AcDbEntity
  8
0
100
AcDbCircle
 62
9
  6
CONTINUOUS
 10
1109.9018293281
 20
109.4943287661
 40
7.9597210103
100
AcDbArc
 50
47.9552407641
 51
49.9000778349
  0
ARC
  5
4D2
100
AcDbEntity
  8
0
100
AcDbCircle
 62
7
  6
CONTINUOUS
 10
1116.8865645686
 20
96.5909414842
 40
4.0
100
AcDbArc
 50
0.0
 51
51.3179876763
  0
ARC
  5
4D3
100
AcDbEntity
  8
0
100
AcDbCircle
 62
7
  6
CONTINUOUS
 10
1116.8865645686
 20
81.4639248304
 40
4.0
100
AcDbArc
 50
0.0
 51
90.0
  0
ARC
  5
4D4
100
AcDbEntity
  8
0
100
AcDbCircle
 62
7
  6
CONTINUOUS
 10
1121.8865136612
 20
102.8359150274
 40
3.9999490926
100
AcDbArc
 50
180.0
 51
231.3179876942
  0
ARC
  5
4D5
100
AcDbEntity
  8
0
100
AcDbCircle
 62
7
  6
CONTINUOUS
 10
1114.8865645134
 20
98.4639248822
 40
3.0000000693
100
AcDbArc
 50
270.0000004485
 51
359.9999919412
  0
ARC
  5
4D6
100
AcDbEntity
  8
0
100
AcDbCircle
 62
9
  6
CONTINUOUS
 10
1088.6491484601
 20
148.2917128539
 40
10.5581979605
100
AcDbArc
 50
227.2368936971
 51
228.6664716416
  0
ARC
  5
4D7
100
AcDbEntity
  8
0
100
AcDbCircle
 62
9
  6
CONTINUOUS
 10
1052.8865645686
 20
177.4639248304
 40
5.0
100
AcDbArc
 50
90.0
 51
180.0
  0
ARC
  5
4D8
100
AcDbEntity
  8
0
100
AcDbCircle
 62
7
  6
CONTINUOUS
 10
1052.8865645686
 20
177.4639248304
 40
3.0
100
AcDbArc
 50
90.0
 51
180.0
  0
ARC
  5
4D9
100
AcDbEntity
  8
0
100
AcDbCircle
 62
7
  6
CONTINUOUS
 10
1114.8865645686
 20
177.4639248304
 40
3.0
100
AcDbArc
 50
0.0
 51
90.0
  0
ARC
  5
4DA
100
AcDbEntity
  8
0
100
AcDbCircle
 62
7
  6
CONTINUOUS
 10
1117.8865645686
 20
177.4639248304
 40
3.0
100
AcDbArc
 50
0.0
 51
90.0
  0
ARC
  5
4DB
100
AcDbEntity
  8
0
100
AcDbCircle
 62
9
  6
CONTINUOUS
 10
1117.4953479506
 20
179.2064787657
 40
1.2591502093
100
AcDbArc
 50
73.0336775363
 51
74.2489304772
  0
ARC
  5
4DC
100
AcDbEntity
  8
0
100
AcDbCircle
 62
7
  6
CONTINUOUS
 10
1317.3865645686
 20
53.4639248304
 40
25.0
100
AcDbArc
 50
270.0
 51
310.6602078004
  0
ARC
  5
4DD
100
AcDbEntity
  8
0
100
AcDbCircle
 62
7
  6
CONTINUOUS
 10
1346.3865645686
 20
99.4639258218
 40
4.0000001127
100
AcDbArc
 50
180.000488292
 51
270.0
  0
ARC
  5
4DE
100
AcDbEntity
  8
0
100
AcDbCircle
 62
7
  6
CONTINUOUS
 10
1259.3865645686
 20
40.4639248304
 40
3.0
100
AcDbArc
 50
0.0
 51
90.0
  0
ARC
  5
4DF
100
AcDbEntity
  8
0
100
AcDbCircle
 62
7
  6
CONTINUOUS
 10
1215.3865645686
 20
40.4639248304
 40
3.0
100
AcDbArc
 50
90.0
 51
180.0
  0
ARC
  5
4E0
100
AcDbEntity
  8
0
100
AcDbCircle
 62
7
  6
CONTINUOUS
 10
1346.3865645686
 20
126.4639248304
 40
4.0
100
AcDbArc
 50
90.0
 51
180.0
  0
ARC
  5
4E1
100
AcDbEntity
  8
0
100
AcDbCircle
 62
7
  6
CONTINUOUS
 10
636.8865645686
 20
287.1796765553
 40
20.0
100
AcDbArc
 50
135.000005865
 51
180.000000203
  0
ARC
  5
4E2
100
AcDbEntity
  8
0
100
AcDbCircle
 62
7
  6
CONTINUOUS
 10
645.170811201
 20
295.4639248304
 40
20.0
100
AcDbArc
 50
90.0
 51
135.0000056357
  0
ARC
  5
4E3
100
AcDbEntity
  8
0
100
AcDbCircle
 62
9
  6
CONTINUOUS
 10
1052.8865645686
 20
193.4639248304
 40
5.0
100
AcDbArc
 50
180.0
 51
270.0
  0
ARC
  5
4E4
100
AcDbEntity
  8
0
100
AcDbCircle
 62
7
  6
CONTINUOUS
 10
1052.8865645686
 20
193.4639248304
 40
3.0
100
AcDbArc
 50
180.0
 51
270.0
  0
ARC
  5
4E5
100
AcDbEntity
  8
0
100
AcDbCircle
 62
7
  6
CONTINUOUS
 10
1052.8872826733
 20
272.4638690592
 40
3.0007181053
100
AcDbArc
 50
170.9985765914
 51
179.9989351025
  0
ARC
  5
4E6
100
AcDbEntity
  8
0
100
AcDbCircle
 62
7
  6
CONTINUOUS
 10
1035.8865645686
 20
282.4639248304
 40
3.0
100
AcDbArc
 50
90.0
 51
109.4712206345
  0
ARC
  5
4E7
100
AcDbEntity
  8
0
100
AcDbCircle
 62
7
  6
CONTINUOUS
 10
1052.8865644386
 20
272.4639249604
 40
2.99999987
100
AcDbArc
 50
89.9999975178
 51
180.0000024822
  0
ARC
  5
4E8
100
AcDbEntity
  8
0
100
AcDbCircle
 62
7
  6
CONTINUOUS
 10
1052.8864256831
 20
272.4652563016
 40
2.9986621881
100
AcDbArc
 50
93.9123904453
 51
99.5825752564
  0
ARC
  5
4E9
100
AcDbEntity
  8
0
100
AcDbCircle
 62
7
  6
CONTINUOUS
 10
1047.8865645686
 20
283.4639248304
 40
2.0
100
AcDbArc
 50
0.0
 51
90.0
  0
ARC
  5
4EA
100
AcDbEntity
  8
0
100
AcDbCircle
 62
9
  6
CONTINUOUS
 10
1088.6437806682
 20
222.6421069284
 40
10.5501700184
100
AcDbArc
 50
131.3330523951
 51
132.7636975953
  0
ARC
  5
4EB
100
AcDbEntity
  8
0
100
AcDbCircle
 62
7
  6
CONTINUOUS
 10
1117.8865645686
 20
193.4639248304
 40
3.0
100
AcDbArc
 50
270.0
 51
360.0
  0
ARC
  5
4EC
100
AcDbEntity
  8
0
100
AcDbCircle
 62
7
  6
CONTINUOUS
 10
1114.8865645686
 20
193.4639248304
 40
3.0
100
AcDbArc
 50
270.0
 51
360.0
  0
ARC
  5
4ED
100
AcDbEntity
  8
0
100
AcDbCircle
 62
9
  6
CONTINUOUS
 10
1117.4953479499
 20
191.7213708973
 40
1.2591502116
100
AcDbArc
 50
285.7510699031
 51
286.9663224511
  0
ARC
  5
4EE
100
AcDbEntity
  8
0
100
AcDbCircle
 62
9
  6
CONTINUOUS
 10
1123.7186811113
 20
261.9475466581
 40
8.832116548
100
AcDbArc
 50
179.9980237126
 51
181.8534798042
  0
ARC
  5
4EF
100
AcDbEntity
  8
0
100
AcDbCircle
 62
9
  6
CONTINUOUS
 10
1109.8257830385
 20
261.4954978953
 40
8.0607815303
100
AcDbArc
 50
356.2516062747
 51
359.9995749031
  0
ARC
  5
4F0
100
AcDbEntity
  8
0
100
AcDbCircle
 62
9
  6
CONTINUOUS
 10
1109.8283845238
 20
261.4953919195
 40
8.0581786823
100
AcDbArc
 50
355.4184332808
 51
356.2511489182
  0
ARC
  5
4F1
100
AcDbEntity
  8
0
100
AcDbCircle
 62
9
  6
CONTINUOUS
 10
1107.9117781344
 20
263.7056265404
 40
8.0075211912
100
AcDbArc
 50
310.4516660214
 51
312.3856108057
  0
ARC
  5
4F2
100
AcDbEntity
  8
0
100
AcDbCircle
 62
9
  6
CONTINUOUS
 10
1109.9018304053
 20
261.4335196587
 40
7.9597193711
100
AcDbArc
 50
310.0999219651
 51
312.0447594365
  0
ARC
  5
4F3
100
AcDbEntity
  8
0
100
AcDbCircle
 62
7
  6
CONTINUOUS
 10
1116.8865645686
 20
274.3369081766
 40
4.0
100
AcDbArc
 50
308.6821874282
 51
360.0
  0
ARC
  5
4F4
100
AcDbEntity
  8
0
100
AcDbCircle
 62
7
  6
CONTINUOUS
 10
1116.8865645686
 20
289.4639248304
 40
4.0
100
AcDbArc
 50
270.0
 51
360.0
  0
ARC
  5
4F5
100
AcDbEntity
  8
0
100
AcDbCircle
 62
7
  6
CONTINUOUS
 10
1121.8865136612
 20
268.0919346334
 40
3.9999490926
100
AcDbArc
 50
128.6820123237
 51
180.0
  0
ARC
  5
4F6
100
AcDbEntity
  8
0
100
AcDbCircle
 62
7
  6
CONTINUOUS
 10
1114.886568066
 20
272.4639254288
 40
2.9999965026
100
AcDbArc
 50
359.9999885715
 51
89.9999993565
  0
ARC
  5
4F7
100
AcDbEntity
  8
0
100
AcDbCircle
 62
7
  6
CONTINUOUS
 10
1122.8865645686
 20
318.4639248304
 40
2.0
100
AcDbArc
 50
90.0
 51
180.0
  0
ARC
  5
4F8
100
AcDbEntity
  8
0
100
AcDbCircle
 62
7
  6
CONTINUOUS
 10
1157.3865645686
 20
400.4639248304
 40
25.0
100
AcDbArc
 50
89.9883388047
 51
180.0
  0
ARC
  5
4F9
100
AcDbEntity
  8
0
100
AcDbCircle
 62
7
  6
CONTINUOUS
 10
1154.3865645686
 20
454.4639248304
 40
2.0
100
AcDbArc
 50
90.0
 51
180.0
  0
ARC
  5
4FA
100
AcDbEntity
  8
0
100
AcDbCircle
 62
7
  6
CONTINUOUS
 10
1161.5647235137
 20
458.4639248304
 40
2.0
100
AcDbArc
 50
270.0
 51
345.0
  0
ARC
  5
4FB
100
AcDbEntity
  8
0
100
AcDbCircle
 62
7
  6
CONTINUOUS
 10
1346.3865645686
 20
254.4639248304
 40
4.0
100
AcDbArc
 50
180.0
 51
270.0
  0
ARC
  5
4FC
100
AcDbEntity
  8
0
100
AcDbCircle
 62
7
  6
CONTINUOUS
 10
1365.3865645686
 20
267.4639248304
 40
2.0
100
AcDbArc
 50
270.0
 51
360.0
  0
ARC
  5
4FD
100
AcDbEntity
  8
0
100
AcDbCircle
 62
7
  6
CONTINUOUS
 10
1369.3865645686
 20
272.7664394285
 40
2.0
100
AcDbArc
 50
105.0
 51
180.0
  0
ARC
  5
4FE
100
AcDbEntity
  8
0
100
AcDbCircle
 62
7
  6
CONTINUOUS
 10
1310.3865645686
 20
454.4639248304
 40
2.0
100
AcDbArc
 50
0.0
 51
90.0
  0
ARC
  5
4FF
100
AcDbEntity
  8
0
100
AcDbCircle
 62
7
  6
CONTINUOUS
 10
1303.2084056234
 20
458.4639248304
 40
2.0
100
AcDbArc
 50
195.0
 51
270.0
  0
ARC
  5
500
100
AcDbEntity
  8
0
100
AcDbCircle
 62
7
  6
CONTINUOUS
 10
1365.3865645686
 20
423.4639248304
 40
2.0
100
AcDbArc
 50
0.0
 51
90.0
  0
ARC
  5
501
100
AcDbEntity
  8
0
100
AcDbCircle
 62
7
  6
CONTINUOUS
 10
1369.3865645686
 20
418.1614102323
 40
2.0
100
AcDbArc
 50
180.0
 51
255.0
  0
ARC
  5
502
100
AcDbEntity
  8
0
100
AcDbCircle
 62
9
  6
CONTINUOUS
 10
1134.8972184701
 20
8103.4686371165
 40
7925.7788118352
100
AcDbArc
 50
269.6269023894
 51
269.8563707121
  0
ARC
  5
503
100
AcDbEntity
  8
0
100
AcDbCircle
 62
9
  6
CONTINUOUS
 10
3808.1962978054
 20
-2912.2035973318
 40
4157.7054534114
100
AcDbArc
 50
130.3724238013
 51
130.9435448796
  0
ARC
  5
504
100
AcDbEntity
  8
0
100
AcDbCircle
 62
9
  6
CONTINUOUS
 10
3808.1962924878
 20
3283.1314408008
 40
4157.7054452496
100
AcDbArc
 50
229.0564551198
 51
229.6275761992
  0
ARC
  5
505
100
AcDbEntity
  8
0
100
AcDbCircle
 62
9
  6
CONTINUOUS
 10
-459.2310882967
 20
147.4648787078
 40
637.1991769244
100
AcDbArc
 50
25.7179508631
 51
26.0245354987
  0
ARC
  5
506
100
AcDbEntity
  8
0
100
AcDbCircle
 62
7
  6
CONTINUOUS
 10
183.8569069262
 20
185.4639248304
 40
157.0
100
AcDbArc
 50
180.0
 51
360.0
  0
ARC
  5
507
100
AcDbEntity
  8
0
100
AcDbCircle
 62
9
  6
CONTINUOUS
 10
183.8569069262
 20
185.4639248304
 40
132.0
100
AcDbArc
 50
300.8686807376
 51
360.0
  0
ARC
  5
508
100
AcDbEntity
  8
0
100
AcDbCircle
 62
9
  6
CONTINUOUS
 10
183.8569069262
 20
185.4639248304
 40
132.0
100
AcDbArc
 50
180.0
 51
239.1313192549
  0
ARC
  5
509
100
AcDbEntity
  8
0
100
AcDbCircle
 62
9
  6
CONTINUOUS
 10
118.8569069262
 20
225.4639248304
 40
29.0
100
AcDbArc
 50
90.0
 51
180.0
  0
ARC
  5
50A
100
AcDbEntity
  8
0
100
AcDbCircle
 62
9
  6
CONTINUOUS
 10
118.8569069262
 20
155.4639248304
 40
29.0
100
AcDbArc
 50
180.0
 51
270.0
  0
ARC
  5
50B
100
AcDbEntity
  8
0
100
AcDbCircle
 62
9
  6
CONTINUOUS
 10
248.8569069262
 20
155.4639248304
 40
29.0
100
AcDbArc
 50
270.0
 51
360.0
  0
ARC
  5
50C
100
AcDbEntity
  8
0
100
AcDbCircle
 62
9
  6
CONTINUOUS
 10
248.8569069262
 20
225.4639248304
 40
29.0
100
AcDbArc
 50
0.0
 51
90.0
  0
ARC
  5
50D
100
AcDbEntity
  8
02___PRT_ALL_AXES
100
AcDbCircle
 62
7
  6
CONTINUOUS
 10
118.8569069262
 20
155.4639248304
 40
25.0
100
AcDbArc
 50
180.0
 51
270.0
  0
ARC
  5
50E
100
AcDbEntity
  8
02___PRT_ALL_AXES
100
AcDbCircle
 62
7
  6
CONTINUOUS
 10
248.8569069262
 20
155.4639248304
 40
25.0
100
AcDbArc
 50
270.0
 51
360.0
  0
ARC
  5
50F
100
AcDbEntity
  8
02___PRT_ALL_AXES
100
AcDbCircle
 62
7
  6
CONTINUOUS
 10
248.8569069262
 20
225.4639248304
 40
25.0
100
AcDbArc
 50
0.0
 51
90.0
  0
ARC
  5
510
100
AcDbEntity
  8
02___PRT_ALL_AXES
100
AcDbCircle
 62
7
  6
CONTINUOUS
 10
118.8569069262
 20
225.4639248304
 40
25.0
100
AcDbArc
 50
90.0
 51
180.0
  0
ARC
  5
511
100
AcDbEntity
  8
0
100
AcDbCircle
 62
7
  6
CONTINUOUS
 10
24.3569069262
 20
40.4639248304
 40
3.0
100
AcDbArc
 50
90.0
 51
180.0
  0
ARC
  5
512
100
AcDbEntity
  8
0
100
AcDbCircle
 62
7
  6
CONTINUOUS
 10
308.3569069262
 20
40.4639248304
 40
3.0
100
AcDbArc
 50
0.0
 51
90.0
  0
ARC
  5
513
100
AcDbEntity
  8
0
100
AcDbCircle
 62
7
  6
CONTINUOUS
 10
183.8569069262
 20
282.3014305393
 40
157.0
100
AcDbArc
 50
0.0
 51
61.3370317316
  0
ARC
  5
514
100
AcDbEntity
  8
0
100
AcDbCircle
 62
7
  6
CONTINUOUS
 10
183.8569069262
 20
282.3014305393
 40
157.0
100
AcDbArc
 50
118.662966939
 51
180.0
  0
ARC
  5
515
100
AcDbEntity
  8
0
100
AcDbCircle
 62
9
  6
CONTINUOUS
 10
183.8569069262
 20
282.3014305393
 40
132.0
100
AcDbArc
 50
0.0
 51
52.6947990342
  0
ARC
  5
516
100
AcDbEntity
  8
0
100
AcDbCircle
 62
9
  6
CONTINUOUS
 10
183.8569069262
 20
282.3014305393
 40
132.0
100
AcDbArc
 50
127.3052009658
 51
180.0
  0
CIRCLE
  5
517
100
AcDbEntity
  8
0
100
AcDbCircle
 62
9
  6
CONTINUOUS
 10
183.8569069262
 20
345.4639248304
 40
72.6974854019
  0
CIRCLE
  5
518
100
AcDbEntity
  8
0
100
AcDbCircle
 62
9
  6
CONTINUOUS
 10
183.8569069262
 20
345.4639248304
 40
70.7656337493
  0
CIRCLE
  5
519
100
AcDbEntity
  8
0
100
AcDbCircle
 62
7
  6
CONTINUOUS
 10
183.8569069262
 20
345.4639248304
 40
65.0
  0
ARC
  5
51A
100
AcDbEntity
  8
0
100
AcDbCircle
 62
2
  6
CONTINUOUS
 10
183.8569069262
 20
345.4639248304
 40
58.5
100
AcDbArc
 50
255.0
 51
195.0
  0
CIRCLE
  5
51B
100
AcDbEntity
  8
02___PRT_ALL_AXES
100
AcDbCircle
 62
7
  6
CONTINUOUS
 10
183.8569069262
 20
345.4639248304
 40
57.5
  0
CIRCLE
  5
51C
100
AcDbEntity
  8
02___PRT_ALL_AXES
100
AcDbCircle
 62
7
  6
CONTINUOUS
 10
183.8569069262
 20
345.4639248304
 40
55.25
  0
ARC
  5
51D
100
AcDbEntity
  8
0
100
AcDbCircle
 62
7
  6
CONTINUOUS
 10
121.8569069262
 20
283.4639248304
 40
18.0
100
AcDbArc
 50
180.0
 51
270.0
  0
ARC
  5
51E
100
AcDbEntity
  8
0
100
AcDbCircle
 62
9
  6
CONTINUOUS
 10
121.8569069262
 20
283.4639248304
 40
16.0
100
AcDbArc
 50
180.0
 51
270.0
  0
ARC
  5
51F
100
AcDbEntity
  8
0
100
AcDbCircle
 62
9
  6
CONTINUOUS
 10
123.5915330488
 20
406.6597100991
 40
22.8042185519
100
AcDbArc
 50
90.0331662226
 51
116.6580882205
  0
ARC
  5
520
100
AcDbEntity
  8
0
100
AcDbCircle
 62
7
  6
CONTINUOUS
 10
121.8569069262
 20
407.4639248304
 40
18.0
100
AcDbArc
 50
90.0
 51
180.0
  0
ARC
  5
521
100
AcDbEntity
  8
0
100
AcDbCircle
 62
9
  6
CONTINUOUS
 10
121.8569069262
 20
407.4639248304
 40
16.0
100
AcDbArc
 50
90.0
 51
180.0
  0
ARC
  5
522
100
AcDbEntity
  8
0
100
AcDbCircle
 62
7
  6
CONTINUOUS
 10
155.8569069262
 20
454.4639248304
 40
2.0
100
AcDbArc
 50
90.0
 51
180.0
  0
ARC
  5
523
100
AcDbEntity
  8
0
100
AcDbCircle
 62
7
  6
CONTINUOUS
 10
163.0350658714
 20
458.4639248304
 40
2.0
100
AcDbArc
 50
270.0000000002
 51
345.0
  0
ARC
  5
524
100
AcDbEntity
  8
0
100
AcDbCircle
 62
7
  6
CONTINUOUS
 10
245.8569069262
 20
283.4639248304
 40
18.0
100
AcDbArc
 50
270.0
 51
360.0
  0
ARC
  5
525
100
AcDbEntity
  8
0
100
AcDbCircle
 62
9
  6
CONTINUOUS
 10
245.8569069262
 20
283.4639248304
 40
16.0
100
AcDbArc
 50
270.0
 51
360.0
  0
ARC
  5
526
100
AcDbEntity
  8
0
100
AcDbCircle
 62
7
  6
CONTINUOUS
 10
245.8569069262
 20
407.4639248304
 40
18.0
100
AcDbArc
 50
0.0
 51
90.0
  0
ARC
  5
527
100
AcDbEntity
  8
0
100
AcDbCircle
 62
9
  6
CONTINUOUS
 10
245.8569069262
 20
407.4639248304
 40
16.0
100
AcDbArc
 50
0.0
 51
90.0
  0
ARC
  5
528
100
AcDbEntity
  8
0
100
AcDbCircle
 62
7
  6
CONTINUOUS
 10
311.8569069262
 20
454.4639248304
 40
2.0
100
AcDbArc
 50
0.0
 51
90.0
  0
ARC
  5
529
100
AcDbEntity
  8
0
100
AcDbCircle
 62
7
  6
CONTINUOUS
 10
304.6787479811
 20
458.4639248304
 40
2.0
100
AcDbArc
 50
195.0
 51
269.9999999998
  0
ARC
  5
52A
100
AcDbEntity
  8
0
100
AcDbCircle
 62
9
  6
CONTINUOUS
 10
-3426.3113538728
 20
-2912.2035911382
 40
4157.7054452471
100
AcDbArc
 50
49.0564551198
 51
49.6275761992
  0
ARC
  5
52B
100
AcDbEntity
  8
0
100
AcDbCircle
 62
9
  6
CONTINUOUS
 10
-3426.3113591925
 20
3283.1314469931
 40
4157.705453412
100
AcDbArc
 50
310.3724238013
 51
310.9435448796
  0
ARC
  5
52C
100
AcDbEntity
  8
0
100
AcDbCircle
 62
9
  6
CONTINUOUS
 10
-753.0122798569
 20
-7732.5407874754
 40
7925.7788118549
100
AcDbArc
 50
89.6269023894
 51
89.8563707121
  0
ARC
  5
52D
100
AcDbEntity
  8
0
100
AcDbCircle
 62
7
  6
CONTINUOUS
 10
-935.5016259552
 20
53.4639248304
 40
25.0
100
AcDbArc
 50
229.3397921996
 51
270.0
  0
ARC
  5
52E
100
AcDbEntity
  8
0
100
AcDbCircle
 62
7
  6
CONTINUOUS
 10
-964.5016259552
 20
99.4639258218
 40
4.0000001127
100
AcDbArc
 50
270.0
 51
359.999511708
  0
ARC
  5
52F
100
AcDbEntity
  8
0
100
AcDbCircle
 62
7
  6
CONTINUOUS
 10
-877.5016259552
 20
40.4639248304
 40
3.0
100
AcDbArc
 50
90.0
 51
180.0
  0
ARC
  5
530
100
AcDbEntity
  8
0
100
AcDbCircle
 62
7
  6
CONTINUOUS
 10
-833.5016259552
 20
40.4639248304
 40
3.0
100
AcDbArc
 50
0.0
 51
90.0
  0
ARC
  5
531
100
AcDbEntity
  8
0
100
AcDbCircle
 62
7
  6
CONTINUOUS
 10
-964.5016259552
 20
126.4639248304
 40
4.0
100
AcDbArc
 50
0.0
 51
90.0
  0
ARC
  5
532
100
AcDbEntity
  8
0
100
AcDbCircle
 62
7
  6
CONTINUOUS
 10
-775.5016259552
 20
53.4639248304
 40
25.0
100
AcDbArc
 50
270.0
 51
0.0000000704
  0
ARC
  5
533
100
AcDbEntity
  8
0
100
AcDbCircle
 62
7
  6
CONTINUOUS
 10
-741.0016259552
 20
52.4639248304
 40
2.0
100
AcDbArc
 50
270.0
 51
360.0
  0
ARC
  5
534
100
AcDbEntity
  8
0
100
AcDbCircle
 62
7
  6
CONTINUOUS
 10
-735.0016259552
 20
81.4639248304
 40
4.0
100
AcDbArc
 50
90.0
 51
180.0
  0
ARC
  5
535
100
AcDbEntity
  8
0
100
AcDbCircle
 62
9
  6
CONTINUOUS
 10
-741.8337424986
 20
108.9803030027
 40
8.8321165486
100
AcDbArc
 50
359.9980237126
 51
1.8534798041
  0
ARC
  5
536
100
AcDbEntity
  8
0
100
AcDbCircle
 62
7
  6
CONTINUOUS
 10
-735.0016259552
 20
96.5909414842
 40
4.0
100
AcDbArc
 50
128.6821874282
 51
180.0
  0
ARC
  5
537
100
AcDbEntity
  8
0
100
AcDbCircle
 62
7
  6
CONTINUOUS
 10
-740.0015750531
 20
102.8359150299
 40
3.9999490979
100
AcDbArc
 50
308.6820123237
 51
360.0
  0
ARC
  5
538
100
AcDbEntity
  8
0
100
AcDbCircle
 62
9
  6
CONTINUOUS
 10
-727.9408444248
 20
109.4323517655
 40
8.0607815307
100
AcDbArc
 50
176.2516062748
 51
179.999574903
  0
ARC
  5
539
100
AcDbEntity
  8
0
100
AcDbCircle
 62
9
  6
CONTINUOUS
 10
-727.9434459119
 20
109.4324577414
 40
8.0581786809
100
AcDbArc
 50
175.4184332807
 51
176.2511489183
  0
ARC
  5
53A
100
AcDbEntity
  8
0
100
AcDbCircle
 62
9
  6
CONTINUOUS
 10
-726.0268395208
 20
107.2222231202
 40
8.0075211915
100
AcDbArc
 50
130.4516660215
 51
132.3856108056
  0
ARC
  5
53B
100
AcDbEntity
  8
0
100
AcDbCircle
 62
9
  6
CONTINUOUS
 10
-728.0168917926
 20
109.4943300029
 40
7.9597193702
100
AcDbArc
 50
130.099921965
 51
132.0447594366
  0
ARC
  5
53C
100
AcDbEntity
  8
0
100
AcDbCircle
 62
7
  6
CONTINUOUS
 10
-733.0016294526
 20
98.463924232
 40
2.9999965026
100
AcDbArc
 50
179.9999885715
 51
269.9999993565
  0
ARC
  5
53D
100
AcDbEntity
  8
0
100
AcDbCircle
 62
7
  6
CONTINUOUS
 10
-671.00234406
 20
98.4639806017
 40
3.0007181053
100
AcDbArc
 50
350.9985765912
 51
359.9989351026
  0
ARC
  5
53E
100
AcDbEntity
  8
0
100
AcDbCircle
 62
7
  6
CONTINUOUS
 10
-654.0016259552
 20
88.4639248304
 40
3.0
100
AcDbArc
 50
270.0
 51
289.4712206345
  0
ARC
  5
53F
100
AcDbEntity
  8
0
100
AcDbCircle
 62
7
  6
CONTINUOUS
 10
-671.0016258253
 20
98.4639247004
 40
2.99999987
100
AcDbArc
 50
269.9999975178
 51
0.0000024822
  0
ARC
  5
540
100
AcDbEntity
  8
0
100
AcDbCircle
 62
7
  6
CONTINUOUS
 10
-671.0014870698
 20
98.4625933593
 40
2.9986621882
100
AcDbArc
 50
273.9123904454
 51
279.5825752563
  0
ARC
  5
541
100
AcDbEntity
  8
0
100
AcDbCircle
 62
7
  6
CONTINUOUS
 10
-666.0016259552
 20
87.4639248304
 40
2.0
100
AcDbArc
 50
180.0
 51
270.0
  0
ARC
  5
542
100
AcDbEntity
  8
0
100
AcDbCircle
 62
9
  6
CONTINUOUS
 10
-706.7588420551
 20
148.2857427326
 40
10.5501700187
100
AcDbArc
 50
311.3330523951
 51
312.7636975953
  0
ARC
  5
543
100
AcDbEntity
  8
0
100
AcDbCircle
 62
9
  6
CONTINUOUS
 10
-671.0016259552
 20
177.4639248304
 40
5.0
100
AcDbArc
 50
0.0
 51
90.0
  0
ARC
  5
544
100
AcDbEntity
  8
0
100
AcDbCircle
 62
7
  6
CONTINUOUS
 10
-671.0016259552
 20
177.4639248304
 40
3.0
100
AcDbArc
 50
0.0
 51
90.0
  0
ARC
  5
545
100
AcDbEntity
  8
0
100
AcDbCircle
 62
7
  6
CONTINUOUS
 10
-733.0016259552
 20
177.4639248304
 40
3.0
100
AcDbArc
 50
90.0
 51
180.0
  0
ARC
  5
546
100
AcDbEntity
  8
0
100
AcDbCircle
 62
7
  6
CONTINUOUS
 10
-736.0016259552
 20
177.4639248304
 40
3.0
100
AcDbArc
 50
90.0
 51
180.0
  0
ARC
  5
547
100
AcDbEntity
  8
0
100
AcDbCircle
 62
9
  6
CONTINUOUS
 10
-735.6104093364
 20
179.206478763
 40
1.2591502122
100
AcDbArc
 50
105.7510699034
 51
106.9663224509
  0
ARC
  5
548
100
AcDbEntity
  8
0
100
AcDbCircle
 62
7
  6
CONTINUOUS
 10
-255.0016259552
 20
83.7481731055
 40
20.0
100
AcDbArc
 50
315.000005865
 51
0.000000203
  0
ARC
  5
549
100
AcDbEntity
  8
0
100
AcDbCircle
 62
7
  6
CONTINUOUS
 10
-263.2858725877
 20
75.4639248304
 40
20.0
100
AcDbArc
 50
270.0
 51
315.0000056357
  0
ARC
  5
54A
100
AcDbEntity
  8
0
100
AcDbCircle
 62
7
  6
CONTINUOUS
 10
-356.0016259552
 20
33.4639248304
 40
8.0
100
AcDbArc
 50
180.0
 51
270.0
  0
ARC
  5
54B
100
AcDbEntity
  8
0
100
AcDbCircle
 62
7
  6
CONTINUOUS
 10
-594.0016259552
 20
33.4639248304
 40
8.0
100
AcDbArc
 50
270.0
 51
360.0
  0
ARC
  5
54C
100
AcDbEntity
  8
0
100
AcDbCircle
 62
3
  6
CONTINUOUS
 10
-368.0016259552
 20
45.4639248304
 40
8.0
100
AcDbArc
 50
0.0
 51
90.0
  0
ARC
  5
54D
100
AcDbEntity
  8
0
100
AcDbCircle
 62
3
  6
CONTINUOUS
 10
-582.0016259552
 20
45.4639248304
 40
8.0
100
AcDbArc
 50
90.0
 51
180.0
  0
ARC
  5
54E
100
AcDbEntity
  8
0
100
AcDbCircle
 62
7
  6
CONTINUOUS
 10
-368.0016259552
 20
45.4639248304
 40
4.0
100
AcDbArc
 50
0.0
 51
90.0
  0
ARC
  5
54F
100
AcDbEntity
  8
0
100
AcDbCircle
 62
7
  6
CONTINUOUS
 10
-582.0016259552
 20
45.4639248304
 40
4.0
100
AcDbArc
 50
90.0
 51
180.0
  0
ARC
  5
550
100
AcDbEntity
  8
0
100
AcDbCircle
 62
3
  6
CONTINUOUS
 10
-356.0016259552
 20
33.4639248304
 40
4.0
100
AcDbArc
 50
180.0
 51
270.0
  0
ARC
  5
551
100
AcDbEntity
  8
0
100
AcDbCircle
 62
3
  6
CONTINUOUS
 10
-594.0016259552
 20
33.4639248304
 40
4.0
100
AcDbArc
 50
270.0
 51
360.0
  0
ARC
  5
552
100
AcDbEntity
  8
0
100
AcDbCircle
 62
7
  6
CONTINUOUS
 10
-964.5016259552
 20
254.4639248304
 40
4.0
100
AcDbArc
 50
270.0
 51
360.0
  0
ARC
  5
553
100
AcDbEntity
  8
0
100
AcDbCircle
 62
7
  6
CONTINUOUS
 10
-983.5016259552
 20
267.4639248304
 40
2.0
100
AcDbArc
 50
180.0
 51
270.0
  0
ARC
  5
554
100
AcDbEntity
  8
0
100
AcDbCircle
 62
7
  6
CONTINUOUS
 10
-987.5016259552
 20
272.7664394285
 40
2.0
100
AcDbArc
 50
0.0
 51
75.0
  0
ARC
  5
555
100
AcDbEntity
  8
0
100
AcDbCircle
 62
7
  6
CONTINUOUS
 10
-928.5016259552
 20
454.4639248304
 40
2.0
100
AcDbArc
 50
90.0
 51
180.0
  0
ARC
  5
556
100
AcDbEntity
  8
0
100
AcDbCircle
 62
7
  6
CONTINUOUS
 10
-921.3234670101
 20
458.4639248304
 40
2.0
100
AcDbArc
 50
270.0
 51
345.0
  0
ARC
  5
557
100
AcDbEntity
  8
0
100
AcDbCircle
 62
7
  6
CONTINUOUS
 10
-983.5016259552
 20
423.4639248304
 40
2.0
100
AcDbArc
 50
90.0
 51
180.0
  0
ARC
  5
558
100
AcDbEntity
  8
0
100
AcDbCircle
 62
7
  6
CONTINUOUS
 10
-987.5016259552
 20
418.1614102323
 40
2.0
100
AcDbArc
 50
285.0
 51
360.0
  0
ARC
  5
559
100
AcDbEntity
  8
0
100
AcDbCircle
 62
9
  6
CONTINUOUS
 10
-706.7641848348
 20
222.6361645385
 40
10.5581606185
100
AcDbArc
 50
47.2368911689
 51
48.6664741698
  0
ARC
  5
55A
100
AcDbEntity
  8
0
100
AcDbCircle
 62
7
  6
CONTINUOUS
 10
-736.0016259552
 20
193.4639248304
 40
3.0
100
AcDbArc
 50
180.0
 51
270.0
  0
ARC
  5
55B
100
AcDbEntity
  8
0
100
AcDbCircle
 62
7
  6
CONTINUOUS
 10
-733.0016259552
 20
193.4639248304
 40
3.0
100
AcDbArc
 50
180.0
 51
270.0
  0
ARC
  5
55C
100
AcDbEntity
  8
0
100
AcDbCircle
 62
9
  6
CONTINUOUS
 10
-735.6104093371
 20
191.7213708957
 40
1.2591502099
100
AcDbArc
 50
253.0336775367
 51
254.248930477
  0
ARC
  5
55D
100
AcDbEntity
  8
0
100
AcDbCircle
 62
9
  6
CONTINUOUS
 10
-741.8481038011
 20
261.9477787198
 40
8.8464778462
100
AcDbArc
 50
358.1480263931
 51
0.0004700902
  0
ARC
  5
55E
100
AcDbEntity
  8
0
100
AcDbCircle
 62
7
  6
CONTINUOUS
 10
-735.0016259552
 20
274.3369081766
 40
4.0
100
AcDbArc
 50
180.0
 51
231.3179876942
  0
ARC
  5
55F
100
AcDbEntity
  8
0
100
AcDbCircle
 62
7
  6
CONTINUOUS
 10
-735.0016259552
 20
289.4639248304
 40
4.0
100
AcDbArc
 50
180.0
 51
270.0
  0
ARC
  5
560
100
AcDbEntity
  8
0
100
AcDbCircle
 62
7
  6
CONTINUOUS
 10
-740.0015750479
 20
268.0919346334
 40
3.9999490926
100
AcDbArc
 50
0.0
 51
51.3179876942
  0
ARC
  5
561
100
AcDbEntity
  8
0
100
AcDbCircle
 62
7
  6
CONTINUOUS
 10
-741.0016259552
 20
318.4639248304
 40
2.0
100
AcDbArc
 50
0.0
 51
90.0
  0
ARC
  5
562
100
AcDbEntity
  8
0
100
AcDbCircle
 62
9
  6
CONTINUOUS
 10
-727.9406809756
 20
261.4955028801
 40
8.0609449799
100
AcDbArc
 50
180.0004605196
 51
183.7487991038
  0
ARC
  5
563
100
AcDbEntity
  8
0
100
AcDbCircle
 62
9
  6
CONTINUOUS
 10
-727.9434330972
 20
261.4953941018
 40
8.0581916352
100
AcDbArc
 50
183.7493067345
 51
184.5876603112
  0
ARC
  5
564
100
AcDbEntity
  8
0
100
AcDbCircle
 62
9
  6
CONTINUOUS
 10
-726.0268468838
 20
263.7056181901
 40
8.0075100601
100
AcDbArc
 50
227.614387829
 51
229.5483350595
  0
ARC
  5
565
100
AcDbEntity
  8
0
100
AcDbCircle
 62
9
  6
CONTINUOUS
 10
-728.0168861906
 20
261.4335260859
 40
7.9597278954
100
AcDbArc
 50
227.9552416053
 51
229.9000769937
  0
ARC
  5
566
100
AcDbEntity
  8
0
100
AcDbCircle
 62
7
  6
CONTINUOUS
 10
-733.0016259
 20
272.4639247786
 40
3.0000000693
100
AcDbArc
 50
90.0000004485
 51
179.9999919412
  0
ARC
  5
567
100
AcDbEntity
  8
0
100
AcDbCircle
 62
9
  6
CONTINUOUS
 10
-671.0016259552
 20
193.4639248304
 40
5.0
100
AcDbArc
 50
270.0
 51
360.0
  0
ARC
  5
568
100
AcDbEntity
  8
0
100
AcDbCircle
 62
7
  6
CONTINUOUS
 10
-671.0016259552
 20
193.4639248304
 40
3.0
100
AcDbArc
 50
270.0
 51
360.0
  0
ARC
  5
569
100
AcDbEntity
  8
0
100
AcDbCircle
 62
7
  6
CONTINUOUS
 10
-671.0101014752
 20
272.4627611365
 40
3.0085530928
100
AcDbArc
 50
8.9991394988
 51
9.5433290822
  0
ARC
  5
56A
100
AcDbEntity
  8
0
100
AcDbCircle
 62
7
  6
CONTINUOUS
 10
-671.0023484559
 20
272.4638671932
 40
3.0007225012
100
AcDbArc
 50
0.0011005246
 51
9.0014361726
  0
ARC
  5
56B
100
AcDbEntity
  8
0
100
AcDbCircle
 62
7
  6
CONTINUOUS
 10
-671.0017013539
 20
272.4634274247
 40
3.0005013525
100
AcDbArc
 50
80.4122201984
 51
86.0859102688
  0
ARC
  5
56C
100
AcDbEntity
  8
0
100
AcDbCircle
 62
7
  6
CONTINUOUS
 10
-654.0016259552
 20
282.4639248304
 40
3.0
100
AcDbArc
 50
70.5287793655
 51
90.0
  0
ARC
  5
56D
100
AcDbEntity
  8
0
100
AcDbCircle
 62
7
  6
CONTINUOUS
 10
-671.0016253636
 20
272.463925422
 40
2.9999994084
100
AcDbArc
 50
359.9999887013
 51
90.0000112988
  0
ARC
  5
56E
100
AcDbEntity
  8
0
100
AcDbCircle
 62
7
  6
CONTINUOUS
 10
-666.0016259552
 20
283.4639248304
 40
2.0
100
AcDbArc
 50
90.0
 51
180.0
  0
ARC
  5
56F
100
AcDbEntity
  8
0
100
AcDbCircle
 62
7
  6
CONTINUOUS
 10
-775.5016259552
 20
400.4639248304
 40
25.0
100
AcDbArc
 50
0.0
 51
90.0116611953
  0
ARC
  5
570
100
AcDbEntity
  8
0
100
AcDbCircle
 62
7
  6
CONTINUOUS
 10
-772.5016259552
 20
454.4639248304
 40
2.0
100
AcDbArc
 50
0.0
 51
90.0
  0
ARC
  5
571
100
AcDbEntity
  8
0
100
AcDbCircle
 62
7
  6
CONTINUOUS
 10
-779.6797849004
 20
458.4639248304
 40
2.0
100
AcDbArc
 50
195.0
 51
270.0
  0
ARC
  5
572
100
AcDbEntity
  8
0
100
AcDbCircle
 62
9
  6
CONTINUOUS
 10
-753.0122798637
 20
8103.4686386459
 40
7925.7788133646
100
AcDbArc
 50
270.1436292879
 51
270.3730976105
  0
ARC
  5
573
100
AcDbEntity
  8
0
100
AcDbCircle
 62
7
  6
CONTINUOUS
 10
-255.0016259552
 20
287.1796765553
 40
20.0
100
AcDbArc
 50
359.999999797
 51
44.999994135
  0
ARC
  5
574
100
AcDbEntity
  8
0
100
AcDbCircle
 62
7
  6
CONTINUOUS
 10
-263.2858725877
 20
295.4639248304
 40
20.0
100
AcDbArc
 50
44.9999943643
 51
90.0
  0
ARC
  5
575
100
AcDbEntity
  8
0
100
AcDbCircle
 62
7
  6
CONTINUOUS
 10
1796.375731654
 20
185.4639248304
 40
157.0
100
AcDbArc
 50
311.7627739363
 51
360.0
  0
ARC
  5
576
100
AcDbEntity
  8
0
100
AcDbCircle
 62
7
  6
CONTINUOUS
 10
1796.375731654
 20
185.4639248304
 40
157.0
100
AcDbArc
 50
180.0
 51
228.2372260637
  0
ARC
  5
577
100
AcDbEntity
  8
0
100
AcDbCircle
 62
9
  6
CONTINUOUS
 10
1796.375731654
 20
185.4639248304
 40
131.9999998705
100
AcDbArc
 50
180.0
 51
242.4728907975
  0
ARC
  5
578
100
AcDbEntity
  8
3_ALL_AXES
100
AcDbCircle
 62
7
  6
CONTINUOUS
 10
1698.39079009
 20
137.6284957848
 40
5.5
100
AcDbArc
 50
172.2140392775
 51
230.4968713939
  0
ARC
  5
579
100
AcDbEntity
  8
3_ALL_AXES
100
AcDbCircle
 62
7
  6
CONTINUOUS
 10
1698.39079009
 20
233.299353876
 40
5.5
100
AcDbArc
 50
129.3846007652
 51
188.403464439
  0
ARC
  5
57A
100
AcDbEntity
  8
0
100
AcDbCircle
 62
7
  6
CONTINUOUS
 10
1671.875731654
 20
40.4639248304
 40
3.0
100
AcDbArc
 50
90.0
 51
180.0
  0
ARC
  5
57B
100
AcDbEntity
  8
0
100
AcDbCircle
 62
7
  6
CONTINUOUS
 10
1796.375731654
 20
282.3014305393
 40
157.0
100
AcDbArc
 50
115.9735268484
 51
180.0
  0
ARC
  5
57C
100
AcDbEntity
  8
0
100
AcDbCircle
 62
7
  6
CONTINUOUS
 10
1796.375731654
 20
282.3014305393
 40
157.0
100
AcDbArc
 50
0.0
 51
64.0264731544
  0
ARC
  5
57D
100
AcDbEntity
  8
0
100
AcDbCircle
 62
9
  6
CONTINUOUS
 10
1796.375731654
 20
282.3014305393
 40
132.0
100
AcDbArc
 50
0.0
 51
63.5304426229
  0
ARC
  5
57E
100
AcDbEntity
  8
0
100
AcDbCircle
 62
9
  6
CONTINUOUS
 10
1796.375731654
 20
282.3014305393
 40
132.0
100
AcDbArc
 50
116.4695542322
 51
180.0
  0
ARC
  5
57F
100
AcDbEntity
  8
0
100
AcDbCircle
 62
7
  6
CONTINUOUS
 10
1736.375731654
 20
405.4639248304
 40
20.0
100
AcDbArc
 50
90.0
 51
115.9733581319
  0
ARC
  5
580
100
AcDbEntity
  8
0
100
AcDbCircle
 62
7
  6
CONTINUOUS
 10
1668.375731654
 20
454.4639248304
 40
2.0
100
AcDbArc
 50
90.0
 51
180.0
  0
ARC
  5
581
100
AcDbEntity
  8
0
100
AcDbCircle
 62
7
  6
CONTINUOUS
 10
1675.5538905991
 20
458.4639248304
 40
2.0
100
AcDbArc
 50
270.0000000002
 51
345.0
  0
ARC
  5
582
100
AcDbEntity
  8
0
100
AcDbCircle
 62
7
  6
CONTINUOUS
 10
1813.875731654
 20
185.4639248304
 40
135.0
100
AcDbArc
 50
121.2455795379
 51
240.133964357
  0
ARC
  5
583
100
AcDbEntity
  8
0
100
AcDbCircle
 62
7
  6
CONTINUOUS
 10
1813.875731654
 20
185.4639248304
 40
135.0
100
AcDbArc
 50
299.866035643
 51
58.7544204621
  0
ARC
  5
584
100
AcDbEntity
  8
0
100
AcDbCircle
 62
9
  6
CONTINUOUS
 10
1813.875731654
 20
185.4639248304
 40
133.0
100
AcDbArc
 50
121.7616627414
 51
241.6280456692
  0
ARC
  5
585
100
AcDbEntity
  8
0
100
AcDbCircle
 62
9
  6
CONTINUOUS
 10
1813.875731654
 20
185.4639248304
 40
133.0
100
AcDbArc
 50
298.3719542882
 51
58.2383372421
  0
CIRCLE
  5
586
100
AcDbEntity
  8
0
100
AcDbCircle
 62
7
  6
CONTINUOUS
 10
1813.875731654
 20
185.4639248304
 40
130.0
  0
CIRCLE
  5
587
100
AcDbEntity
  8
0
100
AcDbCircle
 62
9
  6
CONTINUOUS
 10
1813.875731654
 20
185.4639248304
 40
124.142132737
  0
CIRCLE
  5
588
100
AcDbEntity
  8
0
100
AcDbCircle
 62
9
  6
CONTINUOUS
 10
1813.875731654
 20
185.4639248304
 40
115.8578858013
  0
CIRCLE
  5
589
100
AcDbEntity
  8
0
100
AcDbCircle
 62
9
  6
CONTINUOUS
 10
1813.875731654
 20
185.4639248304
 40
101.7157515143
  0
ARC
  5
58A
100
AcDbEntity
  8
3_ALL_AXES
100
AcDbCircle
 62
7
  6
CONTINUOUS
 10
1929.3606732179
 20
137.6284957848
 40
5.5
100
AcDbArc
 50
309.3846007652
 51
8.4034644597
  0
ARC
  5
58B
100
AcDbEntity
  8
3_ALL_AXES
100
AcDbCircle
 62
7
  6
CONTINUOUS
 10
1929.3606732179
 20
233.299353876
 40
5.5
100
AcDbArc
 50
352.2140394306
 51
50.4968713939
  0
ARC
  5
58C
100
AcDbEntity
  8
0
100
AcDbCircle
 62
7
  6
CONTINUOUS
 10
1955.875731654
 20
40.4639248304
 40
3.0
100
AcDbArc
 50
0.0
 51
90.0
  0
ARC
  5
58D
100
AcDbEntity
  8
0
100
AcDbCircle
 62
9
  6
CONTINUOUS
 10
1856.6411037066
 20
406.6597024071
 40
22.804226245
100
AcDbArc
 50
63.3419163531
 51
89.9668292038
  0
ARC
  5
58E
100
AcDbEntity
  8
0
100
AcDbCircle
 62
7
  6
CONTINUOUS
 10
1856.375731654
 20
405.4639248304
 40
20.0
100
AcDbArc
 50
64.0266418903
 51
90.0000086892
  0
ARC
  5
58F
100
AcDbEntity
  8
0
100
AcDbCircle
 62
7
  6
CONTINUOUS
 10
1824.375731654
 20
454.4639248304
 40
2.0
100
AcDbArc
 50
0.0
 51
90.0
  0
ARC
  5
590
100
AcDbEntity
  8
0
100
AcDbCircle
 62
7
  6
CONTINUOUS
 10
1817.1975727088
 20
458.4639248304
 40
2.0
100
AcDbArc
 50
195.0
 51
269.9999999998
  0
ARC
  5
591
100
AcDbEntity
  8
0
100
AcDbCircle
 62
7
  6
CONTINUOUS
 10
645.170811201
 20
-433.593312324
 40
20.0
100
AcDbArc
 50
224.9999943197
 51
270.0
  0
ARC
  5
592
100
AcDbEntity
  8
0
100
AcDbCircle
 62
7
  6
CONTINUOUS
 10
636.8865645686
 20
-425.3090640489
 40
20.0
100
AcDbArc
 50
180.0
 51
224.9999943197
  0
ARC
  5
593
100
AcDbEntity
  8
0
100
AcDbCircle
 62
7
  6
CONTINUOUS
 10
1157.3865645686
 20
-438.093312324
 40
25.0
100
AcDbArc
 50
180.0
 51
270.0
  0
ARC
  5
594
100
AcDbEntity
  8
0
100
AcDbCircle
 62
7
  6
CONTINUOUS
 10
1122.8865645686
 20
-456.593312324
 40
2.0
100
AcDbArc
 50
180.0
 51
270.0
  0
ARC
  5
595
100
AcDbEntity
  8
0
100
AcDbCircle
 62
7
  6
CONTINUOUS
 10
1116.8865645686
 20
-412.4662956702
 40
4.0
100
AcDbArc
 50
0.0
 51
51.3178125465
  0
ARC
  5
596
100
AcDbEntity
  8
0
100
AcDbCircle
 62
7
  6
CONTINUOUS
 10
1117.8865645686
 20
-426.593312324
 40
3.0
100
AcDbArc
 50
0.0
 51
90.0
  0
ARC
  5
597
100
AcDbEntity
  8
0
100
AcDbCircle
 62
7
  6
CONTINUOUS
 10
1035.8865645686
 20
-420.593312324
 40
3.0
100
AcDbArc
 50
250.5287793655
 51
270.0
  0
ARC
  5
598
100
AcDbEntity
  8
0
100
AcDbCircle
 62
7
  6
CONTINUOUS
 10
1047.8865645686
 20
-421.593312324
 40
2.0
100
AcDbArc
 50
270.0
 51
360.0
  0
ARC
  5
599
100
AcDbEntity
  8
0
100
AcDbCircle
 62
9
  6
CONTINUOUS
 10
1116.8865645686
 20
-412.4662956702
 40
1.0
100
AcDbArc
 50
0.0
 51
51.3178125465
  0
ARC
  5
59A
100
AcDbEntity
  8
0
100
AcDbCircle
 62
7
  6
CONTINUOUS
 10
1317.3865645686
 20
-438.093312324
 40
25.0
100
AcDbArc
 50
270.0
 51
360.0
  0
ARC
  5
59B
100
AcDbEntity
  8
0
100
AcDbCircle
 62
7
  6
CONTINUOUS
 10
1224.3865645686
 20
-456.593312324
 40
12.0
100
AcDbArc
 50
213.0177669636
 51
270.0
  0
ARC
  5
59C
100
AcDbEntity
  8
0
100
AcDbCircle
 62
7
  6
CONTINUOUS
 10
1250.3865645686
 20
-456.593312324
 40
12.0
100
AcDbArc
 50
270.0
 51
326.9822330364
  0
ARC
  5
59D
100
AcDbEntity
  8
0
100
AcDbCircle
 62
9
  6
CONTINUOUS
 10
1250.3865645686
 20
-456.593312324
 40
9.0
100
AcDbArc
 50
270.0
 51
313.5847770728
  0
ARC
  5
59E
100
AcDbEntity
  8
0
100
AcDbCircle
 62
9
  6
CONTINUOUS
 10
1224.3865645686
 20
-456.593312324
 40
9.0
100
AcDbArc
 50
226.4152229275
 51
270.0
  0
ARC
  5
59F
100
AcDbEntity
  8
0
100
AcDbCircle
 62
9
  6
CONTINUOUS
 10
1166.1988882172
 20
-374.4262433066
 40
100.1876815709
100
AcDbArc
 50
359.7562660455
 51
4.7709854403
  0
ARC
  5
5A0
100
AcDbEntity
  8
0
100
AcDbCircle
 62
9
  6
CONTINUOUS
 10
1298.1847118335
 20
-374.4108458878
 40
99.798222966
100
AcDbArc
 50
175.2192234002
 51
180.2535251139
  0
ARC
  5
5A1
100
AcDbEntity
  8
0
100
AcDbCircle
 62
9
  6
CONTINUOUS
 10
1109.8530276299
 20
-400.3130998879
 40
8.0335369867
100
AcDbArc
 50
0.0062655027
 51
8.5826575895
  0
ARC
  5
5A2
100
AcDbEntity
  8
0
100
AcDbCircle
 62
9
  6
CONTINUOUS
 10
1109.8733600446
 20
-400.3098033843
 40
8.0129054238
100
AcDbArc
 50
8.5810468988
 51
49.9539524809
  0
ARC
  5
5A3
100
AcDbEntity
  8
0
100
AcDbCircle
 62
9
  6
CONTINUOUS
 10
1078.143033498
 20
-373.4171019793
 40
7.9859094114
100
AcDbArc
 50
49.9031399537
 51
89.9906217986
  0
ARC
  5
5A4
100
AcDbEntity
  8
0
100
AcDbCircle
 62
9
  6
CONTINUOUS
 10
1121.8865645686
 20
-406.2212976718
 40
7.0
100
AcDbArc
 50
180.0
 51
231.3178125465
  0
ARC
  5
5A5
100
AcDbEntity
  8
0
100
AcDbCircle
 62
9
  6
CONTINUOUS
 10
1052.8865645686
 20
-366.593312324
 40
5.0
100
AcDbArc
 50
90.0
 51
180.0
  0
ARC
  5
5A6
100
AcDbEntity
  8
0
100
AcDbCircle
 62
7
  6
CONTINUOUS
 10
1116.8865645686
 20
-367.593312324
 40
4.0
100
AcDbArc
 50
0.0
 51
90.0
  0
ARC
  5
5A7
100
AcDbEntity
  8
0
100
AcDbCircle
 62
7
  6
CONTINUOUS
 10
1121.8865645686
 20
-406.2212976623
 40
4.0
100
AcDbArc
 50
180.0000000571
 51
231.3178126055
  0
ARC
  5
5A8
100
AcDbEntity
  8
0
100
AcDbCircle
 62
7
  6
CONTINUOUS
 10
1346.3865645686
 20
-400.093312324
 40
4.0
100
AcDbArc
 50
90.0
 51
180.0
  0
ARC
  5
5A9
100
AcDbEntity
  8
0
100
AcDbCircle
 62
7
  6
CONTINUOUS
 10
1052.8865645686
 20
-366.593312324
 40
3.0
100
AcDbArc
 50
90.0
 51
180.0
  0
ARC
  5
5AA
100
AcDbEntity
  8
0
100
AcDbCircle
 62
9
  6
CONTINUOUS
 10
1120.5417571188
 20
-362.2012620733
 40
2.6692627896
100
AcDbArc
 50
229.5005707199
 51
238.4838985373
  0
ARC
  5
5AB
100
AcDbEntity
  8
0
100
AcDbCircle
 62
9
  6
CONTINUOUS
 10
1120.5234174314
 20
-362.2237855021
 40
2.6402252471
100
AcDbArc
 50
228.7788664406
 51
229.485772744
  0
ARC
  5
5AC
100
AcDbEntity
  8
0
100
AcDbCircle
 62
9
  6
CONTINUOUS
 10
1120.5206684576
 20
-362.2270131256
 40
2.6359860371
100
AcDbArc
 50
221.4000896358
 51
228.777579749
  0
ARC
  5
5AD
100
AcDbEntity
  8
0
100
AcDbCircle
 62
9
  6
CONTINUOUS
 10
1120.5124558321
 20
-362.2346494899
 40
2.6247756538
100
AcDbArc
 50
220.8356643314
 51
221.3936065354
  0
ARC
  5
5AE
100
AcDbEntity
  8
0
100
AcDbCircle
 62
7
  6
CONTINUOUS
 10
1365.3865645686
 20
-384.093312324
 40
2.0
100
AcDbArc
 50
270.0
 51
360.0
  0
ARC
  5
5AF
100
AcDbEntity
  8
0
100
AcDbCircle
 62
7
  6
CONTINUOUS
 10
1369.3865645686
 20
-378.7907977258
 40
2.0
100
AcDbArc
 50
105.0
 51
179.9999999998
  0
ARC
  5
5B0
100
AcDbEntity
  8
0
100
AcDbCircle
 62
9
  6
CONTINUOUS
 10
1118.6172711798
 20
-364.6302000424
 40
0.5674494639
100
AcDbArc
 50
47.7642369316
 51
51.2454361056
  0
ARC
  5
5B1
100
AcDbEntity
  8
0
100
AcDbCircle
 62
7
  6
CONTINUOUS
 10
645.170811201
 20
-213.593312324
 40
20.0
100
AcDbArc
 50
90.0
 51
135.0000056803
  0
ARC
  5
5B2
100
AcDbEntity
  8
0
100
AcDbCircle
 62
7
  6
CONTINUOUS
 10
636.8865645686
 20
-221.877560599
 40
20.0
100
AcDbArc
 50
135.0000056803
 51
180.0
  0
CIRCLE
  5
5B3
100
AcDbEntity
  8
0
100
AcDbCircle
 62
9
  6
CONTINUOUS
 10
1232.3865645686
 20
-256.093312324
 40
70.8218410548
  0
CIRCLE
  5
5B4
100
AcDbEntity
  8
0
100
AcDbCircle
 62
9
  6
CONTINUOUS
 10
1232.3865645686
 20
-256.093312324
 40
68.8899894023
  0
CIRCLE
  5
5B5
100
AcDbEntity
  8
0
100
AcDbCircle
 62
7
  6
CONTINUOUS
 10
1232.3865645686
 20
-256.093312324
 40
65.0
  0
ARC
  5
5B6
100
AcDbEntity
  8
0
100
AcDbCircle
 62
2
  6
CONTINUOUS
 10
1232.3865645686
 20
-256.093312324
 40
58.5
100
AcDbArc
 50
255.0
 51
195.0
  0
CIRCLE
  5
5B7
100
AcDbEntity
  8
02___PRT_ALL_AXES
100
AcDbCircle
 62
7
  6
CONTINUOUS
 10
1232.3865645686
 20
-256.093312324
 40
57.5
  0
CIRCLE
  5
5B8
100
AcDbEntity
  8
02___PRT_ALL_AXES
100
AcDbCircle
 62
7
  6
CONTINUOUS
 10
1232.3865645686
 20
-256.093312324
 40
55.25
  0
ARC
  5
5B9
100
AcDbEntity
  8
0
100
AcDbCircle
 62
7
  6
CONTINUOUS
 10
1294.3865645686
 20
-318.093312324
 40
18.0
100
AcDbArc
 50
270.0
 51
360.0
  0
ARC
  5
5BA
100
AcDbEntity
  8
0
100
AcDbCircle
 62
7
  6
CONTINUOUS
 10
1170.3865645686
 20
-318.093312324
 40
18.0
100
AcDbArc
 50
180.0
 51
270.0
  0
ARC
  5
5BB
100
AcDbEntity
  8
0
100
AcDbCircle
 62
9
  6
CONTINUOUS
 10
1294.3865645686
 20
-318.093312324
 40
16.0
100
AcDbArc
 50
270.0
 51
360.0
  0
ARC
  5
5BC
100
AcDbEntity
  8
0
100
AcDbCircle
 62
9
  6
CONTINUOUS
 10
1170.3865645686
 20
-318.093312324
 40
16.0
100
AcDbArc
 50
180.0
 51
270.0
  0
ARC
  5
5BD
100
AcDbEntity
  8
0
100
AcDbCircle
 62
9
  6
CONTINUOUS
 10
1078.1430335277
 20
-273.7695227498
 40
7.9859094111
100
AcDbArc
 50
270.0093779881
 51
310.096860258
  0
ARC
  5
5BE
100
AcDbEntity
  8
0
100
AcDbCircle
 62
2
  6
CONTINUOUS
 10
1058.3865645686
 20
-323.593312324
 40
6.6
100
AcDbArc
 50
255.0
 51
195.0
  0
CIRCLE
  5
5BF
100
AcDbEntity
  8
3_ALL_AXES
100
AcDbCircle
 62
7
  6
CONTINUOUS
 10
1058.3865645686
 20
-323.593312324
 40
5.875
  0
ARC
  5
5C0
100
AcDbEntity
  8
0
100
AcDbCircle
 62
9
  6
CONTINUOUS
 10
1052.8865645686
 20
-280.593312324
 40
5.0
100
AcDbArc
 50
180.0
 51
270.0
  0
ARC
  5
5C1
100
AcDbEntity
  8
0
100
AcDbCircle
 62
7
  6
CONTINUOUS
 10
1116.8865645686
 20
-279.593312324
 40
4.0
100
AcDbArc
 50
270.0
 51
360.0
  0
CIRCLE
  5
5C2
100
AcDbEntity
  8
3_ALL_AXES
100
AcDbCircle
 62
7
  6
CONTINUOUS
 10
1058.3865645686
 20
-323.593312324
 40
3.0
  0
ARC
  5
5C3
100
AcDbEntity
  8
0
100
AcDbCircle
 62
7
  6
CONTINUOUS
 10
1052.8865645686
 20
-280.593312324
 40
3.0
100
AcDbArc
 50
180.0
 51
270.0
  0
ARC
  5
5C4
100
AcDbEntity
  8
0
100
AcDbCircle
 62
9
  6
CONTINUOUS
 10
1120.5348861226
 20
-284.9792463959
 40
2.6604583961
100
AcDbArc
 50
121.458811303
 51
130.4699096225
  0
ARC
  5
5C5
100
AcDbEntity
  8
0
100
AcDbCircle
 62
9
  6
CONTINUOUS
 10
1120.5172230862
 20
-284.9575243226
 40
2.6324693093
100
AcDbArc
 50
130.4843089497
 51
131.1883229149
  0
ARC
  5
5C6
100
AcDbEntity
  8
0
100
AcDbCircle
 62
9
  6
CONTINUOUS
 10
1120.5151679103
 20
-284.955053321
 40
2.6292563529
100
AcDbArc
 50
131.1900798185
 51
138.6155755876
  0
ARC
  5
5C7
100
AcDbEntity
  8
0
100
AcDbCircle
 62
9
  6
CONTINUOUS
 10
1120.5076500496
 20
-284.9480537129
 40
2.6189882898
100
AcDbArc
 50
138.6217367012
 51
139.1821758003
  0
ARC
  5
5C8
100
AcDbEntity
  8
0
100
AcDbCircle
 62
9
  6
CONTINUOUS
 10
1118.6218304715
 20
-282.561405061
 40
0.5607645244
100
AcDbArc
 50
309.0171425936
 51
312.2939938127
  0
ARC
  5
5C9
100
AcDbEntity
  8
0
100
AcDbCircle
 62
9
  6
CONTINUOUS
 10
1109.853028507
 20
-246.8735248755
 40
8.0335361096
100
AcDbArc
 50
351.4177941741
 51
359.9937353204
  0
ARC
  5
5CA
100
AcDbEntity
  8
0
100
AcDbCircle
 62
9
  6
CONTINUOUS
 10
1109.8733599675
 20
-246.8768212091
 40
8.0129055162
100
AcDbArc
 50
310.0460476901
 51
351.419405842
  0
ARC
  5
5CB
100
AcDbEntity
  8
0
100
AcDbCircle
 62
9
  6
CONTINUOUS
 10
1121.8865645686
 20
-240.9653269761
 40
7.0
100
AcDbArc
 50
128.6821874535
 51
180.0
  0
ARC
  5
5CC
100
AcDbEntity
  8
0
100
AcDbCircle
 62
7
  6
CONTINUOUS
 10
1116.8865645686
 20
-234.7203289777
 40
4.0
100
AcDbArc
 50
308.6821874281
 51
360.0
  0
ARC
  5
5CD
100
AcDbEntity
  8
0
100
AcDbCircle
 62
7
  6
CONTINUOUS
 10
1121.8865645686
 20
-240.9653269761
 40
4.0
100
AcDbArc
 50
128.6821874788
 51
180.0000000771
  0
ARC
  5
5CE
100
AcDbEntity
  8
0
100
AcDbCircle
 62
7
  6
CONTINUOUS
 10
1117.8865645686
 20
-220.593312324
 40
3.0
100
AcDbArc
 50
270.0
 51
360.0
  0
ARC
  5
5CF
100
AcDbEntity
  8
0
100
AcDbCircle
 62
7
  6
CONTINUOUS
 10
1035.8865645686
 20
-226.593312324
 40
3.0
100
AcDbArc
 50
90.0
 51
109.4712206345
  0
ARC
  5
5D0
100
AcDbEntity
  8
0
100
AcDbCircle
 62
7
  6
CONTINUOUS
 10
1047.8865645686
 20
-225.593312324
 40
2.0
100
AcDbArc
 50
0.0
 51
90.0
  0
ARC
  5
5D1
100
AcDbEntity
  8
0
100
AcDbCircle
 62
9
  6
CONTINUOUS
 10
1116.8865645686
 20
-234.7203289777
 40
1.0
100
AcDbArc
 50
308.6821874535
 51
360.0
  0
ARC
  5
5D2
100
AcDbEntity
  8
0
100
AcDbCircle
 62
7
  6
CONTINUOUS
 10
1157.3865645686
 20
-174.093312324
 40
25.0
100
AcDbArc
 50
90.0
 51
180.0
  0
ARC
  5
5D3
100
AcDbEntity
  8
0
100
AcDbCircle
 62
7
  6
CONTINUOUS
 10
1170.3865645686
 20
-194.093312324
 40
18.0
100
AcDbArc
 50
90.0
 51
180.0
  0
ARC
  5
5D4
100
AcDbEntity
  8
0
100
AcDbCircle
 62
9
  6
CONTINUOUS
 10
1170.3865645686
 20
-194.093312324
 40
16.0
100
AcDbArc
 50
90.0
 51
180.0
  0
ARC
  5
5D5
100
AcDbEntity
  8
0
100
AcDbCircle
 62
7
  6
CONTINUOUS
 10
1122.8865645686
 20
-190.593312324
 40
2.0
100
AcDbArc
 50
90.0
 51
180.0
  0
ARC
  5
5D6
100
AcDbEntity
  8
0
100
AcDbCircle
 62
7
  6
CONTINUOUS
 10
1346.3865645686
 20
-212.093312324
 40
4.0
100
AcDbArc
 50
180.0
 51
270.0
  0
ARC
  5
5D7
100
AcDbEntity
  8
0
100
AcDbCircle
 62
7
  6
CONTINUOUS
 10
1365.3865645686
 20
-228.093312324
 40
2.0
100
AcDbArc
 50
0.0
 51
90.0
  0
ARC
  5
5D8
100
AcDbEntity
  8
0
100
AcDbCircle
 62
7
  6
CONTINUOUS
 10
1369.3865645686
 20
-233.3958269221
 40
2.0
100
AcDbArc
 50
180.0000000002
 51
255.0
  0
ARC
  5
5D9
100
AcDbEntity
  8
0
100
AcDbCircle
 62
7
  6
CONTINUOUS
 10
1317.3865645686
 20
-174.093312324
 40
25.0
100
AcDbArc
 50
0.0
 51
90.0
  0
ARC
  5
5DA
100
AcDbEntity
  8
0
100
AcDbCircle
 62
7
  6
CONTINUOUS
 10
1294.3865645686
 20
-194.093312324
 40
18.0
100
AcDbArc
 50
0.0
 51
90.0
  0
ARC
  5
5DB
100
AcDbEntity
  8
0
100
AcDbCircle
 62
9
  6
CONTINUOUS
 10
1294.3865645686
 20
-194.093312324
 40
16.0
100
AcDbArc
 50
0.0
 51
90.0
  0
ARC
  5
5DC
100
AcDbEntity
  8
0
100
AcDbCircle
 62
9
  6
CONTINUOUS
 10
8379.7542088178
 20
-8867.9890821037
 40
11269.1651634945
100
AcDbArc
 50
130.1398246213
 51
130.3512626273
  0
ARC
  5
5DD
100
AcDbEntity
  8
0
100
AcDbCircle
 62
9
  6
CONTINUOUS
 10
7531.702152112
 20
-7860.3391977073
 40
9955.1319793543
100
AcDbArc
 50
130.1471621004
 51
130.3865844811
  0
ARC
  5
5DE
100
AcDbEntity
  8
0
100
AcDbCircle
 62
9
  6
CONTINUOUS
 10
8379.7542101175
 20
8220.8024589912
 40
11269.1651655061
100
AcDbArc
 50
229.6487373727
 51
229.8601753787
  0
ARC
  5
5DF
100
AcDbEntity
  8
0
100
AcDbCircle
 62
9
  6
CONTINUOUS
 10
7531.7021534212
 20
7213.152574605
 40
9955.1319813798
100
AcDbArc
 50
229.6134155189
 51
229.8528378996
  0
SPLINE
  5
5E0
100
AcDbEntity
  8
0
100
AcDbSpline
 62
9
  6
CONTINUOUS
 70
0
 71
3
 72
13
 73
9
 74
0
 42
0.0000001
 43
0.0000001
 44
0.0000000001
 40
0.0
 40
0.0
 40
0.0
 40
0.0
 40
0.2962096918
 40
0.564508425
 40
0.685058441
 40
0.7963874635
 40
0.9002904343
 40
1.0
 40
1.0
 40
1.0
 40
1.0
 10
1083.2866394759
 20
193.0699857944
 30
0.0
 10
1083.2568640553
 20
192.7233058872
 30
0.0
 10
1083.1253982662
 20
192.0663686782
 30
0.0
 10
1082.764659044
 20
191.3320522072
 30
0.0
 10
1082.3753757645
 20
190.8876167564
 30
0.0
 10
1082.058415453
 20
190.6474283279
 30
0.0
 10
1081.7157896138
 20
190.4980685591
 30
0.0
 10
1081.4754070668
 20
190.463924978
 30
0.0
 10
1081.3582786779
 20
190.4639248304
 30
0.0
  0
SPLINE
  5
5E1
100
AcDbEntity
  8
0
100
AcDbSpline
 62
9
  6
CONTINUOUS
 70
0
 71
3
 72
11
 73
7
 74
0
 42
0.0000001
 43
0.0000001
 44
0.0000000001
 40
0.0
 40
0.0
 40
0.0
 40
0.0
 40
0.2499922568
 40
0.4999916916
 40
0.7499953028
 40
1.0
 40
1.0
 40
1.0
 40
1.0
 10
1113.3097835887
 20
257.7910739164
 30
0.0
 10
1113.5695173372
 20
258.0378734739
 30
0.0
 10
1114.0374748646
 20
258.5889882758
 30
0.0
 10
1114.5489859847
 20
259.5431197504
 30
0.0
 10
1114.8504090741
 20
260.5828513529
 30
0.0
 10
1114.9027870645
 20
261.3037636348
 30
0.0
 10
1114.8911854719
 20
261.6618834771
 30
0.0
  0
SPLINE
  5
5E2
100
AcDbEntity
  8
0
100
AcDbSpline
 62
9
  6
CONTINUOUS
 70
0
 71
3
 72
10
 73
6
 74
0
 42
0.0000001
 43
0.0000001
 44
0.0000000001
 40
0.0
 40
0.0
 40
0.0
 40
0.0
 40
0.2499999497
 40
0.5000000093
 40
1.0
 40
1.0
 40
1.0
 40
1.0
 10
1081.6760797419
 20
230.5640531046
 30
0.0
 10
1084.2789177465
 20
232.8370310397
 30
0.0
 10
1089.4974201452
 20
237.3683072261
 30
0.0
 10
1099.9684229353
 20
246.3914845598
 30
0.0
 10
1107.8479743105
 20
253.1282698478
 30
0.0
 10
1113.1071087204
 20
257.6122747757
 30
0.0
  0
SPLINE
  5
5E3
100
AcDbEntity
  8
0
100
AcDbSpline
 62
9
  6
CONTINUOUS
 70
0
 71
3
 72
11
 73
7
 74
0
 42
0.0000001
 43
0.0000001
 44
0.0000000001
 40
0.0
 40
0.0
 40
0.0
 40
0.0
 40
0.249986353
 40
0.4999790986
 40
0.7499828792
 40
1.0
 40
1.0
 40
1.0
 40
1.0
 10
1078.1443406295
 20
229.0672503917
 30
0.0
 10
1078.4499463163
 20
229.0672502819
 30
0.0
 10
1079.0627410601
 20
229.125766312
 30
0.0
 10
1079.9476014638
 20
229.3852049988
 30
0.0
 10
1080.7686504912
 20
229.8046735347
 30
0.0
 10
1081.2560789663
 20
230.1800923934
 30
0.0
 10
1081.4804654837
 20
230.3876219523
 30
0.0
  0
SPLINE
  5
5E4
100
AcDbEntity
  8
0
100
AcDbSpline
 62
9
  6
CONTINUOUS
 70
0
 71
3
 72
15
 73
11
 74
0
 42
0.0000001
 43
0.0000001
 44
0.0000000001
 40
0.0
 40
0.0
 40
0.0
 40
0.0
 40
0.125006382
 40
0.2500346131
 40
0.3750465783
 40
0.5000554918
 40
0.6250754523
 40
0.7500595886
 40
0.875032936
 40
1.0
 40
1.0
 40
1.0
 40
1.0
 10
1052.837703936
 20
230.6489902025
 30
0.0
 10
1052.8045321428
 20
230.562604629
 30
0.0
 10
1052.7583253726
 20
230.3812572909
 30
0.0
 10
1052.7556234758
 20
230.1010614404
 30
0.0
 10
1052.8188374789
 20
229.8281822868
 30
0.0
 10
1052.9418663072
 20
229.5764696982
 30
0.0
 10
1053.1219359655
 20
229.3616025437
 30
0.0
 10
1053.3480818578
 20
229.1958641692
 30
0.0
 10
1053.6081890008
 20
229.0911795003
 30
0.0
 10
1053.7940580849
 20
229.0672508194
 30
0.0
 10
1053.8865645686
 20
229.0672503917
 30
0.0
  0
SPLINE
  5
5E5
100
AcDbEntity
  8
0
100
AcDbSpline
 62
9
  6
CONTINUOUS
 70
0
 71
3
 72
9
 73
5
 74
0
 42
0.0000001
 43
0.0000001
 44
0.0000000001
 40
0.0
 40
0.0
 40
0.0
 40
0.0
 40
0.4996362299
 40
1.0
 40
1.0
 40
1.0
 40
1.0
 10
1052.8865645686
 20
230.875927649
 30
0.0
 10
1052.8865650818
 20
230.8370955067
 30
0.0
 10
1052.8765279484
 20
230.7591802025
 30
0.0
 10
1052.8516292048
 20
230.6853002134
 30
0.0
 10
1052.837703936
 20
230.6489902025
 30
0.0
  0
LINE
  5
5E6
100
AcDbEntity
  8
0
100
AcDbLine
 62
9
  6
CONTINUOUS
 10
1083.286641507
 20
228.0796259268
 11
1083.5892394424
 21
228.34269509
  0
SPLINE
  5
5E7
100
AcDbEntity
  8
0
100
AcDbSpline
 62
9
  6
CONTINUOUS
 70
0
 71
3
 72
11
 73
7
 74
0
 42
0.0000001
 43
0.0000001
 44
0.0000000001
 40
0.0
 40
0.0
 40
0.0
 40
0.0
 40
0.2518297471
 40
0.5014044018
 40
0.7501893398
 40
1.0
 40
1.0
 40
1.0
 40
1.0
 10
1116.8865645686
 20
93.7703075904
 30
0.0
 10
1117.1526793533
 20
93.904816496
 30
0.0
 10
1117.640972311
 20
94.2601747188
 30
0.0
 10
1118.2055144874
 20
94.9548933718
 30
0.0
 10
1118.6189251564
 20
95.7435780401
 30
0.0
 10
1118.8079502343
 20
96.3052015008
 30
0.0
 10
1118.8843858583
 20
96.5909414842
 30
0.0
  0
SPLINE
  5
5E8
100
AcDbEntity
  8
0
100
AcDbSpline
 62
9
  6
CONTINUOUS
 70
0
 71
3
 72
11
 73
7
 74
0
 42
0.0000001
 43
0.0000001
 44
0.0000000001
 40
0.0
 40
0.0
 40
0.0
 40
0.0
 40
0.2498447431
 40
0.4986303534
 40
0.7481823148
 40
1.0
 40
1.0
 40
1.0
 40
1.0
 10
1118.8843860054
 20
274.3369081766
 30
0.0
 10
1118.8085457409
 20
274.6229609202
 30
0.0
 10
1118.6205137689
 20
275.1852148445
 30
0.0
 10
1118.207698236
 20
275.974665561
 30
0.0
 10
1117.642509456
 20
276.669391865
 30
0.0
 10
1117.1531386371
 20
277.0237335167
 30
0.0
 10
1116.8865645686
 20
277.1575423101
 30
0.0
  0
SPLINE
  5
5E9
100
AcDbEntity
  8
0
100
AcDbSpline
 62
9
  6
CONTINUOUS
 70
0
 71
3
 72
26
 73
22
 74
0
 42
0.0000001
 43
0.0000001
 44
0.0000000001
 40
0.0
 40
0.0
 40
0.0
 40
0.0
 40
0.000262404
 40
0.0010504725
 40
0.0023654235
 40
0.0042082119
 40
0.0094803035
 40
0.0168706783
 40
0.0263800533
 40
0.0380059255
 40
0.0517425554
 40
0.0675809665
 40
0.1055109984
 40
0.1516598511
 40
0.20584038
 40
0.2678153495
 40
0.3372984684
 40
0.4139554088
 40
0.5872180932
 40
0.7840043199
 40
1.0
 40
1.0
 40
1.0
 40
1.0
 10
1119.3865550243
 20
271.214401536
 30
0.0
 10
1119.3863791126
 20
271.2144367258
 30
0.0
 10
1119.3865780735
 20
271.2154832152
 30
0.0
 10
1119.3859313101
 20
271.2167379164
 30
0.0
 10
1119.3855963216
 20
271.2195722908
 30
0.0
 10
1119.3843811142
 20
271.2251148657
 30
0.0
 10
1119.3826107435
 20
271.2349418555
 30
0.0
 10
1119.3798025988
 20
271.2498041527
 30
0.0
 10
1119.3763454347
 20
271.2690105676
 30
0.0
 10
1119.3721963361
 20
271.2924827813
 30
0.0
 10
1119.3674204186
 20
271.320244383
 30
0.0
 10
1119.3597781897
 20
271.365757641
 30
0.0
 10
1119.3488915476
 20
271.4331959305
 30
0.0
 10
1119.3345229497
 20
271.5266214972
 30
0.0
 10
1119.3184455013
 20
271.636413736
 30
0.0
 10
1119.3009357902
 20
271.762116077
 30
0.0
 10
1119.2822782452
 20
271.9031700584
 30
0.0
 10
1119.2551366325
 20
272.1198433137
 30
0.0
 10
1119.2204537826
 20
272.4232771765
 30
0.0
 10
1119.180770753
 20
272.8219806981
 30
0.0
 10
1119.1573662734
 20
273.1032310999
 30
0.0
 10
1119.1464316102
 20
273.2504948262
 30
0.0
  0
SPLINE
  5
5EA
100
AcDbEntity
  8
0
100
AcDbSpline
 62
9
  6
CONTINUOUS
 70
0
 71
3
 72
9
 73
5
 74
0
 42
0.0000001
 43
0.0000001
 44
0.0000000001
 40
0.0
 40
0.0
 40
0.0
 40
0.0
 40
0.2457070417
 40
1.0
 40
1.0
 40
1.0
 40
1.0
 10
1119.1464316102
 20
273.2504948262
 30
0.0
 10
1119.1396367086
 20
273.3420081471
 30
0.0
 10
1119.0984274555
 20
273.7131672936
 30
0.0
 10
1118.9977613982
 20
274.0790207272
 30
0.0
 10
1118.8843859961
 20
274.3369081989
 30
0.0
  0
SPLINE
  5
5EB
100
AcDbEntity
  8
0
100
AcDbSpline
 62
9
  6
CONTINUOUS
 70
0
 71
3
 72
26
 73
22
 74
0
 42
0.0000001
 43
0.0000001
 44
0.0000000001
 40
0.0
 40
0.0
 40
0.0
 40
0.0
 40
0.2158186368
 40
0.4124940168
 40
0.5857231352
 40
0.6623897961
 40
0.7318971924
 40
0.7939078478
 40
0.8481319189
 40
0.8943283627
 40
0.9323060897
 40
0.9481671377
 40
0.9619249371
 40
0.9735700186
 40
0.9830961566
 40
0.9905003691
 40
0.9957829041
 40
0.9976294971
 40
0.998947234
 40
0.9997370134
 40
1.0
 40
1.0
 40
1.0
 40
1.0
 10
1119.1464315017
 20
97.6773549023
 30
0.0
 10
1119.157816509
 20
97.8244555958
 30
0.0
 10
1119.1818879846
 20
98.1054352397
 30
0.0
 10
1119.2220219873
 20
98.5038502558
 30
0.0
 10
1119.2567249418
 20
98.8071719522
 30
0.0
 10
1119.2837244637
 20
99.0238519123
 30
0.0
 10
1119.3022303315
 20
99.1649664946
 30
0.0
 10
1119.3195530887
 20
99.2907595473
 30
0.0
 10
1119.3354237386
 20
99.4006636716
 30
0.0
 10
1119.3495802559
 20
99.4942126668
 30
0.0
 10
1119.3602876255
 20
99.5617576755
 30
0.0
 10
1119.3677948891
 20
99.6073544236
 30
0.0
 10
1119.3724833355
 20
99.6351731184
 30
0.0
 10
1119.3765538122
 20
99.6586976341
 30
0.0
 10
1119.3799428089
 20
99.6779494116
 30
0.0
 10
1119.3826950397
 20
99.6928507882
 30
0.0
 10
1119.3844265868
 20
99.702701891
 30
0.0
 10
1119.3856185617
 20
99.7082634598
 30
0.0
 10
1119.3859418869
 20
99.7111008976
 30
0.0
 10
1119.3865824682
 20
99.7123688159
 30
0.0
 10
1119.3863795856
 20
99.7134088235
 30
0.0
 10
1119.3865550234
 20
99.7134481256
 30
0.0
  0
SPLINE
  5
5EC
100
AcDbEntity
  8
0
100
AcDbSpline
 62
9
  6
CONTINUOUS
 70
0
 71
3
 72
9
 73
5
 74
0
 42
0.0000001
 43
0.0000001
 44
0.0000000001
 40
0.0
 40
0.0
 40
0.0
 40
0.0
 40
0.2545525327
 40
1.0
 40
1.0
 40
1.0
 40
1.0
 10
1118.8843858517
 20
96.5909414685
 30
0.0
 10
1118.9229493496
 20
96.67787441
 30
0.0
 10
1119.056702394
 20
97.0272426629
 30
0.0
 10
1119.124941211
 20
97.3996812855
 30
0.0
 10
1119.1464315017
 20
97.6773549023
 30
0.0
  0
LINE
  5
5ED
100
AcDbEntity
  8
0
100
AcDbLine
 62
9
  6
CONTINUOUS
 10
1083.5892394424
 20
142.5851545708
 11
1083.286641507
 21
142.8482237458
  0
SPLINE
  5
5EE
100
AcDbEntity
  8
0
100
AcDbSpline
 62
9
  6
CONTINUOUS
 70
0
 71
3
 72
13
 73
9
 74
0
 42
0.0000001
 43
0.0000001
 44
0.0000000001
 40
0.0
 40
0.0
 40
0.0
 40
0.0
 40
0.1325627091
 40
0.2266627795
 40
0.3419355428
 40
0.4782948565
 40
0.634644537
 40
1.0
 40
1.0
 40
1.0
 40
1.0
 10
1117.8865645686
 20
98.4639248304
 30
0.0
 10
1117.8865645686
 20
98.3960975622
 30
0.0
 10
1117.9540868879
 20
98.2863050358
 30
0.0
 10
1118.0824925465
 20
98.1708316732
 30
0.0
 10
1118.2291176683
 20
98.0696874542
 30
0.0
 10
1118.4117109346
 20
97.9686192196
 30
0.0
 10
1118.717292759
 20
97.8264982062
 30
0.0
 10
1118.9686474038
 20
97.7351371338
 30
0.0
 10
1119.1464315018
 20
97.6773549023
 30
0.0
  0
SPLINE
  5
5EF
100
AcDbEntity
  8
0
100
AcDbSpline
 62
9
  6
CONTINUOUS
 70
0
 71
3
 72
9
 73
5
 74
0
 42
0.0000001
 43
0.0000001
 44
0.0000000001
 40
0.0
 40
0.0
 40
0.0
 40
0.0
 40
0.5003743843
 40
1.0
 40
1.0
 40
1.0
 40
1.0
 10
1052.837703936
 20
140.2788594584
 30
0.0
 10
1052.8516384736
 20
140.2425519796
 30
0.0
 10
1052.8765320821
 20
140.1686686665
 30
0.0
 10
1052.8865645537
 20
140.0907534599
 30
0.0
 10
1052.8865645686
 20
140.0519220118
 30
0.0
  0
SPLINE
  5
5F0
100
AcDbEntity
  8
0
100
AcDbSpline
 62
9
  6
CONTINUOUS
 70
0
 71
3
 72
15
 73
11
 74
0
 42
0.0000001
 43
0.0000001
 44
0.0000000001
 40
0.0
 40
0.0
 40
0.0
 40
0.0
 40
0.1249672695
 40
0.2499407784
 40
0.374924957
 40
0.4999450458
 40
0.6249539309
 40
0.749965811
 40
0.874993857
 40
1.0
 40
1.0
 40
1.0
 40
1.0
 10
1053.8865645686
 20
141.8605992692
 30
0.0
 10
1053.7940579188
 20
141.8605988746
 30
0.0
 10
1053.6081885538
 20
141.8366700205
 30
0.0
 10
1053.3480810472
 20
141.7319852211
 30
0.0
 10
1053.1219352634
 20
141.5662463409
 30
0.0
 10
1052.9418645057
 20
141.3513799702
 30
0.0
 10
1052.8188379395
 20
141.0996652274
 30
0.0
 10
1052.7556248248
 20
140.8267893587
 30
0.0
 10
1052.7583108865
 20
140.5465858485
 30
0.0
 10
1052.8045667008
 20
140.3652581196
 30
0.0
 10
1052.837703936
 20
140.2788594584
 30
0.0
  0
SPLINE
  5
5F1
100
AcDbEntity
  8
0
100
AcDbSpline
 62
9
  6
CONTINUOUS
 70
0
 71
3
 72
11
 73
7
 74
0
 42
0.0000001
 43
0.0000001
 44
0.0000000001
 40
0.0
 40
0.0
 40
0.0
 40
0.0
 40
0.2500171156
 40
0.5000209093
 40
0.7500136561
 40
1.0
 40
1.0
 40
1.0
 40
1.0
 10
1081.4804624882
 20
140.5402300532
 30
0.0
 10
1081.2560779839
 20
140.7477613195
 30
0.0
 10
1080.7686482084
 20
141.1231782558
 30
0.0
 10
1079.9475994467
 20
141.5426444503
 30
0.0
 10
1079.0627401515
 20
141.8020836047
 30
0.0
 10
1078.4499459932
 20
141.8605993748
 30
0.0
 10
1078.1443406295
 20
141.8605992692
 30
0.0
  0
SPLINE
  5
5F2
100
AcDbEntity
  8
0
100
AcDbSpline
 62
9
  6
CONTINUOUS
 70
0
 71
3
 72
10
 73
6
 74
0
 42
0.0000001
 43
0.0000001
 44
0.0000000001
 40
0.0
 40
0.0
 40
0.0
 40
0.0
 40
0.4999999908
 40
0.7500000501
 40
1.0
 40
1.0
 40
1.0
 40
1.0
 10
1113.1071087462
 20
113.3155748633
 30
0.0
 10
1107.8479745455
 20
117.7995800475
 30
0.0
 10
1099.9684229067
 20
124.5363650358
 30
0.0
 10
1089.497420158
 20
133.5595424355
 30
0.0
 10
1084.2789177362
 20
138.0908186016
 30
0.0
 10
1081.6760797419
 20
140.3637965562
 30
0.0
  0
SPLINE
  5
5F3
100
AcDbEntity
  8
0
100
AcDbSpline
 62
9
  6
CONTINUOUS
 70
0
 71
3
 72
13
 73
9
 74
0
 42
0.0000001
 43
0.0000001
 44
0.0000000001
 40
0.0
 40
0.0
 40
0.0
 40
0.0
 40
0.2962097236
 40
0.5645084469
 40
0.6850584478
 40
0.7963874562
 40
0.9002904222
 40
1.0
 40
1.0
 40
1.0
 40
1.0
 10
1083.2866415019
 20
177.8578642803
 30
0.0
 10
1083.256866038
 20
178.2045443705
 30
0.0
 10
1083.1254000721
 20
178.8614818757
 30
0.0
 10
1082.7646603636
 20
179.5957985376
 30
0.0
 10
1082.3753766258
 20
180.0402338704
 30
0.0
 10
1082.0584159853
 20
180.2804220895
 30
0.0
 10
1081.7157898343
 20
180.4297815367
 30
0.0
 10
1081.475407131
 20
180.463924831
 30
0.0
 10
1081.3582786779
 20
180.4639248315
 30
0.0
  0
SPLINE
  5
5F4
100
AcDbEntity
  8
0
100
AcDbSpline
 62
9
  6
CONTINUOUS
 70
0
 71
3
 72
13
 73
9
 74
0
 42
0.0000001
 43
0.0000001
 44
0.0000000001
 40
0.0
 40
0.0
 40
0.0
 40
0.0
 40
0.2966487467
 40
0.5661206587
 40
0.6869145348
 40
0.7980339789
 40
0.901263824
 40
1.0
 40
1.0
 40
1.0
 40
1.0
 10
1115.0288632904
 20
177.7147280472
 30
0.0
 10
1115.0093072944
 20
178.0761001527
 30
0.0
 10
1114.8921168467
 20
178.7641575522
 30
0.0
 10
1114.5372130632
 20
179.5389188594
 30
0.0
 10
1114.1434523902
 20
180.0115286665
 30
0.0
 10
1113.8202077548
 20
180.2675683623
 30
0.0
 10
1113.4686667649
 20
180.4273012541
 30
0.0
 10
1113.2209572215
 20
180.4639246668
 30
0.0
 10
1113.100502617
 20
180.4639248304
 30
0.0
  0
SPLINE
  5
5F5
100
AcDbEntity
  8
0
100
AcDbSpline
 62
9
  6
CONTINUOUS
 70
0
 71
3
 72
13
 73
9
 74
0
 42
0.0000001
 43
0.0000001
 44
0.0000000001
 40
0.0
 40
0.0
 40
0.0
 40
0.0
 40
0.2907347026
 40
0.5612889991
 40
0.6844884193
 40
0.7982183271
 40
0.9028324914
 40
1.0
 40
1.0
 40
1.0
 40
1.0
 10
1119.3865645682
 20
177.4639248304
 30
0.0
 10
1119.3865645682
 20
177.8046895199
 30
0.0
 10
1119.3173686043
 20
178.4645177688
 30
0.0
 10
1119.0549186698
 20
179.2325809247
 30
0.0
 10
1118.7451778903
 20
179.7429321559
 30
0.0
 10
1118.4824294299
 20
180.0478837337
 30
0.0
 10
1118.1891841225
 20
180.2774496067
 30
0.0
 10
1117.9717120986
 20
180.3775948842
 30
0.0
 10
1117.8627800112
 20
180.410826278
 30
0.0
  0
SPLINE
  5
5F6
100
AcDbEntity
  8
0
100
AcDbSpline
 62
9
  6
CONTINUOUS
 70
0
 71
3
 72
9
 73
5
 74
0
 42
0.0000001
 43
0.0000001
 44
0.0000000001
 40
0.0
 40
0.0
 40
0.0
 40
0.0
 40
0.2529322865
 40
1.0
 40
1.0
 40
1.0
 40
1.0
 10
1117.8371548715
 20
180.418348098
 30
0.0
 10
1117.8104299076
 20
180.4258852361
 30
0.0
 10
1117.7038164248
 20
180.4521781389
 30
0.0
 10
1117.5935793139
 20
180.4639248304
 30
0.0
 10
1117.5115645686
 20
180.4639248304
 30
0.0
  0
SPLINE
  5
5F7
100
AcDbEntity
  8
0
100
AcDbSpline
 62
9
  6
CONTINUOUS
 70
0
 71
3
 72
11
 73
7
 74
0
 42
0.0000001
 43
0.0000001
 44
0.0000000001
 40
0.0
 40
0.0
 40
0.0
 40
0.0
 40
0.2500047086
 40
0.5000083309
 40
0.7500077669
 40
1.0
 40
1.0
 40
1.0
 40
1.0
 10
1114.8911854719
 20
109.2659661837
 30
0.0
 10
1114.9027857402
 20
109.6240861102
 30
0.0
 10
1114.8504109281
 20
110.3449984623
 30
0.0
 10
1114.5489867753
 20
111.3847303588
 30
0.0
 10
1114.037474338
 20
112.3388609665
 30
0.0
 10
1113.5695173063
 20
112.8899761673
 30
0.0
 10
1113.3097835887
 20
113.1367757444
 30
0.0
  0
SPLINE
  5
5F8
100
AcDbEntity
  8
0
100
AcDbSpline
 62
9
  6
CONTINUOUS
 70
0
 71
3
 72
13
 73
9
 74
0
 42
0.0000001
 43
0.0000001
 44
0.0000000001
 40
0.0
 40
0.0
 40
0.0
 40
0.0
 40
0.2907347026
 40
0.5612889992
 40
0.6844884193
 40
0.7982183271
 40
0.9028324914
 40
1.0
 40
1.0
 40
1.0
 40
1.0
 10
1119.3865645687
 20
193.4639248304
 30
0.0
 10
1119.3865645687
 20
193.1231601408
 30
0.0
 10
1119.317368604
 20
192.4633318919
 30
0.0
 10
1119.0549186698
 20
191.6952687358
 30
0.0
 10
1118.7451778902
 20
191.1849175047
 30
0.0
 10
1118.4824294297
 20
190.8799659269
 30
0.0
 10
1118.1891841223
 20
190.650400054
 30
0.0
 10
1117.9717120983
 20
190.5502547765
 30
0.0
 10
1117.8627800109
 20
190.5170233827
 30
0.0
  0
SPLINE
  5
5F9
100
AcDbEntity
  8
0
100
AcDbSpline
 62
9
  6
CONTINUOUS
 70
0
 71
3
 72
9
 73
5
 74
0
 42
0.0000001
 43
0.0000001
 44
0.0000000001
 40
0.0
 40
0.0
 40
0.0
 40
0.0
 40
0.2529322867
 40
1.0
 40
1.0
 40
1.0
 40
1.0
 10
1117.8371548795
 20
190.5095015651
 30
0.0
 10
1117.8104299149
 20
190.5019644266
 30
0.0
 10
1117.7038164297
 20
190.4756715225
 30
0.0
 10
1117.5935793161
 20
190.4639248304
 30
0.0
 10
1117.5115645687
 20
190.4639248304
 30
0.0
  0
SPLINE
  5
5FA
100
AcDbEntity
  8
0
100
AcDbSpline
 62
9
  6
CONTINUOUS
 70
0
 71
3
 72
13
 73
9
 74
0
 42
0.0000001
 43
0.0000001
 44
0.0000000001
 40
0.0
 40
0.0
 40
0.0
 40
0.0
 40
0.2966487855
 40
0.5661206922
 40
0.6869145523
 40
0.7980339794
 40
0.9012638156
 40
1.0
 40
1.0
 40
1.0
 40
1.0
 10
1115.028865445
 20
193.2131213334
 30
0.0
 10
1115.0093094136
 20
192.8517490115
 30
0.0
 10
1114.8921187905
 20
192.1636912525
 30
0.0
 10
1114.5372144944
 20
191.3889296809
 30
0.0
 10
1114.1434533233
 20
190.9163199621
 30
0.0
 10
1113.8202083302
 20
190.6602804758
 30
0.0
 10
1113.4686670005
 20
190.5005479264
 30
0.0
 10
1113.2209572884
 20
190.4639248303
 30
0.0
 10
1113.100502617
 20
190.4639248302
 30
0.0
  0
SPLINE
  5
5FB
100
AcDbEntity
  8
0
100
AcDbSpline
 62
9
  6
CONTINUOUS
 70
0
 71
3
 72
17
 73
13
 74
0
 42
0.0000001
 43
0.0000001
 44
0.0000000001
 40
0.0
 40
0.0
 40
0.0
 40
0.0
 40
0.069366526
 40
0.1375361153
 40
0.2040343917
 40
0.2689775419
 40
0.3951913977
 40
0.5184692822
 40
0.6400027041
 40
0.7604906685
 40
0.88038269
 40
1.0
 40
1.0
 40
1.0
 40
1.0
 10
1052.8865645686
 20
277.4639248304
 30
0.0
 10
1052.7391579582
 20
277.4639323607
 30
0.0
 10
1052.4457083601
 20
277.4272741716
 30
0.0
 10
1052.0364840633
 20
277.2746647577
 30
0.0
 10
1051.6735366735
 20
277.0507896645
 30
0.0
 10
1051.2576246813
 20
276.6920449101
 30
0.0
 10
1050.83976628
 20
276.1631814272
 30
0.0
 10
1050.4674880145
 20
275.4650459376
 30
0.0
 10
1050.1984946093
 20
274.734701336
 30
0.0
 10
1050.0159231097
 20
273.9861437837
 30
0.0
 10
1049.9097939447
 20
273.2273956167
 30
0.0
 10
1049.8865765026
 20
272.7181163434
 30
0.0
 10
1049.8865645686
 20
272.4639248304
 30
0.0
  0
SPLINE
  5
5FC
100
AcDbEntity
  8
0
100
AcDbSpline
 62
9
  6
CONTINUOUS
 70
0
 71
3
 72
15
 73
11
 74
0
 42
0.0000001
 43
0.0000001
 44
0.0000000001
 40
0.0
 40
0.0
 40
0.0
 40
0.0
 40
0.0314452609
 40
0.0566793922
 40
0.0891336618
 40
0.1761052156
 40
0.2919615575
 40
0.43499023
 40
0.6027193643
 40
1.0
 40
1.0
 40
1.0
 40
1.0
 10
1117.7159157399
 20
97.4665422812
 30
0.0
 10
1117.7107633028
 20
97.45192597
 30
0.0
 10
1117.7229453307
 20
97.4218819071
 30
0.0
 10
1117.7475837443
 20
97.3870346829
 30
0.0
 10
1117.7952975801
 20
97.3331171407
 30
0.0
 10
1117.8815889268
 20
97.255874541
 30
0.0
 10
1118.0159778605
 20
97.1506848155
 30
0.0
 10
1118.1873770434
 20
97.0288919949
 30
0.0
 10
1118.4781126095
 20
96.835800653
 30
0.0
 10
1118.7158250347
 20
96.6905667168
 30
0.0
 10
1118.8843858583
 20
96.5909414842
 30
0.0
  0
SPLINE
  5
5FD
100
AcDbEntity
  8
0
100
AcDbSpline
 62
9
  6
CONTINUOUS
 70
0
 71
3
 72
15
 73
11
 74
0
 42
0.0000001
 43
0.0000001
 44
0.0000000001
 40
0.0
 40
0.0
 40
0.0
 40
0.0
 40
0.1264284906
 40
0.2526386529
 40
0.3784454449
 40
0.503725861
 40
0.6284362689
 40
0.7526238941
 40
0.876414318
 40
1.0
 40
1.0
 40
1.0
 40
1.0
 10
1053.8865645686
 20
144.7355438117
 30
0.0
 10
1053.6249196641
 20
144.7355439341
 30
0.0
 10
1053.100684379
 20
144.6850112389
 30
0.0
 10
1052.3455055644
 20
144.4604843283
 30
0.0
 10
1051.6493778129
 20
144.0959568007
 30
0.0
 10
1051.0394301613
 20
143.6055013909
 30
0.0
 10
1050.5389267977
 20
143.008061878
 30
0.0
 10
1050.1670848859
 20
142.3264690191
 30
0.0
 10
1049.9381123463
 20
141.5872775431
 30
0.0
 10
1049.8865654974
 20
141.0738580441
 30
0.0
 10
1049.8865645686
 20
140.8180963579
 30
0.0
  0
SPLINE
  5
5FE
100
AcDbEntity
  8
0
100
AcDbSpline
 62
9
  6
CONTINUOUS
 70
0
 71
3
 72
17
 73
13
 74
0
 42
0.0000001
 43
0.0000001
 44
0.0000000001
 40
0.0
 40
0.0
 40
0.0
 40
0.0
 40
0.0310016494
 40
0.0572432913
 40
0.0916106178
 40
0.1341244559
 40
0.184564568
 40
0.2425531017
 40
0.3076036255
 40
0.4565145226
 40
0.6258725101
 40
1.0
 40
1.0
 40
1.0
 40
1.0
 10
1049.8865645686
 20
177.4639248304
 30
0.0
 10
1049.8865738354
 20
177.5062372373
 30
0.0
 10
1049.9586837558
 20
177.5686492109
 30
0.0
 10
1050.0668490372
 20
177.6203117393
 30
0.0
 10
1050.2012558862
 20
177.6685591094
 30
0.0
 10
1050.3684864144
 20
177.7136919522
 30
0.0
 10
1050.570088582
 20
177.7574872144
 30
0.0
 10
1050.8032406623
 20
177.7985793936
 30
0.0
 10
1051.1706332569
 20
177.8518987785
 30
0.0
 10
1051.69104956
 20
177.9071674886
 30
0.0
 10
1052.63387161
 20
177.9731754552
 30
0.0
 10
1053.3759389965
 20
177.9914025834
 30
0.0
 10
1053.8865645686
 20
177.9913973579
 30
0.0
  0
SPLINE
  5
5FF
100
AcDbEntity
  8
0
100
AcDbSpline
 62
9
  6
CONTINUOUS
 70
0
 71
3
 72
15
 73
11
 74
0
 42
0.0000001
 43
0.0000001
 44
0.0000000001
 40
0.0
 40
0.0
 40
0.0
 40
0.0
 40
0.1235858319
 40
0.2473764065
 40
0.3715641129
 40
0.4962744733
 40
0.62155484
 40
0.7473615942
 40
0.8735716456
 40
1.0
 40
1.0
 40
1.0
 40
1.0
 10
1049.8865645686
 20
230.109753303
 30
0.0
 10
1049.8865636664
 20
229.8539913079
 30
0.0
 10
1049.9381132756
 20
229.3405711737
 30
0.0
 10
1050.1670853368
 20
228.6013790499
 30
0.0
 10
1050.5389279806
 20
227.9197859843
 30
0.0
 10
1051.0394317393
 20
227.3223469159
 30
0.0
 10
1051.6493793641
 20
226.831891929
 30
0.0
 10
1052.3455068883
 20
226.4673648691
 30
0.0
 10
1053.1006851807
 20
226.2428383278
 30
0.0
 10
1053.6249199473
 20
226.1923057322
 30
0.0
 10
1053.8865645686
 20
226.1923058492
 30
0.0
  0
SPLINE
  5
600
100
AcDbEntity
  8
0
100
AcDbSpline
 62
9
  6
CONTINUOUS
 70
0
 71
3
 72
9
 73
5
 74
0
 42
0.0000001
 43
0.0000001
 44
0.0000000001
 40
0.0
 40
0.0
 40
0.0
 40
0.0
 40
0.4999371973
 40
1.0
 40
1.0
 40
1.0
 40
1.0
 10
1116.8865645686
 20
277.1575423101
 30
0.0
 10
1116.5652601789
 20
277.2632620192
 30
0.0
 10
1115.9025631807
 20
277.4173305719
 30
0.0
 10
1115.2248997069
 20
277.4639492006
 30
0.0
 10
1114.8865645686
 20
277.4639493307
 30
0.0
  0
LINE
  5
601
100
AcDbEntity
  8
0
100
AcDbLine
 62
9
  6
CONTINUOUS
 10
1114.8865645686
 20
277.4639493307
 11
1052.8865645686
 21
277.4639248304
  0
SPLINE
  5
602
100
AcDbEntity
  8
0
100
AcDbSpline
 62
9
  6
CONTINUOUS
 70
0
 71
3
 72
17
 73
13
 74
0
 42
0.0000001
 43
0.0000001
 44
0.0000000001
 40
0.0
 40
0.0
 40
0.0
 40
0.0
 40
0.3741274899
 40
0.5434854774
 40
0.6923963745
 40
0.7574468983
 40
0.815435432
 40
0.8658755442
 40
0.9083893822
 40
0.9427567087
 40
0.9689983507
 40
1.0
 40
1.0
 40
1.0
 40
1.0
 10
1053.8865645686
 20
192.9364523029
 30
0.0
 10
1053.3759389965
 20
192.9364470773
 30
0.0
 10
1052.63387161
 20
192.9546742056
 30
0.0
 10
1051.69104956
 20
193.0206821722
 30
0.0
 10
1051.1706332569
 20
193.0759508824
 30
0.0
 10
1050.8032406622
 20
193.1292702671
 30
0.0
 10
1050.570088582
 20
193.1703624464
 30
0.0
 10
1050.3684864145
 20
193.214157709
 30
0.0
 10
1050.2012558862
 20
193.2592905512
 30
0.0
 10
1050.0668490368
 20
193.3075379209
 30
0.0
 10
1049.9586837562
 20
193.3592004508
 30
0.0
 10
1049.8865738358
 20
193.4216124237
 30
0.0
 10
1049.8865645686
 20
193.4639248304
 30
0.0
  0
SPLINE
  5
603
100
AcDbEntity
  8
0
100
AcDbSpline
 62
9
  6
CONTINUOUS
 70
0
 71
3
 72
19
 73
15
 74
0
 42
0.0000001
 43
0.0000001
 44
0.0000000001
 40
0.0
 40
0.0
 40
0.0
 40
0.0
 40
0.0090305996
 40
0.0159561434
 40
0.0249171024
 40
0.0493289352
 40
0.0825321479
 40
0.1243939994
 40
0.1745789897
 40
0.2980882706
 40
0.4485028555
 40
0.6201073757
 40
0.8063261773
 40
1.0
 40
1.0
 40
1.0
 40
1.0
 10
1116.062582136
 20
95.7040366658
 30
0.0
 10
1116.0684509908
 20
95.706537447
 30
0.0
 10
1116.0811325242
 20
95.7025297999
 30
0.0
 10
1116.0945111846
 20
95.6916876571
 30
0.0
 10
1116.1145024514
 20
95.6710740251
 30
0.0
 10
1116.1418284799
 20
95.6327377038
 30
0.0
 10
1116.1782085273
 20
95.5725517762
 30
0.0
 10
1116.2198607545
 20
95.4944614216
 30
0.0
 10
1116.2868874313
 20
95.3577089398
 30
0.0
 10
1116.3794412632
 20
95.148209556
 30
0.0
 10
1116.4979504258
 20
94.856615565
 30
0.0
 10
1116.625488714
 20
94.5209685969
 30
0.0
 10
1116.7570941492
 20
94.1542597281
 30
0.0
 10
1116.8435357996
 20
93.9001813491
 30
0.0
 10
1116.8865645686
 20
93.7703075904
 30
0.0
  0
SPLINE
  5
604
100
AcDbEntity
  8
0
100
AcDbSpline
 62
9
  6
CONTINUOUS
 70
0
 71
3
 72
19
 73
15
 74
0
 42
0.0000001
 43
0.0000001
 44
0.0000000001
 40
0.0
 40
0.0
 40
0.0
 40
0.0
 40
0.0091889145
 40
0.0161570263
 40
0.0251457512
 40
0.0495863899
 40
0.0827986511
 40
0.1246579078
 40
0.1748326683
 40
0.2983065553
 40
0.4486739301
 40
0.6202244766
 40
0.8063855634
 40
1.0
 40
1.0
 40
1.0
 40
1.0
 10
1116.0625820852
 20
275.2238130167
 30
0.0
 10
1116.0685559332
 20
275.2212674969
 30
0.0
 10
1116.0814123302
 20
275.2250962796
 30
0.0
 10
1116.0950615341
 20
275.2359131442
 30
0.0
 10
1116.1152694781
 20
275.2564131242
 30
0.0
 10
1116.1428488875
 20
275.2946652497
 30
0.0
 10
1116.1794562427
 20
275.3547672767
 30
0.0
 10
1116.2212928671
 20
275.43279529
 30
0.0
 10
1116.2885061486
 20
275.5694780976
 30
0.0
 10
1116.3811370742
 20
275.7789647122
 30
0.0
 10
1116.4995305118
 20
276.0706223968
 30
0.0
 10
1116.6267444312
 20
276.4064094234
 30
0.0
 10
1116.7578263404
 20
276.7733242282
 30
0.0
 10
1116.8438005749
 20
277.0275744975
 30
0.0
 10
1116.8865645686
 20
277.1575423101
 30
0.0
  0
LINE
  5
605
100
AcDbEntity
  8
0
100
AcDbLine
 62
9
  6
CONTINUOUS
 10
1052.8865645686
 20
93.4639248304
 11
1114.8865645686
 21
93.4639003341
  0
SPLINE
  5
606
100
AcDbEntity
  8
0
100
AcDbSpline
 62
9
  6
CONTINUOUS
 70
0
 71
3
 72
9
 73
5
 74
0
 42
0.0000001
 43
0.0000001
 44
0.0000000001
 40
0.0
 40
0.0
 40
0.0
 40
0.0
 40
0.500072959
 40
1.0
 40
1.0
 40
1.0
 40
1.0
 10
1114.8865645686
 20
93.4639003341
 30
0.0
 10
1115.2249206302
 20
93.4639004606
 30
0.0
 10
1115.9026209916
 20
93.5098076931
 30
0.0
 10
1116.5654710466
 20
93.6639263302
 30
0.0
 10
1116.8865645686
 20
93.7703075904
 30
0.0
  0
SPLINE
  5
607
100
AcDbEntity
  8
0
100
AcDbSpline
 62
9
  6
CONTINUOUS
 70
0
 71
3
 72
11
 73
7
 74
0
 42
0.0000001
 43
0.0000001
 44
0.0000000001
 40
0.0
 40
0.0
 40
0.0
 40
0.0
 40
0.2497151642
 40
0.4996562495
 40
0.7497779283
 40
1.0
 40
1.0
 40
1.0
 40
1.0
 10
1083.286641507
 20
142.8482237458
 30
0.0
 10
1082.93177734
 20
143.1485166692
 30
0.0
 10
1082.1676416274
 20
143.6886093511
 30
0.0
 10
1080.8985573042
 20
144.2861449457
 30
0.0
 10
1079.5436623145
 20
144.6530980332
 30
0.0
 10
1078.6101546122
 20
144.7355435824
 30
0.0
 10
1078.1443406295
 20
144.7355438117
 30
0.0
  0
SPLINE
  5
608
100
AcDbEntity
  8
0
100
AcDbSpline
 62
9
  6
CONTINUOUS
 70
0
 71
3
 72
15
 73
11
 74
0
 42
0.0000001
 43
0.0000001
 44
0.0000000001
 40
0.0
 40
0.0
 40
0.0
 40
0.0
 40
0.0320784689
 40
0.0574739942
 40
0.0900243171
 40
0.1770538395
 40
0.2928471668
 40
0.4357274718
 40
0.6032469669
 40
1.0
 40
1.0
 40
1.0
 40
1.0
 10
1117.715915767
 20
273.4613073026
 30
0.0
 10
1117.71065564
 20
273.4762291075
 30
0.0
 10
1117.7223530005
 20
273.5068081505
 30
0.0
 10
1117.7470045567
 20
273.542321022
 30
0.0
 10
1117.7944673746
 20
273.596692247
 30
0.0
 10
1117.8806561207
 20
273.6743170109
 30
0.0
 10
1118.0149989857
 20
273.7796309759
 30
0.0
 10
1118.1864733551
 20
273.9012487407
 30
0.0
 10
1118.4774536198
 20
274.0936528695
 30
0.0
 10
1118.7155332159
 20
274.238003128
 30
0.0
 10
1118.8843860054
 20
274.3369081766
 30
0.0
  0
SPLINE
  5
609
100
AcDbEntity
  8
0
100
AcDbSpline
 62
9
  6
CONTINUOUS
 70
0
 71
3
 72
9
 73
5
 74
0
 42
0.0000001
 43
0.0000001
 44
0.0000000001
 40
0.0
 40
0.0
 40
0.0
 40
0.0
 40
0.5321958061
 40
1.0
 40
1.0
 40
1.0
 40
1.0
 10
1078.1443406295
 20
177.9913973579
 30
0.0
 10
1079.0569747151
 20
177.9914002614
 30
0.0
 10
1080.7718667341
 20
177.9702414647
 30
0.0
 10
1082.4857924683
 20
177.9046134545
 30
0.0
 10
1083.286641507
 20
177.8578642813
 30
0.0
  0
SPLINE
  5
60A
100
AcDbEntity
  8
0
100
AcDbSpline
 62
9
  6
CONTINUOUS
 70
0
 71
3
 72
11
 73
7
 74
0
 42
0.0000001
 43
0.0000001
 44
0.0000000001
 40
0.0
 40
0.0
 40
0.0
 40
0.0
 40
0.2502221255
 40
0.5003438214
 40
0.7502849025
 40
1.0
 40
1.0
 40
1.0
 40
1.0
 10
1078.1443406295
 20
226.1923058492
 30
0.0
 10
1078.6101547098
 20
226.1923060358
 30
0.0
 10
1079.5436624211
 20
226.2747519682
 30
0.0
 10
1080.8985579983
 20
226.6417043299
 30
0.0
 10
1082.1676405907
 20
227.2392420251
 30
0.0
 10
1082.9317798257
 20
227.7793302624
 30
0.0
 10
1083.286641507
 20
228.0796259268
 30
0.0
  0
SPLINE
  5
60B
100
AcDbEntity
  8
0
100
AcDbSpline
 62
9
  6
CONTINUOUS
 70
0
 71
3
 72
9
 73
5
 74
0
 42
0.0000001
 43
0.0000001
 44
0.0000000001
 40
0.0
 40
0.0
 40
0.0
 40
0.0
 40
0.4678041939
 40
1.0
 40
1.0
 40
1.0
 40
1.0
 10
1083.286641507
 20
193.0699853795
 30
0.0
 10
1082.4857924678
 20
193.0232362145
 30
0.0
 10
1080.7718667344
 20
192.9576081912
 30
0.0
 10
1079.0569747151
 20
192.9364493997
 30
0.0
 10
1078.1443406295
 20
192.9364523029
 30
0.0
  0
SPLINE
  5
60C
100
AcDbEntity
  8
0
100
AcDbSpline
 62
9
  6
CONTINUOUS
 70
0
 71
3
 72
13
 73
9
 74
0
 42
0.0000001
 43
0.0000001
 44
0.0000000001
 40
0.0
 40
0.0
 40
0.0
 40
0.0
 40
0.1335070145
 40
0.2277281045
 40
0.3429602201
 40
0.4791619811
 40
0.6352712054
 40
1.0
 40
1.0
 40
1.0
 40
1.0
 10
1117.8865645686
 20
272.4639248304
 30
0.0
 10
1117.8865645686
 20
272.5322855167
 30
0.0
 10
1117.9536559227
 20
272.6429934105
 30
0.0
 10
1118.0823828063
 20
272.7592330608
 30
0.0
 10
1118.2289979869
 20
272.8605178226
 30
0.0
 10
1118.4116162278
 20
272.9614301656
 30
0.0
 10
1118.7171961525
 20
273.1028992725
 30
0.0
 10
1118.9686149509
 20
273.1934099013
 30
0.0
 10
1119.1464316102
 20
273.2504948262
 30
0.0
  0
SPLINE
  5
60D
100
AcDbEntity
  8
0
100
AcDbSpline
 62
9
  6
CONTINUOUS
 70
0
 71
3
 72
17
 73
13
 74
0
 42
0.0000001
 43
0.0000001
 44
0.0000000001
 40
0.0
 40
0.0
 40
0.0
 40
0.0
 40
0.1196168409
 40
0.2395081303
 40
0.3599957248
 40
0.4815289086
 40
0.6048071179
 40
0.7310216175
 40
0.795965457
 40
0.8624655729
 40
0.9306353425
 40
1.0
 40
1.0
 40
1.0
 40
1.0
 10
1049.8865645686
 20
98.4639248304
 30
0.0
 10
1049.8865758658
 20
98.2097343032
 30
0.0
 10
1049.9097936998
 20
97.7004575182
 30
0.0
 10
1050.0159224302
 20
96.9417127535
 30
0.0
 10
1050.1984906062
 20
96.1931572633
 30
0.0
 10
1050.4674837501
 20
95.4628131499
 30
0.0
 10
1050.8397611296
 20
94.764675425
 30
0.0
 10
1051.2576208893
 20
94.2358084717
 30
0.0
 10
1051.6735372663
 20
93.8770583351
 30
0.0
 10
1052.0364905059
 20
93.6531813621
 30
0.0
 10
1052.4457159659
 20
93.5005740243
 30
0.0
 10
1052.7391619226
 20
93.4639173008
 30
0.0
 10
1052.8865645686
 20
93.4639248304
 30
0.0
  0
SPLINE
  5
60E
100
AcDbEntity
  8
0
100
AcDbSpline
 62
9
  6
CONTINUOUS
 70
0
 71
3
 72
18
 73
14
 74
0
 42
0.0000001
 43
0.0000001
 44
0.0000000001
 40
0.0
 40
0.0
 40
0.0
 40
0.0
 40
0.0072017908
 40
0.0131442752
 40
0.0209370462
 40
0.042336297
 40
0.0716396177
 40
0.1539371094
 40
0.267217597
 40
0.4102684702
 40
0.5814528646
 40
0.7788108047
 40
1.0
 40
1.0
 40
1.0
 40
1.0
 10
1117.8865645686
 20
193.4639248304
 30
0.0
 10
1117.8865617397
 20
193.4570059308
 30
0.0
 10
1117.8756828778
 20
193.4464718522
 30
0.0
 10
1117.8585164887
 20
193.4373905562
 30
0.0
 10
1117.8268395466
 20
193.4246504271
 30
0.0
 10
1117.7726181033
 20
193.4102562781
 30
0.0
 10
1117.6471759483
 20
193.385173268
 30
0.0
 10
1117.4329109547
 20
193.3568146701
 30
0.0
 10
1117.1091309455
 20
193.3248485052
 30
0.0
 10
1116.6995422363
 20
193.2939658326
 30
0.0
 10
1116.2089253326
 20
193.2643751735
 30
0.0
 10
1115.6430218196
 20
193.2367614387
 30
0.0
 10
1115.2412275559
 20
193.2207962033
 30
0.0
 10
1115.0288654461
 20
193.2131213333
 30
0.0
  0
SPLINE
  5
60F
100
AcDbEntity
  8
0
100
AcDbSpline
 62
9
  6
CONTINUOUS
 70
0
 71
3
 72
11
 73
7
 74
0
 42
0.0000001
 43
0.0000001
 44
0.0000000001
 40
0.0
 40
0.0
 40
0.0
 40
0.0
 40
0.2501037163
 40
0.5001191153
 40
0.7500729848
 40
1.0
 40
1.0
 40
1.0
 40
1.0
 10
1115.2325415993
 20
255.5224579408
 30
0.0
 10
1115.6088739057
 20
255.8616886468
 30
0.0
 10
1116.2985909064
 20
256.6135985219
 30
0.0
 10
1117.1005202918
 20
257.9145873903
 30
0.0
 10
1117.6436004952
 20
259.3427110248
 30
0.0
 10
1117.8203717328
 20
260.3470354892
 30
0.0
 10
1117.8608143322
 20
260.8517188287
 30
0.0
  0
SPLINE
  5
610
100
AcDbEntity
  8
0
100
AcDbSpline
 62
9
  6
CONTINUOUS
 70
0
 71
3
 72
18
 73
14
 74
0
 42
0.0000001
 43
0.0000001
 44
0.0000000001
 40
0.0
 40
0.0
 40
0.0
 40
0.0
 40
0.2211891953
 40
0.4185471354
 40
0.5897315298
 40
0.732782403
 40
0.8460628906
 40
0.9283603823
 40
0.957663703
 40
0.9790629538
 40
0.9868557248
 40
0.9927982091
 40
1.0
 40
1.0
 40
1.0
 40
1.0
 10
1115.0288654461
 20
177.7147283275
 30
0.0
 10
1115.2412275559
 20
177.7070534569
 30
0.0
 10
1115.6430218196
 20
177.6910882227
 30
0.0
 10
1116.2089253326
 20
177.6634744871
 30
0.0
 10
1116.6995422363
 20
177.6338838281
 30
0.0
 10
1117.1091309456
 20
177.6030011558
 30
0.0
 10
1117.4329109547
 20
177.5710349906
 30
0.0
 10
1117.6471759483
 20
177.5426763929
 30
0.0
 10
1117.7726181033
 20
177.5175933827
 30
0.0
 10
1117.8268395466
 20
177.5031992336
 30
0.0
 10
1117.8585164887
 20
177.4904591046
 30
0.0
 10
1117.8756828778
 20
177.4813778086
 30
0.0
 10
1117.8865617397
 20
177.47084373
 30
0.0
 10
1117.8865645686
 20
177.4639248304
 30
0.0
  0
SPLINE
  5
611
100
AcDbEntity
  8
0
100
AcDbSpline
 62
9
  6
CONTINUOUS
 70
0
 71
3
 72
11
 73
7
 74
0
 42
0.0000001
 43
0.0000001
 44
0.0000000001
 40
0.0
 40
0.0
 40
0.0
 40
0.0
 40
0.2499269923
 40
0.4998808695
 40
0.7498962811
 40
1.0
 40
1.0
 40
1.0
 40
1.0
 10
1117.860745571
 20
110.0769884086
 30
0.0
 10
1117.820254738
 20
110.5815962515
 30
0.0
 10
1117.6434149766
 20
111.5857606481
 30
0.0
 10
1117.1003167602
 20
113.013644416
 30
0.0
 10
1116.2984493726
 20
114.3144156044
 30
0.0
 10
1115.6088209011
 20
115.0662088498
 30
0.0
 10
1115.2325415993
 20
115.40539172
 30
0.0
  0
LINE
  5
612
100
AcDbEntity
  8
0
100
AcDbLine
 62
9
  6
CONTINUOUS
 10
1119.386564572
 20
255.4639248312
 11
1119.3865645718
 21
271.2144091694
  0
LINE
  5
613
100
AcDbEntity
  8
0
100
AcDbLine
 62
9
  6
CONTINUOUS
 10
1119.386564572
 20
99.7134404917
 11
1119.3865645719
 21
115.4639248304
  0
SPLINE
  5
614
100
AcDbEntity
  8
0
100
AcDbSpline
 62
7
  6
CONTINUOUS
 70
0
 71
3
 72
9
 73
5
 74
0
 42
0.0000001
 43
0.0000001
 44
0.0000000001
 40
0.0
 40
0.0
 40
0.0
 40
0.0
 40
0.2807146518
 40
1.0
 40
1.0
 40
1.0
 40
1.0
 10
1262.3865591342
 20
427.2837937135
 30
0.0
 10
1262.3865471024
 20
427.3864571639
 30
0.0
 10
1262.3846099457
 20
427.7521534774
 30
0.0
 10
1262.3751611133
 20
428.1179720127
 30
0.0
 10
1262.3588903661
 20
428.3805266289
 30
0.0
  0
SPLINE
  5
615
100
AcDbEntity
  8
0
100
AcDbSpline
 62
7
  6
CONTINUOUS
 70
0
 71
3
 72
9
 73
5
 74
0
 42
0.0000001
 43
0.0000001
 44
0.0000000001
 40
0.0
 40
0.0
 40
0.0
 40
0.0
 40
0.2217426005
 40
1.0
 40
1.0
 40
1.0
 40
1.0
 10
1202.4101745556
 20
428.3111662381
 30
0.0
 10
1202.4059775023
 20
428.2353114904
 30
0.0
 10
1202.3905973361
 20
427.8930299279
 30
0.0
 10
1202.3866003235
 20
427.55032774
 30
0.0
 10
1202.3865699802
 20
427.2836905943
 30
0.0
  0
SPLINE
  5
616
100
AcDbEntity
  8
0
100
AcDbSpline
 62
9
  6
CONTINUOUS
 70
0
 71
3
 72
11
 73
7
 74
0
 42
0.0000001
 43
0.0000001
 44
0.0000000001
 40
0.0
 40
0.0
 40
0.0
 40
0.0
 40
0.2620803402
 40
0.517324667
 40
0.7624338216
 40
1.0
 40
1.0
 40
1.0
 40
1.0
 10
1198.3874658546
 20
423.4438421901
 30
0.0
 10
1198.9054274692
 20
423.4445616945
 30
0.0
 10
1199.9370779443
 20
423.6266954517
 30
0.0
 10
1201.2626056218
 20
424.4122997401
 30
0.0
 10
1202.1684717026
 20
425.6050818306
 30
0.0
 10
1202.3866354821
 20
426.5703233455
 30
0.0
 10
1202.3874412677
 20
427.0398362391
 30
0.0
  0
SPLINE
  5
617
100
AcDbEntity
  8
0
100
AcDbSpline
 62
9
  6
CONTINUOUS
 70
0
 71
3
 72
11
 73
7
 74
0
 42
0.0000001
 43
0.0000001
 44
0.0000000001
 40
0.0
 40
0.0
 40
0.0
 40
0.0
 40
0.262080588
 40
0.5173248297
 40
0.7624336772
 40
1.0
 40
1.0
 40
1.0
 40
1.0
 10
1266.3856632842
 20
423.4437320257
 30
0.0
 10
1265.8676907449
 20
423.4444452114
 30
0.0
 10
1264.8360161686
 20
423.6265779948
 30
0.0
 10
1263.510467547
 20
424.4122126301
 30
0.0
 10
1262.6046112943
 20
425.6050429802
 30
0.0
 10
1262.3864793427
 20
426.5703135758
 30
0.0
 10
1262.3856931401
 20
427.0398362389
 30
0.0
  0
SPLINE
  5
618
100
AcDbEntity
  8
0
100
AcDbSpline
 62
9
  6
CONTINUOUS
 70
0
 71
3
 72
35
 73
31
 74
0
 42
0.0000001
 43
0.0000001
 44
0.0000000001
 40
0.0
 40
0.0
 40
0.0
 40
0.0
 40
0.0412812959
 40
0.089217528
 40
0.1435696296
 40
0.2039007281
 40
0.236161184
 40
0.2697397862
 40
0.3045912133
 40
0.3406907274
 40
0.3780562972
 40
0.4168010942
 40
0.4368074359
 40
0.4573282873
 40
0.4784336164
 40
0.500003631
 40
0.5215717969
 40
0.5426753688
 40
0.5631945998
 40
0.5832006278
 40
0.6219448615
 40
0.6593103371
 40
0.6954097308
 40
0.7302610599
 40
0.7638395791
 40
0.7960999541
 40
0.8564308872
 40
0.9107828135
 40
0.9587188612
 40
1.0
 40
1.0
 40
1.0
 40
1.0
 10
1198.3874658546
 20
423.4438510043
 30
0.0
 10
1198.4026500277
 20
421.3952497523
 30
0.0
 10
1198.8325259142
 20
416.9713403563
 30
0.0
 10
1200.2822030894
 20
409.9881339487
 30
0.0
 10
1202.5415033634
 20
402.233087799
 30
0.0
 10
1205.0375214571
 20
395.3756179718
 30
0.0
 10
1207.4603153802
 20
389.6008525874
 30
0.0
 10
1209.5586282282
 20
385.064404518
 30
0.0
 10
1211.9305976546
 20
380.4491232833
 30
0.0
 10
1214.632866116
 20
375.7983115565
 30
0.0
 10
1217.7631760075
 20
371.1871175718
 30
0.0
 10
1220.8498954366
 20
367.5268801242
 30
0.0
 10
1223.774323194
 20
364.8845429646
 30
0.0
 10
1226.2996931664
 20
363.138036476
 30
0.0
 10
1229.1895635969
 20
361.8538686585
 30
0.0
 10
1232.387018807
 20
361.3564405883
 30
0.0
 10
1235.5843891738
 20
361.8539780476
 30
0.0
 10
1238.473859017
 20
363.1383965573
 30
0.0
 10
1240.9990528077
 20
364.8848081878
 30
0.0
 10
1243.9233503169
 20
367.5271081493
 30
0.0
 10
1247.0101176807
 20
371.1872371004
 30
0.0
 10
1250.1403142217
 20
375.7984670611
 30
0.0
 10
1252.842607442
 20
380.4492427067
 30
0.0
 10
1255.2145590095
 20
385.0645178855
 30
0.0
 10
1257.312862921
 20
389.6009552757
 30
0.0
 10
1259.7356437167
 20
395.375708663
 30
0.0
 10
1262.2316448357
 20
402.2331620503
 30
0.0
 10
1264.4909400978
 20
409.9881825918
 30
0.0
 10
1265.9406054223
 20
416.9713651104
 30
0.0
 10
1266.370481062
 20
421.3952575335
 30
0.0
 10
1266.3856632825
 20
423.4438510043
 30
0.0
  0
SPLINE
  5
619
100
AcDbEntity
  8
0
100
AcDbSpline
 62
9
  6
CONTINUOUS
 70
0
 71
3
 72
41
 73
37
 74
0
 42
0.0000001
 43
0.0000001
 44
0.0000000001
 40
0.0
 40
0.0
 40
0.0
 40
0.0
 40
0.0417275798
 40
0.0899094816
 40
0.1443477565
 40
0.2046812564
 40
0.2369372924
 40
0.2705217875
 40
0.3053958479
 40
0.341532317
 40
0.3789243629
 40
0.3981034655
 40
0.4176180498
 40
0.4374934629
 40
0.4577804805
 40
0.4681176856
 40
0.4786125343
 40
0.4892496894
 40
0.5000046354
 40
0.5107529404
 40
0.5213914551
 40
0.5318852876
 40
0.542221129
 40
0.562507811
 40
0.5823833048
 40
0.6018977995
 40
0.621076847
 40
0.6584687331
 40
0.694605109
 40
0.7294790795
 40
0.7630634895
 40
0.7953194395
 40
0.8556527675
 40
0.910090866
 40
0.9582725757
 40
1.0
 40
1.0
 40
1.0
 40
1.0
 10
1202.3874409621
 20
427.0398362391
 30
0.0
 10
1202.4017445804
 20
425.0070402233
 30
0.0
 10
1202.7936613772
 20
420.6298812615
 30
0.0
 10
1204.120797084
 20
413.7177125487
 30
0.0
 10
1206.1839586894
 20
406.045695804
 30
0.0
 10
1208.4513454746
 20
399.2471239903
 30
0.0
 10
1210.6338717072
 20
393.5000921749
 30
0.0
 10
1212.5103941462
 20
388.965743532
 30
0.0
 10
1214.610793032
 20
384.3220356724
 30
0.0
 10
1216.9712069864
 20
379.5963016004
 30
0.0
 10
1219.1887333166
 20
375.6580477845
 30
0.0
 10
1221.18266091
 20
372.5322159963
 30
0.0
 10
1222.8339507991
 20
370.203166816
 30
0.0
 10
1224.6743416546
 20
367.9495007419
 30
0.0
 10
1226.4240553909
 20
366.2072164674
 30
0.0
 10
1228.0209197274
 20
364.9919568581
 30
0.0
 10
1229.3512259242
 20
364.2191173844
 30
0.0
 10
1230.8177957085
 20
363.6768956884
 30
0.0
 10
1232.3869542116
 20
363.4738742602
 30
0.0
 10
1233.9559126445
 20
363.677640621
 30
0.0
 10
1235.422601315
 20
364.2187854774
 30
0.0
 10
1236.7522496051
 20
364.9927060482
 30
0.0
 10
1238.3496180801
 20
366.2069845386
 30
0.0
 10
1240.0989198571
 20
367.9497136409
 30
0.0
 10
1241.9393445045
 20
370.2032667511
 30
0.0
 10
1243.5905666678
 20
372.5323789518
 30
0.0
 10
1245.5844540851
 20
375.658211174
 30
0.0
 10
1247.8020151528
 20
379.5964306547
 30
0.0
 10
1250.1623982722
 20
384.3221616949
 30
0.0
 10
1252.2627855443
 20
388.9658601875
 30
0.0
 10
1254.1393001087
 20
393.5001983391
 30
0.0
 10
1256.3218191276
 20
399.2472150581
 30
0.0
 10
1258.5891891157
 20
406.0457700896
 30
0.0
 10
1260.6523449195
 20
413.7177610834
 30
0.0
 10
1261.9794700149
 20
420.6299058036
 30
0.0
 10
1262.3713854871
 20
425.0070477934
 30
0.0
 10
1262.3856881751
 20
427.0398362391
 30
0.0
  0
SPLINE
  5
61A
100
AcDbEntity
  8
0
100
AcDbSpline
 62
9
  6
CONTINUOUS
 70
0
 71
3
 72
9
 73
5
 74
0
 42
0.0000001
 43
0.0000001
 44
0.0000000001
 40
0.0
 40
0.0
 40
0.0
 40
0.0
 40
0.2434352206
 40
1.0
 40
1.0
 40
1.0
 40
1.0
 10
1342.3865645686
 20
72.1623197975
 30
0.0
 10
1342.3865627232
 20
71.6780387038
 30
0.0
 10
1342.323719416
 20
69.6886024992
 30
0.0
 10
1342.0462454638
 20
67.7106648187
 30
0.0
 10
1341.7656200766
 20
66.2319755885
 30
0.0
  0
SPLINE
  5
61B
100
AcDbEntity
  8
0
100
AcDbSpline
 62
9
  6
CONTINUOUS
 70
0
 71
3
 72
24
 73
20
 74
0
 42
0.0000001
 43
0.0000001
 44
0.0000000001
 40
0.0
 40
0.0
 40
0.0
 40
0.0
 40
0.1516995308
 40
0.2901584068
 40
0.5173222783
 40
0.6854173725
 40
0.7516638237
 40
0.8080402963
 40
0.855710652
 40
0.8955888474
 40
0.9283766653
 40
0.9546007577
 40
0.9746454133
 40
0.9824409286
 40
0.9887853755
 40
0.9937015823
 40
0.9972039353
 40
0.999300715
 40
1.0
 40
1.0
 40
1.0
 40
1.0
 10
1341.7656200766
 20
66.2319755885
 30
0.0
 10
1341.4562924666
 20
64.6013770003
 30
0.0
 10
1340.6977698827
 20
61.5142211723
 30
0.0
 10
1339.0450021107
 20
56.1005905189
 30
0.0
 10
1337.1714885188
 20
50.570045707
 30
0.0
 10
1335.699963959
 20
45.7377450325
 30
0.0
 10
1334.9209223845
 20
42.6534317901
 30
0.0
 10
1334.5219659604
 20
40.8332288021
 30
0.0
 10
1334.2330150629
 20
39.2850973309
 30
0.0
 10
1334.0293073648
 20
37.9842334823
 30
0.0
 10
1333.8898172144
 20
36.9112419157
 30
0.0
 10
1333.7971300924
 20
36.0512474117
 30
0.0
 10
1333.7445930241
 20
35.462047384
 30
0.0
 10
1333.7150026062
 20
35.0892492308
 30
0.0
 10
1333.7004033571
 20
34.8812073964
 30
0.0
 10
1333.6880957152
 20
34.720332375
 30
0.0
 10
1333.6834449886
 20
34.604940431
 30
0.0
 10
1333.6741072503
 20
34.5372067144
 30
0.0
 10
1333.6774720412
 20
34.5055957584
 30
0.0
 10
1333.6748702257
 20
34.4984011859
 30
0.0
  0
SPLINE
  5
61C
100
AcDbEntity
  8
0
100
AcDbSpline
 62
7
  6
CONTINUOUS
 70
0
 71
3
 72
11
 73
7
 74
0
 42
0.0000001
 43
0.0000001
 44
0.0000000001
 40
0.0
 40
0.0
 40
0.0
 40
0.0
 40
0.2244274445
 40
0.4672485992
 40
0.7274185852
 40
1.0
 40
1.0
 40
1.0
 40
1.0
 10
1317.3865645686
 20
423.4438510043
 30
0.0
 10
1319.2731702001
 20
422.6527237506
 30
0.0
 10
1323.0433641526
 20
420.6166862792
 30
0.0
 10
1328.3246415807
 20
416.5700785958
 30
0.0
 10
1333.286752477
 20
411.5039778832
 30
0.0
 10
1336.1784671917
 20
407.5755843621
 30
0.0
 10
1337.4879325644
 20
405.4639248304
 30
0.0
  0
SPLINE
  5
61D
100
AcDbEntity
  8
0
100
AcDbSpline
 62
7
  6
CONTINUOUS
 70
0
 71
3
 72
9
 73
5
 74
0
 42
0.0000001
 43
0.0000001
 44
0.0000000001
 40
0.0
 40
0.0
 40
0.0
 40
0.0
 40
0.4997136532
 40
1.0
 40
1.0
 40
1.0
 40
1.0
 10
1337.4879325644
 20
405.4639248304
 30
0.0
 10
1339.1555636133
 20
402.7746830427
 30
0.0
 10
1341.6268313226
 20
396.8251752464
 30
0.0
 10
1342.3865645686
 20
390.464629789
 30
0.0
 10
1342.3865645686
 20
387.2966685266
 30
0.0
  0
SPLINE
  5
61E
100
AcDbEntity
  8
0
100
AcDbSpline
 62
9
  6
CONTINUOUS
 70
0
 71
3
 72
14
 73
10
 74
0
 42
0.0000001
 43
0.0000001
 44
0.0000000001
 40
0.0
 40
0.0
 40
0.0
 40
0.0
 40
0.0645413922
 40
0.1430260908
 40
0.2420388859
 40
0.3625669539
 40
0.5028319319
 40
0.6592577128
 40
1.0
 40
1.0
 40
1.0
 40
1.0
 10
1342.3865677254
 20
72.1623197974
 30
0.0
 10
1342.3865598459
 20
72.0654230089
 30
0.0
 10
1342.4537767541
 20
71.8499277784
 30
0.0
 10
1342.703919425
 20
71.5774632624
 30
0.0
 10
1343.0832776822
 20
71.334748497
 30
0.0
 10
1343.5821792463
 20
71.1231029804
 30
0.0
 10
1344.1852523686
 20
70.9495113301
 30
0.0
 10
1345.1265815043
 20
70.7721227137
 30
0.0
 10
1345.8750039686
 20
70.7226188588
 30
0.0
 10
1346.3865645706
 20
70.7226187771
 30
0.0
  0
SPLINE
  5
61F
100
AcDbEntity
  8
0
100
AcDbSpline
 62
9
  6
CONTINUOUS
 70
0
 71
3
 72
28
 73
24
 74
0
 42
0.0000001
 43
0.0000001
 44
0.0000000001
 40
0.0
 40
0.0
 40
0.0
 40
0.0
 40
0.1525359444
 40
0.2931698495
 40
0.5234598032
 40
0.614364901
 40
0.6916729182
 40
0.7572950519
 40
0.8128410053
 40
0.8595990413
 40
0.8985696932
 40
0.9305146548
 40
0.95600445
 40
0.9664613452
 40
0.9754518836
 40
0.9830060604
 40
0.9891503155
 40
0.993909558
 40
0.9972982104
 40
0.9984814122
 40
0.9993253669
 40
0.9998311977
 40
1.0
 40
1.0
 40
1.0
 40
1.0
 10
1345.6662689579
 20
65.4639248304
 30
0.0
 10
1345.2716401052
 20
63.909064806
 30
0.0
 10
1344.2788860744
 20
60.9819363295
 30
0.0
 10
1342.21097406
 20
55.8817937175
 30
0.0
 10
1340.3485142071
 20
51.3943540193
 30
0.0
 10
1338.921688361
 20
47.453029448
 30
0.0
 10
1338.1626516965
 20
45.1134214557
 30
0.0
 10
1337.5913284847
 20
43.1053452911
 30
0.0
 10
1337.1706930105
 20
41.3897644745
 30
0.0
 10
1336.8677973231
 20
39.9349514666
 30
0.0
 10
1336.6546779962
 20
38.7157196241
 30
0.0
 10
1336.5085943793
 20
37.7123297697
 30
0.0
 10
1336.4225383808
 20
37.0034835301
 30
0.0
 10
1336.3730052951
 20
36.5334980263
 30
0.0
 10
1336.3455257009
 20
36.2508562408
 30
0.0
 10
1336.3241156442
 20
36.0132264859
 30
0.0
 10
1336.3081411894
 20
35.8197154697
 30
0.0
 10
1336.2959464699
 20
35.670051641
 30
0.0
 10
1336.2892559672
 20
35.5718420587
 30
0.0
 10
1336.2841387028
 20
35.5155179329
 30
0.0
 10
1336.2838347374
 20
35.4881593349
 30
0.0
 10
1336.2799084174
 20
35.4736177235
 30
0.0
 10
1336.2823266387
 20
35.4651006099
 30
0.0
 10
1336.2809993324
 20
35.4639217633
 30
0.0
  0
SPLINE
  5
620
100
AcDbEntity
  8
0
100
AcDbSpline
 62
9
  6
CONTINUOUS
 70
0
 71
3
 72
9
 73
5
 74
0
 42
0.0000001
 43
0.0000001
 44
0.0000000001
 40
0.0
 40
0.0
 40
0.0
 40
0.0
 40
0.2426023605
 40
1.0
 40
1.0
 40
1.0
 40
1.0
 10
1346.3865645686
 20
70.7226509232
 30
0.0
 10
1346.386513577
 20
70.2927487299
 30
0.0
 10
1346.3183250229
 20
68.5205515984
 30
0.0
 10
1345.9963709264
 20
66.7648394508
 30
0.0
 10
1345.6662689579
 20
65.4639248304
 30
0.0
  0
SPLINE
  5
621
100
AcDbEntity
  8
0
100
AcDbSpline
 62
9
  6
CONTINUOUS
 70
0
 71
3
 72
15
 73
11
 74
0
 42
0.0000001
 43
0.0000001
 44
0.0000000001
 40
0.0
 40
0.0
 40
0.0
 40
0.0
 40
0.1302101026
 40
0.2597025091
 40
0.3877654511
 40
0.513965468
 40
0.6380578688
 40
0.760125513
 40
0.880564509
 40
1.0
 40
1.0
 40
1.0
 40
1.0
 10
1157.3865645686
 20
423.4438510043
 30
0.0
 10
1155.7532894599
 20
423.4437915953
 30
0.0
 10
1152.4880324259
 20
423.1480223498
 30
0.0
 10
1147.7780204446
 20
421.8340142231
 30
0.0
 10
1143.4324329905
 20
419.6984810181
 30
0.0
 10
1139.6193099634
 20
416.8242567853
 30
0.0
 10
1136.4849884387
 20
413.3202342503
 30
0.0
 10
1134.1512741581
 20
409.3202214752
 30
0.0
 10
1132.7118465594
 20
404.9805144599
 30
0.0
 10
1132.3874112216
 20
401.9620496437
 30
0.0
 10
1132.3865645686
 20
400.463924847
 30
0.0
  0
SPLINE
  5
622
100
AcDbEntity
  8
0
100
AcDbSpline
 62
9
  6
CONTINUOUS
 70
0
 71
3
 72
14
 73
10
 74
0
 42
0.0000001
 43
0.0000001
 44
0.0000000001
 40
0.0
 40
0.0
 40
0.0
 40
0.0
 40
0.4117188365
 40
0.5755547457
 40
0.7109429493
 40
0.8182559003
 40
0.8987240381
 40
0.9559517123
 40
1.0
 40
1.0
 40
1.0
 40
1.0
 10
1266.3856632825
 20
423.4438510043
 30
0.0
 10
1266.3882084699
 20
423.7358261339
 30
0.0
 10
1266.3857837155
 20
424.1442723569
 30
0.0
 10
1266.353794965
 20
424.6476633043
 30
0.0
 10
1266.3197507138
 20
424.9340381573
 30
0.0
 10
1266.2740887776
 20
425.1593558021
 30
0.0
 10
1266.2156774372
 20
425.3232120969
 30
0.0
 10
1266.1428779143
 20
425.4340155478
 30
0.0
 10
1266.0706686029
 20
425.4638957644
 30
0.0
 10
1266.0394300817
 20
425.4639248304
 30
0.0
  0
SPLINE
  5
623
100
AcDbEntity
  8
0
100
AcDbSpline
 62
9
  6
CONTINUOUS
 70
0
 71
3
 72
14
 73
10
 74
0
 42
0.0000001
 43
0.0000001
 44
0.0000000001
 40
0.0
 40
0.0
 40
0.0
 40
0.0
 40
0.0440482877
 40
0.101276022
 40
0.1817442851
 40
0.2890574411
 40
0.4244457026
 40
0.5882813863
 40
1.0
 40
1.0
 40
1.0
 40
1.0
 10
1198.7336990554
 20
425.4639248304
 30
0.0
 10
1198.7024605353
 20
425.4638957573
 30
0.0
 10
1198.6302512073
 20
425.4340154455
 30
0.0
 10
1198.5574516987
 20
425.3232118532
 30
0.0
 10
1198.4990401674
 20
425.1593553368
 30
0.0
 10
1198.4533783621
 20
424.9340373804
 30
0.0
 10
1198.4193341597
 20
424.6476625136
 30
0.0
 10
1198.3873453263
 20
424.1442718604
 30
0.0
 10
1198.3849207591
 20
423.7358259676
 30
0.0
 10
1198.3874658546
 20
423.4438510043
 30
0.0
  0
SPLINE
  5
624
100
AcDbEntity
  8
0
100
AcDbSpline
 62
9
  6
CONTINUOUS
 70
0
 71
3
 72
16
 73
12
 74
0
 42
0.0000001
 43
0.0000001
 44
0.0000000001
 40
0.0
 40
0.0
 40
0.0
 40
0.0
 40
0.0082833509
 40
0.024084063
 40
0.081949577
 40
0.1744687279
 40
0.2981906708
 40
0.4486809382
 40
0.6203594815
 40
0.8068798252
 40
1.0
 40
1.0
 40
1.0
 40
1.0
 10
123.8569069441
 20
425.4639245893
 30
0.0
 10
123.8457726055
 20
425.4639246246
 30
0.0
 10
123.8197929133
 20
425.4918611473
 30
0.0
 10
123.7834124886
 20
425.5920045688
 30
0.0
 10
123.7383626381
 20
425.8153469019
 30
0.0
 10
123.6953885445
 20
426.1791986775
 30
0.0
 10
123.6549423788
 20
426.6714747228
 30
0.0
 10
123.6219904247
 20
427.2696508486
 30
0.0
 10
123.5970450748
 20
427.9531050823
 30
0.0
 10
123.5818381361
 20
428.6940158409
 30
0.0
 10
123.5783327575
 20
429.2043359953
 30
0.0
 10
123.5783326571
 20
429.4639248304
 30
0.0
  0
SPLINE
  5
625
100
AcDbEntity
  8
0
100
AcDbSpline
 62
9
  6
CONTINUOUS
 70
0
 71
3
 72
33
 73
29
 74
0
 42
0.0000001
 43
0.0000001
 44
0.0000000001
 40
0.0
 40
0.0
 40
0.0
 40
0.0
 40
0.0005975843
 40
0.0023194801
 40
0.0050371972
 40
0.0086131968
 40
0.0128970004
 40
0.0177384307
 40
0.0286800513
 40
0.0408322965
 40
0.0538078344
 40
0.0673786639
 40
0.0813920488
 40
0.1103851649
 40
0.1402947093
 40
0.170854072
 40
0.2019038818
 40
0.2333433532
 40
0.2651021325
 40
0.3293862115
 40
0.394490785
 40
0.4602501988
 40
0.526552025
 40
0.5933126491
 40
0.6604650606
 40
0.7279495728
 40
0.8636599749
 40
1.0
 40
1.0
 40
1.0
 40
1.0
 10
48.8569449188
 20
363.5419101506
 30
0.0
 10
48.851135861
 20
363.5244974217
 30
0.0
 10
48.9123583317
 20
363.6705560758
 30
0.0
 10
48.9469882822
 20
363.736155963
 30
0.0
 10
49.0653538162
 20
364.0001682174
 30
0.0
 10
49.1952863188
 20
364.2787464702
 30
0.0
 10
49.3626485944
 20
364.6379757985
 30
0.0
 10
49.6252941433
 20
365.1928215097
 30
0.0
 10
49.9990462982
 20
365.9668618288
 30
0.0
 10
50.4921054771
 20
366.9584998908
 30
0.0
 10
51.0343670585
 20
368.0165360323
 30
0.0
 10
51.6164197886
 20
369.1180882511
 30
0.0
 10
52.4477915833
 20
370.6442957247
 30
0.0
 10
53.5567810444
 20
372.5905450851
 30
0.0
 10
54.976387293
 20
374.9438148532
 30
0.0
 10
56.4867988844
 20
377.3151151961
 30
0.0
 10
58.079359464
 20
379.6888341244
 30
0.0
 10
59.7478865105
 20
382.0550183229
 30
0.0
 10
62.0770743574
 20
385.2032560268
 30
0.0
 10
65.1545324335
 20
389.0825927831
 30
0.0
 10
69.0816204351
 20
393.6138707431
 30
0.0
 10
73.2406516287
 20
398.018909865
 30
0.0
 10
77.6173767167
 20
402.2809099533
 30
0.0
 10
82.1993342727
 20
406.3858145016
 30
0.0
 10
86.9749755084
 20
410.3211732442
 30
0.0
 10
93.5969070475
 20
415.3356503136
 30
0.0
 10
102.2930105676
 20
421.1155137918
 30
0.0
 10
109.6157422686
 20
425.1638595784
 30
0.0
 10
113.3600696988
 20
427.0398362391
 30
0.0
  0
SPLINE
  5
626
100
AcDbEntity
  8
0
100
AcDbSpline
 62
9
  6
CONTINUOUS
 70
0
 71
3
 72
9
 73
5
 74
0
 42
0.0000001
 43
0.0000001
 44
0.0000000001
 40
0.0
 40
0.0
 40
0.0
 40
0.0
 40
0.5023808888
 40
1.0
 40
1.0
 40
1.0
 40
1.0
 10
116.1313851714
 20
72.1623197975
 30
0.0
 10
115.7938511717
 20
71.2124354113
 30
0.0
 10
115.3075324386
 20
69.2494300975
 30
0.0
 10
115.2354062114
 20
67.2284952004
 30
0.0
 10
115.2985361121
 20
66.2319755885
 30
0.0
  0
SPLINE
  5
627
100
AcDbEntity
  8
0
100
AcDbSpline
 62
9
  6
CONTINUOUS
 70
0
 71
3
 72
29
 73
25
 74
0
 42
0.0000001
 43
0.0000001
 44
0.0000000001
 40
0.0
 40
0.0
 40
0.0
 40
0.0
 40
0.0306401967
 40
0.0610928747
 40
0.0916832282
 40
0.1225255967
 40
0.1536061428
 40
0.1848678625
 40
0.2476815862
 40
0.3107022203
 40
0.373787519
 40
0.4368908464
 40
0.4999991808
 40
0.5631079298
 40
0.6262120774
 40
0.6892977393
 40
0.7523184653
 40
0.8151321756
 40
0.8463938909
 40
0.8774744246
 40
0.9083167653
 40
0.9389071097
 40
0.969359772
 40
1.0
 40
1.0
 40
1.0
 40
1.0
 10
115.2985361121
 20
66.2319755885
 30
0.0
 10
115.403467671
 20
64.5805791599
 30
0.0
 10
116.1669270849
 20
61.3074594496
 30
0.0
 10
118.5690139326
 20
56.9298824182
 30
0.0
 10
121.8026786983
 20
53.131695614
 30
0.0
 10
125.5949232435
 20
49.8568569412
 30
0.0
 10
129.7700476818
 20
47.0309901622
 30
0.0
 10
135.7022763992
 20
43.776348829
 30
0.0
 10
143.5800848168
 20
40.554781497
 30
0.0
 10
153.4065917845
 20
37.7557390869
 30
0.0
 10
163.4580624559
 20
35.8502710992
 30
0.0
 10
173.6302843286
 20
34.7412944055
 30
0.0
 10
183.8568004943
 20
34.3769604976
 30
0.0
 10
194.0833635064
 20
34.7412516768
 30
0.0
 10
204.2556715057
 20
35.8502424967
 30
0.0
 10
214.3072090504
 20
37.755726012
 30
0.0
 10
224.1337397144
 20
40.5547723934
 30
0.0
 10
232.0115516431
 20
43.7763423025
 30
0.0
 10
237.9437777258
 20
47.0309848089
 30
0.0
 10
242.1188996668
 20
49.8568515798
 30
0.0
 10
245.9111388918
 20
53.1316907657
 30
0.0
 10
249.1448031375
 20
56.9298791069
 30
0.0
 10
251.5468644472
 20
61.307459274
 30
0.0
 10
252.3103816638
 20
64.5805752111
 30
0.0
 10
252.4152777403
 20
66.2319755885
 30
0.0
  0
SPLINE
  5
628
100
AcDbEntity
  8
0
100
AcDbSpline
 62
9
  6
CONTINUOUS
 70
0
 71
3
 72
9
 73
5
 74
0
 42
0.0000001
 43
0.0000001
 44
0.0000000001
 40
0.0
 40
0.0
 40
0.0
 40
0.0
 40
0.4976188917
 40
1.0
 40
1.0
 40
1.0
 40
1.0
 10
252.4152777403
 20
66.2319755885
 30
0.0
 10
252.4784330532
 20
67.2284927677
 30
0.0
 10
252.4062399988
 20
69.2494250901
 30
0.0
 10
251.9199755814
 20
71.2124399354
 30
0.0
 10
251.5824286811
 20
72.1623197975
 30
0.0
  0
SPLINE
  5
629
100
AcDbEntity
  8
0
100
AcDbSpline
 62
9
  6
CONTINUOUS
 70
0
 71
3
 72
27
 73
23
 74
0
 42
0.0000001
 43
0.0000001
 44
0.0000000001
 40
0.0
 40
0.0
 40
0.0
 40
0.0
 40
0.0312119858
 40
0.0624457117
 40
0.0936931999
 40
0.1249481894
 40
0.1874198503
 40
0.2499201207
 40
0.3124328428
 40
0.3749515143
 40
0.4374734971
 40
0.4999975957
 40
0.5625220276
 40
0.6250448448
 40
0.6875642529
 40
0.750077181
 40
0.8125775015
 40
0.8750494785
 40
0.9063047545
 40
0.9375526726
 40
0.9687871914
 40
1.0
 40
1.0
 40
1.0
 40
1.0
 10
251.5824278756
 20
72.1623216752
 30
0.0
 10
251.0091451107
 20
73.648372737
 30
0.0
 10
249.5052224373
 20
76.4916781174
 30
0.0
 10
246.4875559103
 20
80.2272803061
 30
0.0
 10
242.9479691681
 20
83.4664789494
 30
0.0
 10
237.759226484
 20
87.1933806035
 30
0.0
 10
230.6647757324
 20
90.9112799709
 30
0.0
 10
221.6738200316
 20
94.232261173
 30
0.0
 10
212.3999678859
 20
96.6476760214
 30
0.0
 10
202.9622931021
 20
98.2942492865
 30
0.0
 10
193.4310475903
 20
99.2537323595
 30
0.0
 10
183.8572577041
 20
99.569019302
 30
0.0
 10
174.2834248805
 20
99.2537656521
 30
0.0
 10
164.7520755591
 20
98.2943420061
 30
0.0
 10
155.3143046642
 20
96.6477872211
 30
0.0
 10
146.0403954881
 20
94.2323904438
 30
0.0
 10
137.049398845
 20
90.9114391292
 30
0.0
 10
129.9548908973
 20
87.193576625
 30
0.0
 10
124.7660853019
 20
83.4666718139
 30
0.0
 10
121.2264176533
 20
80.2274483727
 30
0.0
 10
118.2086542611
 20
76.4917878745
 30
0.0
 10
116.7046881863
 20
73.6484104208
 30
0.0
 10
116.1313860468
 20
72.1623218258
 30
0.0
  0
SPLINE
  5
62A
100
AcDbEntity
  8
0
100
AcDbSpline
 62
9
  6
CONTINUOUS
 70
0
 71
3
 72
11
 73
7
 74
0
 42
0.0000001
 43
0.0000001
 44
0.0000000001
 40
0.0
 40
0.0
 40
0.0
 40
0.0
 40
0.2500047083
 40
0.5000083304
 40
0.7500077661
 40
1.0
 40
1.0
 40
1.0
 40
1.0
 10
-733.0062468585
 20
261.6618834771
 30
0.0
 10
-733.0178471268
 20
261.303763551
 30
0.0
 10
-732.9654723153
 20
260.5828511995
 30
0.0
 10
-732.6640481621
 20
259.5431193045
 30
0.0
 10
-732.1525357269
 20
258.5889886951
 30
0.0
 10
-731.6845786939
 20
258.0378734943
 30
0.0
 10
-731.4248449754
 20
257.7910739164
 30
0.0
  0
LINE
  5
62B
100
AcDbEntity
  8
0
100
AcDbLine
 62
9
  6
CONTINUOUS
 10
-737.5016259586
 20
271.2144091691
 11
-737.5016259586
 21
255.4639248304
  0
LINE
  5
62C
100
AcDbEntity
  8
0
100
AcDbLine
 62
9
  6
CONTINUOUS
 10
-737.5016259586
 20
115.4639248296
 11
-737.5016259585
 21
99.7134404914
  0
SPLINE
  5
62D
100
AcDbEntity
  8
0
100
AcDbSpline
 62
9
  6
CONTINUOUS
 70
0
 71
3
 72
17
 73
13
 74
0
 42
0.0000001
 43
0.0000001
 44
0.0000000001
 40
0.0
 40
0.0
 40
0.0
 40
0.0
 40
0.0310016494
 40
0.0572432913
 40
0.0916106178
 40
0.1341244559
 40
0.184564568
 40
0.2425531017
 40
0.3076036255
 40
0.4565145226
 40
0.6258725101
 40
1.0
 40
1.0
 40
1.0
 40
1.0
 10
-668.0016259552
 20
193.4639248304
 30
0.0
 10
-668.001635222
 20
193.4216124235
 30
0.0
 10
-668.0737451425
 20
193.3592004499
 30
0.0
 10
-668.1819104238
 20
193.3075379215
 30
0.0
 10
-668.3163172729
 20
193.2592905514
 30
0.0
 10
-668.4835478011
 20
193.2141577086
 30
0.0
 10
-668.6851499687
 20
193.1703624464
 30
0.0
 10
-668.9183020489
 20
193.1292702672
 30
0.0
 10
-669.2856946436
 20
193.0759508823
 30
0.0
 10
-669.8061109467
 20
193.0206821722
 30
0.0
 10
-670.7489329967
 20
192.9546742056
 30
0.0
 10
-671.4910003832
 20
192.9364470774
 30
0.0
 10
-672.0016259552
 20
192.9364523029
 30
0.0
  0
SPLINE
  5
62E
100
AcDbEntity
  8
0
100
AcDbSpline
 62
9
  6
CONTINUOUS
 70
0
 71
3
 72
11
 73
7
 74
0
 42
0.0000001
 43
0.0000001
 44
0.0000000001
 40
0.0
 40
0.0
 40
0.0
 40
0.0
 40
0.2498447431
 40
0.4986303534
 40
0.7481823148
 40
1.0
 40
1.0
 40
1.0
 40
1.0
 10
-736.9994473921
 20
96.5909414842
 30
0.0
 10
-736.9236071276
 20
96.3048887406
 30
0.0
 10
-736.7355751556
 20
95.7426348163
 30
0.0
 10
-736.3227596227
 20
94.9531840998
 30
0.0
 10
-735.7575708427
 20
94.2584577958
 30
0.0
 10
-735.2682000238
 20
93.9041161441
 30
0.0
 10
-735.0016259552
 20
93.7703073507
 30
0.0
  0
SPLINE
  5
62F
100
AcDbEntity
  8
0
100
AcDbSpline
 62
9
  6
CONTINUOUS
 70
0
 71
3
 72
11
 73
7
 74
0
 42
0.0000001
 43
0.0000001
 44
0.0000000001
 40
0.0
 40
0.0
 40
0.0
 40
0.0
 40
0.2518297471
 40
0.5014044018
 40
0.7501893398
 40
1.0
 40
1.0
 40
1.0
 40
1.0
 10
-735.0016259552
 20
277.1575420705
 30
0.0
 10
-735.26774074
 20
277.0230331648
 30
0.0
 10
-735.7560336977
 20
276.667674942
 30
0.0
 10
-736.3205758741
 20
275.972956289
 30
0.0
 10
-736.7339865431
 20
275.1842716207
 30
0.0
 10
-736.923011621
 20
274.62264816
 30
0.0
 10
-736.999447245
 20
274.3369081766
 30
0.0
  0
SPLINE
  5
630
100
AcDbEntity
  8
0
100
AcDbSpline
 62
9
  6
CONTINUOUS
 70
0
 71
3
 72
26
 73
22
 74
0
 42
0.0000001
 43
0.0000001
 44
0.0000000001
 40
0.0
 40
0.0
 40
0.0
 40
0.0
 40
0.2158186368
 40
0.4124940168
 40
0.5857231353
 40
0.6623897961
 40
0.7318971924
 40
0.7939078478
 40
0.8481319189
 40
0.8943283627
 40
0.9323060897
 40
0.9481671377
 40
0.9619249371
 40
0.9735700186
 40
0.9830961566
 40
0.9905003691
 40
0.9957829041
 40
0.9976294971
 40
0.998947234
 40
0.9997370134
 40
1.0
 40
1.0
 40
1.0
 40
1.0
 10
-737.2614928884
 20
273.2504947585
 30
0.0
 10
-737.2728778957
 20
273.103394065
 30
0.0
 10
-737.2969493711
 20
272.8224144211
 30
0.0
 10
-737.3370833739
 20
272.423999405
 30
0.0
 10
-737.3717863284
 20
272.1206777086
 30
0.0
 10
-737.3987858503
 20
271.9039977485
 30
0.0
 10
-737.4172917181
 20
271.7628831662
 30
0.0
 10
-737.4346144753
 20
271.6370901135
 30
0.0
 10
-737.4504851253
 20
271.5271859892
 30
0.0
 10
-737.4646416425
 20
271.433636994
 30
0.0
 10
-737.4753490122
 20
271.3660919853
 30
0.0
 10
-737.4828562758
 20
271.3204952372
 30
0.0
 10
-737.4875447222
 20
271.2926765424
 30
0.0
 10
-737.4916151988
 20
271.2691520268
 30
0.0
 10
-737.4950041956
 20
271.2499002493
 30
0.0
 10
-737.4977564264
 20
271.2349988726
 30
0.0
 10
-737.4994879735
 20
271.2251477698
 30
0.0
 10
-737.5006799484
 20
271.2195862011
 30
0.0
 10
-737.5010032736
 20
271.2167487631
 30
0.0
 10
-737.5016438549
 20
271.2154808449
 30
0.0
 10
-737.5014409723
 20
271.2144408372
 30
0.0
 10
-737.50161641
 20
271.2144015352
 30
0.0
  0
SPLINE
  5
631
100
AcDbEntity
  8
0
100
AcDbSpline
 62
9
  6
CONTINUOUS
 70
0
 71
3
 72
9
 73
5
 74
0
 42
0.0000001
 43
0.0000001
 44
0.0000000001
 40
0.0
 40
0.0
 40
0.0
 40
0.0
 40
0.2545525327
 40
1.0
 40
1.0
 40
1.0
 40
1.0
 10
-736.9994472383
 20
274.3369081925
 30
0.0
 10
-737.0380107362
 20
274.249975251
 30
0.0
 10
-737.1717637807
 20
273.9006069981
 30
0.0
 10
-737.2400025977
 20
273.5281683753
 30
0.0
 10
-737.2614928884
 20
273.2504947585
 30
0.0
  0
SPLINE
  5
632
100
AcDbEntity
  8
0
100
AcDbSpline
 62
9
  6
CONTINUOUS
 70
0
 71
3
 72
26
 73
22
 74
0
 42
0.0000001
 43
0.0000001
 44
0.0000000001
 40
0.0
 40
0.0
 40
0.0
 40
0.0
 40
0.000262404
 40
0.0010504725
 40
0.0023654235
 40
0.0042082119
 40
0.0094803035
 40
0.0168706783
 40
0.0263800533
 40
0.0380059254
 40
0.0517425554
 40
0.0675809664
 40
0.1055109983
 40
0.151659851
 40
0.20584038
 40
0.2678153494
 40
0.3372984683
 40
0.4139554087
 40
0.5872180932
 40
0.7840043199
 40
1.0
 40
1.0
 40
1.0
 40
1.0
 10
-737.501616411
 20
99.7134481249
 30
0.0
 10
-737.5014404988
 20
99.7134129376
 30
0.0
 10
-737.501639461
 20
99.7123664418
 30
0.0
 10
-737.5009926963
 20
99.7111117468
 30
0.0
 10
-737.5006577085
 20
99.7082773689
 30
0.0
 10
-737.4994425007
 20
99.7027347961
 30
0.0
 10
-737.4976721303
 20
99.6929078048
 30
0.0
 10
-737.4948639853
 20
99.6780455084
 30
0.0
 10
-737.4914068213
 20
99.6588390932
 30
0.0
 10
-737.4872577227
 20
99.6353668796
 30
0.0
 10
-737.4824818052
 20
99.6076052779
 30
0.0
 10
-737.4748395762
 20
99.5620920199
 30
0.0
 10
-737.463952934
 20
99.4946537305
 30
0.0
 10
-737.4495843361
 20
99.4012281638
 30
0.0
 10
-737.4335068876
 20
99.291435925
 30
0.0
 10
-737.4159971765
 20
99.1657335841
 30
0.0
 10
-737.3973396314
 20
99.0246796027
 30
0.0
 10
-737.3701980187
 20
98.8080063474
 30
0.0
 10
-737.3355151688
 20
98.5045724845
 30
0.0
 10
-737.2958321397
 20
98.1058689628
 30
0.0
 10
-737.2724276601
 20
97.824618561
 30
0.0
 10
-737.2614929968
 20
97.6773548346
 30
0.0
  0
SPLINE
  5
633
100
AcDbEntity
  8
0
100
AcDbSpline
 62
9
  6
CONTINUOUS
 70
0
 71
3
 72
9
 73
5
 74
0
 42
0.0000001
 43
0.0000001
 44
0.0000000001
 40
0.0
 40
0.0
 40
0.0
 40
0.0
 40
0.2457070416
 40
1.0
 40
1.0
 40
1.0
 40
1.0
 10
-737.2614929968
 20
97.6773548346
 30
0.0
 10
-737.2546980952
 20
97.5858415137
 30
0.0
 10
-737.2134888419
 20
97.2146823673
 30
0.0
 10
-737.1128227849
 20
96.8488289335
 30
0.0
 10
-736.9994473827
 20
96.5909414618
 30
0.0
  0
SPLINE
  5
634
100
AcDbEntity
  8
0
100
AcDbSpline
 62
9
  6
CONTINUOUS
 70
0
 71
3
 72
17
 73
13
 74
0
 42
0.0000001
 43
0.0000001
 44
0.0000000001
 40
0.0
 40
0.0
 40
0.0
 40
0.0
 40
0.1196168409
 40
0.2395081303
 40
0.3599957248
 40
0.4815289086
 40
0.6048071179
 40
0.7310216175
 40
0.795965457
 40
0.8624655729
 40
0.9306353425
 40
1.0
 40
1.0
 40
1.0
 40
1.0
 10
-668.0016259552
 20
272.4639248304
 30
0.0
 10
-668.0016372525
 20
272.7181153576
 30
0.0
 10
-668.0248550865
 20
273.2273921426
 30
0.0
 10
-668.1309838169
 20
273.9861369073
 30
0.0
 10
-668.3135519929
 20
274.7346923975
 30
0.0
 10
-668.5825451368
 20
275.4650365109
 30
0.0
 10
-668.9548225163
 20
276.1631742358
 30
0.0
 10
-669.3726822759
 20
276.6920411891
 30
0.0
 10
-669.788598653
 20
277.0507913257
 30
0.0
 10
-670.1515518926
 20
277.2746682987
 30
0.0
 10
-670.5607773526
 20
277.4272756365
 30
0.0
 10
-670.8542233093
 20
277.46393236
 30
0.0
 10
-671.0016259552
 20
277.4639248304
 30
0.0
  0
SPLINE
  5
635
100
AcDbEntity
  8
0
100
AcDbSpline
 62
9
  6
CONTINUOUS
 70
0
 71
3
 72
13
 73
9
 74
0
 42
0.0000001
 43
0.0000001
 44
0.0000000001
 40
0.0
 40
0.0
 40
0.0
 40
0.0
 40
0.1325627091
 40
0.2266627794
 40
0.3419355428
 40
0.4782948564
 40
0.634644537
 40
1.0
 40
1.0
 40
1.0
 40
1.0
 10
-736.0016259552
 20
272.4639248304
 30
0.0
 10
-736.0016259552
 20
272.5317520986
 30
0.0
 10
-736.0691482746
 20
272.6415446249
 30
0.0
 10
-736.1975539332
 20
272.7570179875
 30
0.0
 10
-736.344179055
 20
272.8581622065
 30
0.0
 10
-736.5267723213
 20
272.9592304411
 30
0.0
 10
-736.8323541457
 20
273.1013514545
 30
0.0
 10
-737.0837087905
 20
273.192712527
 30
0.0
 10
-737.2614928884
 20
273.2504947585
 30
0.0
  0
LINE
  5
636
100
AcDbEntity
  8
0
100
AcDbLine
 62
9
  6
CONTINUOUS
 10
-701.704300829
 20
228.34269509
 11
-701.4017028937
 21
228.079625915
  0
LINE
  5
637
100
AcDbEntity
  8
0
100
AcDbLine
 62
9
  6
CONTINUOUS
 10
-701.4017028937
 20
142.848223734
 11
-701.704300829
 21
142.5851545708
  0
SPLINE
  5
638
100
AcDbEntity
  8
0
100
AcDbSpline
 62
9
  6
CONTINUOUS
 70
0
 71
3
 72
17
 73
13
 74
0
 42
0.0000001
 43
0.0000001
 44
0.0000000001
 40
0.0
 40
0.0
 40
0.0
 40
0.0
 40
0.069366526
 40
0.1375361153
 40
0.2040343917
 40
0.2689775419
 40
0.3951913977
 40
0.5184692822
 40
0.6400027041
 40
0.7604906685
 40
0.88038269
 40
1.0
 40
1.0
 40
1.0
 40
1.0
 10
-671.0016259552
 20
93.4639248304
 30
0.0
 10
-670.8542193449
 20
93.4639173001
 30
0.0
 10
-670.5607697468
 20
93.5005754893
 30
0.0
 10
-670.15154545
 20
93.6531849031
 30
0.0
 10
-669.7885980601
 20
93.8770599963
 30
0.0
 10
-669.372686068
 20
94.2358047507
 30
0.0
 10
-668.9548276667
 20
94.7646682336
 30
0.0
 10
-668.5825494012
 20
95.4628037232
 30
0.0
 10
-668.3135559959
 20
96.1931483248
 30
0.0
 10
-668.1309844964
 20
96.9417058771
 30
0.0
 10
-668.0248553314
 20
97.7004540441
 30
0.0
 10
-668.0016378893
 20
98.2097333174
 30
0.0
 10
-668.0016259552
 20
98.4639248304
 30
0.0
  0
SPLINE
  5
639
100
AcDbEntity
  8
0
100
AcDbSpline
 62
9
  6
CONTINUOUS
 70
0
 71
3
 72
15
 73
11
 74
0
 42
0.0000001
 43
0.0000001
 44
0.0000000001
 40
0.0
 40
0.0
 40
0.0
 40
0.0
 40
0.1235858319
 40
0.2473764065
 40
0.3715641129
 40
0.4962744733
 40
0.62155484
 40
0.7473615942
 40
0.8735716456
 40
1.0
 40
1.0
 40
1.0
 40
1.0
 10
-668.0016259552
 20
140.8180963579
 30
0.0
 10
-668.0016250531
 20
141.0738583529
 30
0.0
 10
-668.0531746623
 20
141.5872784872
 30
0.0
 10
-668.2821467235
 20
142.3264706109
 30
0.0
 10
-668.6539893672
 20
143.0080636765
 30
0.0
 10
-669.154493126
 20
143.6055027449
 30
0.0
 10
-669.7644407508
 20
144.0959577318
 30
0.0
 10
-670.460568275
 20
144.4604847917
 30
0.0
 10
-671.2157465673
 20
144.685011333
 30
0.0
 10
-671.739981334
 20
144.7355439286
 30
0.0
 10
-672.0016259552
 20
144.7355438117
 30
0.0
  0
SPLINE
  5
63A
100
AcDbEntity
  8
0
100
AcDbSpline
 62
9
  6
CONTINUOUS
 70
0
 71
3
 72
17
 73
13
 74
0
 42
0.0000001
 43
0.0000001
 44
0.0000000001
 40
0.0
 40
0.0
 40
0.0
 40
0.0
 40
0.3741274899
 40
0.5434854774
 40
0.6923963745
 40
0.7574468983
 40
0.815435432
 40
0.8658755442
 40
0.9083893822
 40
0.9427567087
 40
0.9689983507
 40
1.0
 40
1.0
 40
1.0
 40
1.0
 10
-672.0016259552
 20
177.9913973579
 30
0.0
 10
-671.4910003832
 20
177.9914025835
 30
0.0
 10
-670.7489329967
 20
177.9731754552
 30
0.0
 10
-669.8061109467
 20
177.9071674886
 30
0.0
 10
-669.2856946436
 20
177.8518987784
 30
0.0
 10
-668.9183020489
 20
177.7985793937
 30
0.0
 10
-668.6851499687
 20
177.7574872145
 30
0.0
 10
-668.4835478011
 20
177.7136919518
 30
0.0
 10
-668.3163172729
 20
177.6685591096
 30
0.0
 10
-668.1819104235
 20
177.62031174
 30
0.0
 10
-668.0737451429
 20
177.56864921
 30
0.0
 10
-668.0016352225
 20
177.5062372372
 30
0.0
 10
-668.0016259552
 20
177.4639248304
 30
0.0
  0
SPLINE
  5
63B
100
AcDbEntity
  8
0
100
AcDbSpline
 62
9
  6
CONTINUOUS
 70
0
 71
3
 72
15
 73
11
 74
0
 42
0.0000001
 43
0.0000001
 44
0.0000000001
 40
0.0
 40
0.0
 40
0.0
 40
0.0
 40
0.1264284987
 40
0.2526386568
 40
0.378445447
 40
0.5037258607
 40
0.6284362738
 40
0.7526238955
 40
0.8764143201
 40
1.0
 40
1.0
 40
1.0
 40
1.0
 10
-672.0016259552
 20
226.1923058492
 30
0.0
 10
-671.7399810342
 20
226.1923057266
 30
0.0
 10
-671.2157457405
 20
226.2428384245
 30
0.0
 10
-670.4605669246
 20
226.4673653449
 30
0.0
 10
-669.7644391899
 20
226.8318928667
 30
0.0
 10
-669.1544915377
 20
227.3223482787
 30
0.0
 10
-668.6539881778
 20
227.9197877935
 30
0.0
 10
-668.2821462656
 20
228.6013806575
 30
0.0
 10
-668.0531737324
 20
229.3405721252
 30
0.0
 10
-668.0016268846
 20
229.853991621
 30
0.0
 10
-668.0016259552
 20
230.109753303
 30
0.0
  0
SPLINE
  5
63C
100
AcDbEntity
  8
0
100
AcDbSpline
 62
9
  6
CONTINUOUS
 70
0
 71
3
 72
19
 73
15
 74
0
 42
0.0000001
 43
0.0000001
 44
0.0000000001
 40
0.0
 40
0.0
 40
0.0
 40
0.0
 40
0.0091889145
 40
0.0161570263
 40
0.0251457512
 40
0.0495863899
 40
0.0827986511
 40
0.1246579078
 40
0.1748326683
 40
0.2983065553
 40
0.4486739301
 40
0.6202244766
 40
0.8063855634
 40
1.0
 40
1.0
 40
1.0
 40
1.0
 10
-734.1776434719
 20
95.7040366442
 30
0.0
 10
-734.1836173199
 20
95.7065821639
 30
0.0
 10
-734.1964737169
 20
95.7027533812
 30
0.0
 10
-734.2101229208
 20
95.6919365166
 30
0.0
 10
-734.2303308648
 20
95.6714365366
 30
0.0
 10
-734.2579102742
 20
95.6331844111
 30
0.0
 10
-734.2945176293
 20
95.5730823841
 30
0.0
 10
-734.3363542537
 20
95.4950543708
 30
0.0
 10
-734.4035675353
 20
95.3583715633
 30
0.0
 10
-734.4961984609
 20
95.1488849486
 30
0.0
 10
-734.6145918984
 20
94.857227264
 30
0.0
 10
-734.7418058179
 20
94.5214402374
 30
0.0
 10
-734.8728877271
 20
94.1545254326
 30
0.0
 10
-734.9588619616
 20
93.9002751633
 30
0.0
 10
-735.0016259552
 20
93.7703073507
 30
0.0
  0
SPLINE
  5
63D
100
AcDbEntity
  8
0
100
AcDbSpline
 62
9
  6
CONTINUOUS
 70
0
 71
3
 72
15
 73
11
 74
0
 42
0.0000001
 43
0.0000001
 44
0.0000000001
 40
0.0
 40
0.0
 40
0.0
 40
0.0
 40
0.0320784689
 40
0.0574739942
 40
0.0900243171
 40
0.1770538395
 40
0.2928471668
 40
0.4357274718
 40
0.6032469669
 40
1.0
 40
1.0
 40
1.0
 40
1.0
 10
-735.8309771537
 20
97.4665423582
 30
0.0
 10
-735.8257170267
 20
97.4516205533
 30
0.0
 10
-735.8374143872
 20
97.4210415103
 30
0.0
 10
-735.8620659434
 20
97.3855286388
 30
0.0
 10
-735.9095287613
 20
97.3311574138
 30
0.0
 10
-735.9957175073
 20
97.2535326499
 30
0.0
 10
-736.1300603724
 20
97.1482186849
 30
0.0
 10
-736.3015347418
 20
97.0266009201
 30
0.0
 10
-736.5925150065
 20
96.8341967913
 30
0.0
 10
-736.8305946026
 20
96.6898465328
 30
0.0
 10
-736.9994473921
 20
96.5909414842
 30
0.0
  0
SPLINE
  5
63E
100
AcDbEntity
  8
0
100
AcDbSpline
 62
9
  6
CONTINUOUS
 70
0
 71
3
 72
13
 73
9
 74
0
 42
0.0000001
 43
0.0000001
 44
0.0000000001
 40
0.0
 40
0.0
 40
0.0
 40
0.0
 40
0.1335070143
 40
0.2277281042
 40
0.3429602198
 40
0.4791619809
 40
0.6352712052
 40
1.0
 40
1.0
 40
1.0
 40
1.0
 10
-736.0016259552
 20
98.4639248304
 30
0.0
 10
-736.0016259552
 20
98.3955641443
 30
0.0
 10
-736.0687173095
 20
98.2848562508
 30
0.0
 10
-736.197444193
 20
98.1686166006
 30
0.0
 10
-736.3440593736
 20
98.0673318389
 30
0.0
 10
-736.5266776145
 20
97.9664194959
 30
0.0
 10
-736.8322575392
 20
97.8249503887
 30
0.0
 10
-737.0836763376
 20
97.7344397597
 30
0.0
 10
-737.2614929968
 20
97.6773548346
 30
0.0
  0
LINE
  5
63F
100
AcDbEntity
  8
0
100
AcDbLine
 62
9
  6
CONTINUOUS
 10
-671.0016259552
 20
277.4639248304
 11
-733.0016259552
 21
277.4639493267
  0
SPLINE
  5
640
100
AcDbEntity
  8
0
100
AcDbSpline
 62
9
  6
CONTINUOUS
 70
0
 71
3
 72
13
 73
9
 74
0
 42
0.0000001
 43
0.0000001
 44
0.0000000001
 40
0.0
 40
0.0
 40
0.0
 40
0.0
 40
0.2966487855
 40
0.5661206922
 40
0.6869145523
 40
0.7980339794
 40
0.9012638156
 40
1.0
 40
1.0
 40
1.0
 40
1.0
 10
-733.1439268316
 20
177.7147283274
 30
0.0
 10
-733.1243708003
 20
178.0761006493
 30
0.0
 10
-733.0071801772
 20
178.7641584083
 30
0.0
 10
-732.6522758811
 20
179.5389199799
 30
0.0
 10
-732.25851471
 20
180.0115296987
 30
0.0
 10
-731.9352697169
 20
180.267569185
 30
0.0
 10
-731.5837283871
 20
180.4273017344
 30
0.0
 10
-731.3360186751
 20
180.4639248305
 30
0.0
 10
-731.2155640037
 20
180.4639248306
 30
0.0
  0
SPLINE
  5
641
100
AcDbEntity
  8
0
100
AcDbSpline
 62
9
  6
CONTINUOUS
 70
0
 71
3
 72
9
 73
5
 74
0
 42
0.0000001
 43
0.0000001
 44
0.0000000001
 40
0.0
 40
0.0
 40
0.0
 40
0.0
 40
0.500072959
 40
1.0
 40
1.0
 40
1.0
 40
1.0
 10
-733.0016259552
 20
277.4639493267
 30
0.0
 10
-733.3399820169
 20
277.4639492002
 30
0.0
 10
-734.0176823783
 20
277.4180419677
 30
0.0
 10
-734.6805324333
 20
277.2639233306
 30
0.0
 10
-735.0016259552
 20
277.1575420705
 30
0.0
  0
SPLINE
  5
642
100
AcDbEntity
  8
0
100
AcDbSpline
 62
9
  6
CONTINUOUS
 70
0
 71
3
 72
15
 73
11
 74
0
 42
0.0000001
 43
0.0000001
 44
0.0000000001
 40
0.0
 40
0.0
 40
0.0
 40
0.0
 40
0.0314452609
 40
0.0566793922
 40
0.0891336618
 40
0.1761052156
 40
0.2919615575
 40
0.43499023
 40
0.6027193643
 40
1.0
 40
1.0
 40
1.0
 40
1.0
 10
-735.8309771265
 20
273.4613073796
 30
0.0
 10
-735.8258246895
 20
273.4759236908
 30
0.0
 10
-735.8380067173
 20
273.5059677537
 30
0.0
 10
-735.862645131
 20
273.5408149779
 30
0.0
 10
-735.9103589667
 20
273.5947325202
 30
0.0
 10
-735.9966503135
 20
273.6719751198
 30
0.0
 10
-736.1310392472
 20
273.7771648454
 30
0.0
 10
-736.3024384301
 20
273.8989576659
 30
0.0
 10
-736.5931739962
 20
274.0920490078
 30
0.0
 10
-736.8308864214
 20
274.237282944
 30
0.0
 10
-736.999447245
 20
274.3369081766
 30
0.0
  0
SPLINE
  5
643
100
AcDbEntity
  8
0
100
AcDbSpline
 62
9
  6
CONTINUOUS
 70
0
 71
3
 72
13
 73
9
 74
0
 42
0.0000001
 43
0.0000001
 44
0.0000000001
 40
0.0
 40
0.0
 40
0.0
 40
0.0
 40
0.2907347026
 40
0.5612889992
 40
0.6844884193
 40
0.7982183271
 40
0.9028324914
 40
1.0
 40
1.0
 40
1.0
 40
1.0
 10
-737.5016259554
 20
177.4639248304
 30
0.0
 10
-737.5016259554
 20
177.80468952
 30
0.0
 10
-737.4324299907
 20
178.4645177689
 30
0.0
 10
-737.1699800564
 20
179.232580925
 30
0.0
 10
-736.8602392768
 20
179.7429321561
 30
0.0
 10
-736.5974908164
 20
180.0478837339
 30
0.0
 10
-736.304245509
 20
180.2774496068
 30
0.0
 10
-736.086773485
 20
180.3775948843
 30
0.0
 10
-735.9778413976
 20
180.4108262781
 30
0.0
  0
SPLINE
  5
644
100
AcDbEntity
  8
0
100
AcDbSpline
 62
9
  6
CONTINUOUS
 70
0
 71
3
 72
9
 73
5
 74
0
 42
0.0000001
 43
0.0000001
 44
0.0000000001
 40
0.0
 40
0.0
 40
0.0
 40
0.0
 40
0.2529322867
 40
1.0
 40
1.0
 40
1.0
 40
1.0
 10
-735.9522162661
 20
180.4183480957
 30
0.0
 10
-735.9254913016
 20
180.4258852342
 30
0.0
 10
-735.8188778164
 20
180.4521781383
 30
0.0
 10
-735.7086407027
 20
180.4639248304
 30
0.0
 10
-735.6266259554
 20
180.4639248304
 30
0.0
  0
SPLINE
  5
645
100
AcDbEntity
  8
0
100
AcDbSpline
 62
9
  6
CONTINUOUS
 70
0
 71
3
 72
19
 73
15
 74
0
 42
0.0000001
 43
0.0000001
 44
0.0000000001
 40
0.0
 40
0.0
 40
0.0
 40
0.0
 40
0.0090305996
 40
0.0159561434
 40
0.0249171024
 40
0.0493289352
 40
0.0825321479
 40
0.1243939994
 40
0.1745789897
 40
0.2980882706
 40
0.4485028555
 40
0.6201073757
 40
0.8063261773
 40
1.0
 40
1.0
 40
1.0
 40
1.0
 10
-734.1776435227
 20
275.223812995
 30
0.0
 10
-734.1835123775
 20
275.2213122138
 30
0.0
 10
-734.1961939109
 20
275.2253198609
 30
0.0
 10
-734.2095725713
 20
275.2361620037
 30
0.0
 10
-734.2295638381
 20
275.2567756357
 30
0.0
 10
-734.2568898666
 20
275.295111957
 30
0.0
 10
-734.293269914
 20
275.3552978847
 30
0.0
 10
-734.3349221412
 20
275.4333882392
 30
0.0
 10
-734.4019488179
 20
275.5701407211
 30
0.0
 10
-734.4945026499
 20
275.7796401048
 30
0.0
 10
-734.6130118125
 20
276.0712340958
 30
0.0
 10
-734.7405501007
 20
276.406881064
 30
0.0
 10
-734.8721555359
 20
276.7735899327
 30
0.0
 10
-734.9585971863
 20
277.0276683117
 30
0.0
 10
-735.0016259552
 20
277.1575420705
 30
0.0
  0
SPLINE
  5
646
100
AcDbEntity
  8
0
100
AcDbSpline
 62
9
  6
CONTINUOUS
 70
0
 71
3
 72
13
 73
9
 74
0
 42
0.0000001
 43
0.0000001
 44
0.0000000001
 40
0.0
 40
0.0
 40
0.0
 40
0.0
 40
0.2907347026
 40
0.5612889991
 40
0.6844884193
 40
0.7982183271
 40
0.9028324914
 40
1.0
 40
1.0
 40
1.0
 40
1.0
 10
-737.5016259549
 20
193.4639248304
 30
0.0
 10
-737.5016259549
 20
193.1231601409
 30
0.0
 10
-737.4324299909
 20
192.463331892
 30
0.0
 10
-737.1699800565
 20
191.6952687361
 30
0.0
 10
-736.860239277
 20
191.1849175049
 30
0.0
 10
-736.5974908166
 20
190.8799659271
 30
0.0
 10
-736.3042455092
 20
190.6504000541
 30
0.0
 10
-736.0867734853
 20
190.5502547766
 30
0.0
 10
-735.9778413979
 20
190.5170233828
 30
0.0
  0
SPLINE
  5
647
100
AcDbEntity
  8
0
100
AcDbSpline
 62
9
  6
CONTINUOUS
 70
0
 71
3
 72
9
 73
5
 74
0
 42
0.0000001
 43
0.0000001
 44
0.0000000001
 40
0.0
 40
0.0
 40
0.0
 40
0.0
 40
0.2529322865
 40
1.0
 40
1.0
 40
1.0
 40
1.0
 10
-735.9522162582
 20
190.5095015629
 30
0.0
 10
-735.9254912943
 20
190.5019644247
 30
0.0
 10
-735.8188778115
 20
190.4756715219
 30
0.0
 10
-735.7086407006
 20
190.4639248304
 30
0.0
 10
-735.6266259552
 20
190.4639248304
 30
0.0
  0
SPLINE
  5
648
100
AcDbEntity
  8
0
100
AcDbSpline
 62
9
  6
CONTINUOUS
 70
0
 71
3
 72
9
 73
5
 74
0
 42
0.0000001
 43
0.0000001
 44
0.0000000001
 40
0.0
 40
0.0
 40
0.0
 40
0.0
 40
0.5003743843
 40
1.0
 40
1.0
 40
1.0
 40
1.0
 10
-670.9527653227
 20
230.6489902025
 30
0.0
 10
-670.9666998603
 20
230.6852976812
 30
0.0
 10
-670.9915934688
 20
230.7591809943
 30
0.0
 10
-671.0016259404
 20
230.8370962009
 30
0.0
 10
-671.0016259552
 20
230.875927649
 30
0.0
  0
SPLINE
  5
649
100
AcDbEntity
  8
0
100
AcDbSpline
 62
9
  6
CONTINUOUS
 70
0
 71
3
 72
13
 73
9
 74
0
 42
0.0000001
 43
0.0000001
 44
0.0000000001
 40
0.0
 40
0.0
 40
0.0
 40
0.0
 40
0.2966487467
 40
0.5661206587
 40
0.6869145348
 40
0.7980339789
 40
0.901263824
 40
1.0
 40
1.0
 40
1.0
 40
1.0
 10
-733.1439246771
 20
193.2131216136
 30
0.0
 10
-733.1243686811
 20
192.8517495082
 30
0.0
 10
-733.0071782334
 20
192.1636921086
 30
0.0
 10
-732.6522744498
 20
191.3889308014
 30
0.0
 10
-732.2585137768
 20
190.9163209943
 30
0.0
 10
-731.9352691414
 20
190.6602812985
 30
0.0
 10
-731.5837281515
 20
190.5005484067
 30
0.0
 10
-731.3360186081
 20
190.463924994
 30
0.0
 10
-731.2155640037
 20
190.4639248304
 30
0.0
  0
SPLINE
  5
64A
100
AcDbEntity
  8
0
100
AcDbSpline
 62
9
  6
CONTINUOUS
 70
0
 71
3
 72
13
 73
9
 74
0
 42
0.0000001
 43
0.0000001
 44
0.0000000001
 40
0.0
 40
0.0
 40
0.0
 40
0.0
 40
0.2962097236
 40
0.5645084469
 40
0.6850584478
 40
0.7963874562
 40
0.9002904222
 40
1.0
 40
1.0
 40
1.0
 40
1.0
 10
-701.4017028886
 20
193.0699853805
 30
0.0
 10
-701.3719274247
 20
192.7233052903
 30
0.0
 10
-701.2404614588
 20
192.0663677851
 30
0.0
 10
-700.8797217503
 20
191.3320511232
 30
0.0
 10
-700.4904380125
 20
190.8876157904
 30
0.0
 10
-700.173477372
 20
190.6474275713
 30
0.0
 10
-699.830851221
 20
190.4980681241
 30
0.0
 10
-699.5904685177
 20
190.4639248298
 30
0.0
 10
-699.4733400646
 20
190.4639248293
 30
0.0
  0
SPLINE
  5
64B
100
AcDbEntity
  8
0
100
AcDbSpline
 62
9
  6
CONTINUOUS
 70
0
 71
3
 72
15
 73
11
 74
0
 42
0.0000001
 43
0.0000001
 44
0.0000000001
 40
0.0
 40
0.0
 40
0.0
 40
0.0
 40
0.1249672828
 40
0.2499407843
 40
0.37492496
 40
0.4999450453
 40
0.6249539373
 40
0.7499658132
 40
0.8749938596
 40
1.0
 40
1.0
 40
1.0
 40
1.0
 10
-672.0016259552
 20
229.0672503917
 30
0.0
 10
-671.9091192957
 20
229.0672507846
 30
0.0
 10
-671.7232499263
 20
229.0911796456
 30
0.0
 10
-671.4631424193
 20
229.1958644474
 30
0.0
 10
-671.2369966451
 20
229.3616033233
 30
0.0
 10
-671.0569258881
 20
229.5764696962
 30
0.0
 10
-670.9338993328
 20
229.8281844419
 30
0.0
 10
-670.8706861973
 20
230.1010603089
 30
0.0
 10
-670.8733722825
 20
230.3812638151
 30
0.0
 10
-670.9196280888
 20
230.5625915428
 30
0.0
 10
-670.9527653227
 20
230.6489902025
 30
0.0
  0
SPLINE
  5
64C
100
AcDbEntity
  8
0
100
AcDbSpline
 62
9
  6
CONTINUOUS
 70
0
 71
3
 72
11
 73
7
 74
0
 42
0.0000001
 43
0.0000001
 44
0.0000000001
 40
0.0
 40
0.0
 40
0.0
 40
0.0
 40
0.2502221255
 40
0.5003438214
 40
0.7502849025
 40
1.0
 40
1.0
 40
1.0
 40
1.0
 10
-696.2594020162
 20
144.7355438117
 30
0.0
 10
-696.7252160965
 20
144.735543625
 30
0.0
 10
-697.6587238077
 20
144.6530976926
 30
0.0
 10
-699.0136193849
 20
144.2861453309
 30
0.0
 10
-700.2827019773
 20
143.6886076357
 30
0.0
 10
-701.0468412124
 20
143.1485193984
 30
0.0
 10
-701.4017028937
 20
142.848223734
 30
0.0
  0
SPLINE
  5
64D
100
AcDbEntity
  8
0
100
AcDbSpline
 62
9
  6
CONTINUOUS
 70
0
 71
3
 72
9
 73
5
 74
0
 42
0.0000001
 43
0.0000001
 44
0.0000000001
 40
0.0
 40
0.0
 40
0.0
 40
0.0
 40
0.4678041939
 40
1.0
 40
1.0
 40
1.0
 40
1.0
 10
-701.4017028937
 20
177.8578642813
 30
0.0
 10
-700.6008538545
 20
177.9046134464
 30
0.0
 10
-698.8869281211
 20
177.9702414696
 30
0.0
 10
-697.1720361018
 20
177.9914002612
 30
0.0
 10
-696.2594020162
 20
177.9913973579
 30
0.0
  0
SPLINE
  5
64E
100
AcDbEntity
  8
0
100
AcDbSpline
 62
9
  6
CONTINUOUS
 70
0
 71
3
 72
11
 73
7
 74
0
 42
0.0000001
 43
0.0000001
 44
0.0000000001
 40
0.0
 40
0.0
 40
0.0
 40
0.0
 40
0.2497151649
 40
0.4996562505
 40
0.7497779282
 40
1.0
 40
1.0
 40
1.0
 40
1.0
 10
-701.4017028937
 20
228.079625915
 30
0.0
 10
-701.0468387258
 20
227.7793329909
 30
0.0
 10
-700.2827030115
 20
227.2392403079
 30
0.0
 10
-699.013618688
 20
226.6417047141
 30
0.0
 10
-697.6587236994
 20
226.2747516273
 30
0.0
 10
-696.725215999
 20
226.1923060785
 30
0.0
 10
-696.2594020162
 20
226.1923058492
 30
0.0
  0
SPLINE
  5
64F
100
AcDbEntity
  8
0
100
AcDbSpline
 62
9
  6
CONTINUOUS
 70
0
 71
3
 72
9
 73
5
 74
0
 42
0.0000001
 43
0.0000001
 44
0.0000000001
 40
0.0
 40
0.0
 40
0.0
 40
0.0
 40
0.5321958061
 40
1.0
 40
1.0
 40
1.0
 40
1.0
 10
-696.2594020162
 20
192.9364523029
 30
0.0
 10
-697.1720361018
 20
192.9364493995
 30
0.0
 10
-698.8869281208
 20
192.9576081961
 30
0.0
 10
-700.600853855
 20
193.0232362063
 30
0.0
 10
-701.4017028937
 20
193.0699853795
 30
0.0
  0
SPLINE
  5
650
100
AcDbEntity
  8
0
100
AcDbSpline
 62
9
  6
CONTINUOUS
 70
0
 71
3
 72
11
 73
7
 74
0
 42
0.0000001
 43
0.0000001
 44
0.0000000001
 40
0.0
 40
0.0
 40
0.0
 40
0.0
 40
0.2499922568
 40
0.4999916916
 40
0.7499953028
 40
1.0
 40
1.0
 40
1.0
 40
1.0
 10
-731.4248449754
 20
113.1367757444
 30
0.0
 10
-731.6845787239
 20
112.8899761869
 30
0.0
 10
-732.1525362513
 20
112.338861385
 30
0.0
 10
-732.6640473713
 20
111.3847299104
 30
0.0
 10
-732.9654704608
 20
110.3449983079
 30
0.0
 10
-733.0178484512
 20
109.624086026
 30
0.0
 10
-733.0062468585
 20
109.2659661837
 30
0.0
  0
SPLINE
  5
651
100
AcDbEntity
  8
0
100
AcDbSpline
 62
9
  6
CONTINUOUS
 70
0
 71
3
 72
9
 73
5
 74
0
 42
0.0000001
 43
0.0000001
 44
0.0000000001
 40
0.0
 40
0.0
 40
0.0
 40
0.0
 40
0.4999371973
 40
1.0
 40
1.0
 40
1.0
 40
1.0
 10
-735.0016259552
 20
93.7703073507
 30
0.0
 10
-734.6803215655
 20
93.6645876416
 30
0.0
 10
-734.0176245673
 20
93.5105190889
 30
0.0
 10
-733.3399610936
 20
93.4639004602
 30
0.0
 10
-733.0016259552
 20
93.4639003301
 30
0.0
  0
LINE
  5
652
100
AcDbEntity
  8
0
100
AcDbLine
 62
9
  6
CONTINUOUS
 10
-733.0016259552
 20
93.4639003301
 11
-671.0016259552
 21
93.4639248304
  0
SPLINE
  5
653
100
AcDbEntity
  8
0
100
AcDbSpline
 62
9
  6
CONTINUOUS
 70
0
 71
3
 72
10
 73
6
 74
0
 42
0.0000001
 43
0.0000001
 44
0.0000000001
 40
0.0
 40
0.0
 40
0.0
 40
0.0
 40
0.2499999497
 40
0.5000000093
 40
1.0
 40
1.0
 40
1.0
 40
1.0
 10
-699.7911411285
 20
140.3637965562
 30
0.0
 10
-702.3939791332
 20
138.0908186211
 30
0.0
 10
-707.6124815318
 20
133.5595424347
 30
0.0
 10
-718.083484322
 20
124.536365101
 30
0.0
 10
-725.9630356972
 20
117.799579813
 30
0.0
 10
-731.2221701071
 20
113.3155748852
 30
0.0
  0
SPLINE
  5
654
100
AcDbEntity
  8
0
100
AcDbSpline
 62
9
  6
CONTINUOUS
 70
0
 71
3
 72
11
 73
7
 74
0
 42
0.0000001
 43
0.0000001
 44
0.0000000001
 40
0.0
 40
0.0
 40
0.0
 40
0.0
 40
0.249986353
 40
0.4999790986
 40
0.7499828792
 40
1.0
 40
1.0
 40
1.0
 40
1.0
 10
-696.2594020162
 20
141.8605992692
 30
0.0
 10
-696.565007703
 20
141.860599379
 30
0.0
 10
-697.1778024468
 20
141.8020833489
 30
0.0
 10
-698.0626628505
 20
141.5426446621
 30
0.0
 10
-698.8837118778
 20
141.1231761261
 30
0.0
 10
-699.371140353
 20
140.7477572674
 30
0.0
 10
-699.5955268703
 20
140.5402277085
 30
0.0
  0
SPLINE
  5
655
100
AcDbEntity
  8
0
100
AcDbSpline
 62
9
  6
CONTINUOUS
 70
0
 71
3
 72
18
 73
14
 74
0
 42
0.0000001
 43
0.0000001
 44
0.0000000001
 40
0.0
 40
0.0
 40
0.0
 40
0.0
 40
0.2211891953
 40
0.4185471354
 40
0.5897315298
 40
0.732782403
 40
0.8460628906
 40
0.9283603823
 40
0.957663703
 40
0.9790629538
 40
0.9868557248
 40
0.9927982091
 40
1.0
 40
1.0
 40
1.0
 40
1.0
 10
-733.1439268327
 20
193.2131213333
 30
0.0
 10
-733.3562889426
 20
193.2207962039
 30
0.0
 10
-733.7580832063
 20
193.2367614381
 30
0.0
 10
-734.3239867193
 20
193.2643751737
 30
0.0
 10
-734.814603623
 20
193.2939658327
 30
0.0
 10
-735.2241923322
 20
193.324848505
 30
0.0
 10
-735.5479723414
 20
193.3568146702
 30
0.0
 10
-735.762237335
 20
193.3851732679
 30
0.0
 10
-735.88767949
 20
193.4102562781
 30
0.0
 10
-735.9419009332
 20
193.4246504272
 30
0.0
 10
-735.9735778753
 20
193.4373905562
 30
0.0
 10
-735.9907442645
 20
193.4464718522
 30
0.0
 10
-736.0016231264
 20
193.4570059308
 30
0.0
 10
-736.0016259552
 20
193.4639248304
 30
0.0
  0
SPLINE
  5
656
100
AcDbEntity
  8
0
100
AcDbSpline
 62
9
  6
CONTINUOUS
 70
0
 71
3
 72
11
 73
7
 74
0
 42
0.0000001
 43
0.0000001
 44
0.0000000001
 40
0.0
 40
0.0
 40
0.0
 40
0.0
 40
0.2499269918
 40
0.4998808692
 40
0.7498962803
 40
1.0
 40
1.0
 40
1.0
 40
1.0
 10
-735.9758073149
 20
260.8508657036
 30
0.0
 10
-735.935316732
 20
260.3462574702
 30
0.0
 10
-735.7584773271
 20
259.3420922434
 30
0.0
 10
-735.2153792048
 20
257.9142072319
 30
0.0
 10
-734.4135114955
 20
256.613434912
 30
0.0
 10
-733.7238825641
 20
255.8616410605
 30
0.0
 10
-733.347602986
 20
255.5224579408
 30
0.0
  0
SPLINE
  5
657
100
AcDbEntity
  8
0
100
AcDbSpline
 62
9
  6
CONTINUOUS
 70
0
 71
3
 72
18
 73
14
 74
0
 42
0.0000001
 43
0.0000001
 44
0.0000000001
 40
0.0
 40
0.0
 40
0.0
 40
0.0
 40
0.0072017908
 40
0.0131442752
 40
0.0209370462
 40
0.042336297
 40
0.0716396177
 40
0.1539371094
 40
0.267217597
 40
0.4102684702
 40
0.5814528646
 40
0.7788108047
 40
1.0
 40
1.0
 40
1.0
 40
1.0
 10
-736.0016259552
 20
177.4639248304
 30
0.0
 10
-736.0016231264
 20
177.47084373
 30
0.0
 10
-735.9907442645
 20
177.4813778086
 30
0.0
 10
-735.9735778754
 20
177.4904591046
 30
0.0
 10
-735.9419009333
 20
177.5031992337
 30
0.0
 10
-735.88767949
 20
177.5175933828
 30
0.0
 10
-735.762237335
 20
177.5426763928
 30
0.0
 10
-735.5479723414
 20
177.5710349907
 30
0.0
 10
-735.2241923322
 20
177.6030011556
 30
0.0
 10
-734.814603623
 20
177.6338838282
 30
0.0
 10
-734.3239867193
 20
177.6634744873
 30
0.0
 10
-733.7580832063
 20
177.6910882221
 30
0.0
 10
-733.3562889426
 20
177.7070534575
 30
0.0
 10
-733.1439268327
 20
177.7147283275
 30
0.0
  0
SPLINE
  5
658
100
AcDbEntity
  8
0
100
AcDbSpline
 62
9
  6
CONTINUOUS
 70
0
 71
3
 72
11
 73
7
 74
0
 42
0.0000001
 43
0.0000001
 44
0.0000000001
 40
0.0
 40
0.0
 40
0.0
 40
0.0
 40
0.2501037163
 40
0.5001191153
 40
0.7500729848
 40
1.0
 40
1.0
 40
1.0
 40
1.0
 10
-733.347602986
 20
115.40539172
 30
0.0
 10
-733.7239352924
 20
115.066161014
 30
0.0
 10
-734.4136522931
 20
114.3142511389
 30
0.0
 10
-735.2155816785
 20
113.0132622705
 30
0.0
 10
-735.7586618819
 20
111.5851386361
 30
0.0
 10
-735.9354331194
 20
110.5808141716
 30
0.0
 10
-735.9758757189
 20
110.0761308322
 30
0.0
  0
SPLINE
  5
659
100
AcDbEntity
  8
0
100
AcDbSpline
 62
9
  6
CONTINUOUS
 70
0
 71
3
 72
15
 73
11
 74
0
 42
0.0000001
 43
0.0000001
 44
0.0000000001
 40
0.0
 40
0.0
 40
0.0
 40
0.0
 40
0.125006382
 40
0.2500346131
 40
0.3750465783
 40
0.5000554918
 40
0.6250754523
 40
0.7500595886
 40
0.875032936
 40
1.0
 40
1.0
 40
1.0
 40
1.0
 10
-670.9527653227
 20
140.2788594584
 30
0.0
 10
-670.9195935295
 20
140.3652450318
 30
0.0
 10
-670.8733867593
 20
140.5465923699
 30
0.0
 10
-670.8706848625
 20
140.8267882204
 30
0.0
 10
-670.9338988656
 20
141.099667374
 30
0.0
 10
-671.0569276939
 20
141.3513799626
 30
0.0
 10
-671.2369973522
 20
141.5662471171
 30
0.0
 10
-671.4631432444
 20
141.7319854917
 30
0.0
 10
-671.7232503875
 20
141.8366701605
 30
0.0
 10
-671.9091194716
 20
141.8605988414
 30
0.0
 10
-672.0016259552
 20
141.8605992692
 30
0.0
  0
SPLINE
  5
65A
100
AcDbEntity
  8
0
100
AcDbSpline
 62
9
  6
CONTINUOUS
 70
0
 71
3
 72
9
 73
5
 74
0
 42
0.0000001
 43
0.0000001
 44
0.0000000001
 40
0.0
 40
0.0
 40
0.0
 40
0.0
 40
0.4996362299
 40
1.0
 40
1.0
 40
1.0
 40
1.0
 10
-671.0016259552
 20
140.0519220118
 30
0.0
 10
-671.0016264685
 20
140.0907541541
 30
0.0
 10
-670.9915893351
 20
140.1686694583
 30
0.0
 10
-670.9666905914
 20
140.2425494474
 30
0.0
 10
-670.9527653227
 20
140.2788594584
 30
0.0
  0
SPLINE
  5
65B
100
AcDbEntity
  8
0
100
AcDbSpline
 62
9
  6
CONTINUOUS
 70
0
 71
3
 72
13
 73
9
 74
0
 42
0.0000001
 43
0.0000001
 44
0.0000000001
 40
0.0
 40
0.0
 40
0.0
 40
0.0
 40
0.2962096918
 40
0.564508425
 40
0.685058441
 40
0.7963874635
 40
0.9002904343
 40
1.0
 40
1.0
 40
1.0
 40
1.0
 10
-701.4017008626
 20
177.8578638664
 30
0.0
 10
-701.371925442
 20
178.2045437737
 30
0.0
 10
-701.2404596529
 20
178.8614809826
 30
0.0
 10
-700.8797204307
 20
179.5957974537
 30
0.0
 10
-700.4904371512
 20
180.0402329044
 30
0.0
 10
-700.1734768397
 20
180.2804213329
 30
0.0
 10
-699.8308510005
 20
180.4297811018
 30
0.0
 10
-699.5904684535
 20
180.4639246828
 30
0.0
 10
-699.4733400646
 20
180.4639248304
 30
0.0
  0
SPLINE
  5
65C
100
AcDbEntity
  8
0
100
AcDbSpline
 62
9
  6
CONTINUOUS
 70
0
 71
3
 72
11
 73
7
 74
0
 42
0.0000001
 43
0.0000001
 44
0.0000000001
 40
0.0
 40
0.0
 40
0.0
 40
0.0
 40
0.2500171163
 40
0.5000209104
 40
0.750013656
 40
1.0
 40
1.0
 40
1.0
 40
1.0
 10
-699.5955238749
 20
230.3876196076
 30
0.0
 10
-699.3711393701
 20
230.1800883406
 30
0.0
 10
-698.8837095932
 20
229.8046714038
 30
0.0
 10
-698.0626608314
 20
229.3852052096
 30
0.0
 10
-697.1778015368
 20
229.1257660559
 30
0.0
 10
-696.5650073801
 20
229.067250286
 30
0.0
 10
-696.2594020162
 20
229.0672503917
 30
0.0
  0
SPLINE
  5
65D
100
AcDbEntity
  8
0
100
AcDbSpline
 62
9
  6
CONTINUOUS
 70
0
 71
3
 72
10
 73
6
 74
0
 42
0.0000001
 43
0.0000001
 44
0.0000000001
 40
0.0
 40
0.0
 40
0.0
 40
0.0
 40
0.4999999908
 40
0.7500000501
 40
1.0
 40
1.0
 40
1.0
 40
1.0
 10
-731.2221701329
 20
257.6122747976
 30
0.0
 10
-725.9630359322
 20
253.1282696133
 30
0.0
 10
-718.0834842934
 20
246.391484625
 30
0.0
 10
-707.6124815447
 20
237.3683072253
 30
0.0
 10
-702.3939791229
 20
232.8370310592
 30
0.0
 10
-699.7911411285
 20
230.5640531046
 30
0.0
  0
SPLINE
  5
65E
100
AcDbEntity
  8
0
100
AcDbSpline
 62
7
  6
CONTINUOUS
 70
0
 71
3
 72
11
 73
7
 74
0
 42
0.0000001
 43
0.0000001
 44
0.0000000001
 40
0.0
 40
0.0
 40
0.0
 40
0.0
 40
0.2725865725
 40
0.5327560947
 40
0.775574459
 40
1.0
 40
1.0
 40
1.0
 40
1.0
 10
-955.602993951
 20
405.4639248304
 30
0.0
 10
-954.2935037669
 20
407.5756243735
 30
0.0
 10
-951.4017619948
 20
411.504052837
 30
0.0
 10
-946.4396202317
 20
416.5701479293
 30
0.0
 10
-941.1583743856
 20
420.616718631
 30
0.0
 10
-937.3882156351
 20
422.6527304398
 30
0.0
 10
-935.5016259552
 20
423.4438510043
 30
0.0
  0
SPLINE
  5
65F
100
AcDbEntity
  8
0
100
AcDbSpline
 62
9
  6
CONTINUOUS
 70
0
 71
3
 72
27
 73
23
 74
0
 42
0.0000001
 43
0.0000001
 44
0.0000000001
 40
0.0
 40
0.0
 40
0.0
 40
0.0
 40
0.0001738239
 40
0.0006965666
 40
0.0015690326
 40
0.0027920278
 40
0.0062928384
 40
0.01120642
 40
0.0175494587
 40
0.0253440593
 40
0.0346128536
 40
0.0453861482
 40
0.0716083959
 40
0.1043946502
 40
0.1442715313
 40
0.1919409281
 40
0.2483168223
 40
0.314563167
 40
0.4826600552
 40
0.709829827
 40
0.8482937998
 40
1.0
 40
1.0
 40
1.0
 40
1.0
 10
-951.7899315607
 20
34.4984010919
 30
0.0
 10
-951.7884058321
 20
34.4972658647
 30
0.0
 10
-951.792825211
 20
34.5122726743
 30
0.0
 10
-951.7900203219
 20
34.5222500225
 30
0.0
 10
-951.7939728492
 20
34.5548998516
 30
0.0
 10
-951.796518004
 20
34.613527227
 30
0.0
 10
-951.8044176748
 20
34.7205861211
 30
0.0
 10
-951.8149028377
 20
34.8807742334
 30
0.0
 10
-951.8302065333
 20
35.0890084297
 30
0.0
 10
-951.8502470258
 20
35.3441713417
 30
0.0
 10
-951.8761561427
 20
35.6476652382
 30
0.0
 10
-951.9230230073
 20
36.1516338512
 30
0.0
 10
-952.0048002957
 20
36.9107623537
 30
0.0
 10
-952.1442857019
 20
37.9836932186
 30
0.0
 10
-952.3479659355
 20
39.2845224115
 30
0.0
 10
-952.636895503
 20
40.8326254057
 30
0.0
 10
-953.0358284821
 20
42.652815905
 30
0.0
 10
-953.8148469056
 20
45.7371481473
 30
0.0
 10
-955.2863745118
 20
50.5695365677
 30
0.0
 10
-957.1599376829
 20
56.1002132127
 30
0.0
 10
-958.8127853807
 20
61.5140235624
 30
0.0
 10
-959.5713284472
 20
64.6013071864
 30
0.0
 10
-959.8806814633
 20
66.2319755885
 30
0.0
  0
SPLINE
  5
660
100
AcDbEntity
  8
0
100
AcDbSpline
 62
9
  6
CONTINUOUS
 70
0
 71
3
 72
9
 73
5
 74
0
 42
0.0000001
 43
0.0000001
 44
0.0000000001
 40
0.0
 40
0.0
 40
0.0
 40
0.0
 40
0.2541833996
 40
1.0
 40
1.0
 40
1.0
 40
1.0
 10
-959.8806814633
 20
66.2319755885
 30
0.0
 10
-959.9749454466
 20
66.7286920759
 30
0.0
 10
-960.3128750765
 20
68.6882943763
 30
0.0
 10
-960.5016199474
 20
70.6788582187
 30
0.0
 10
-960.5016259552
 20
72.1623197975
 30
0.0
  0
SPLINE
  5
661
100
AcDbEntity
  8
0
100
AcDbSpline
 62
9
  6
CONTINUOUS
 70
0
 71
3
 72
18
 73
14
 74
0
 42
0.0000001
 43
0.0000001
 44
0.0000000001
 40
0.0
 40
0.0
 40
0.0
 40
0.0
 40
0.2311615534
 40
0.4331859155
 40
0.6052637576
 40
0.7467511334
 40
0.8572633635
 40
0.9007914015
 40
0.9364509641
 40
0.9642218218
 40
0.9840841839
 40
0.9960174064
 40
1.0
 40
1.0
 40
1.0
 40
1.0
 10
-775.5016259889
 20
423.4438805622
 30
0.0
 10
-775.5015652338
 20
423.5995392253
 30
0.0
 10
-775.5023681598
 20
423.8912397508
 30
0.0
 10
-775.5052219914
 20
424.2987897413
 30
0.0
 10
-775.5076478885
 20
424.645996625
 30
0.0
 10
-775.5084581261
 20
424.9314786583
 30
0.0
 10
-775.507692309
 20
425.1306688605
 30
0.0
 10
-775.5066789028
 20
425.2581148282
 30
0.0
 10
-775.5048597773
 20
425.3307326744
 30
0.0
 10
-775.505258769
 20
425.3852451214
 30
0.0
 10
-775.5004028274
 20
425.4288782113
 30
0.0
 10
-775.506147554
 20
425.4467427208
 30
0.0
 10
-775.4989444081
 20
425.4638916938
 30
0.0
 10
-775.5016259869
 20
425.4639248304
 30
0.0
  0
SPLINE
  5
662
100
AcDbEntity
  8
0
100
AcDbSpline
 62
7
  6
CONTINUOUS
 70
0
 71
3
 72
9
 73
5
 74
0
 42
0.0000001
 43
0.0000001
 44
0.0000000001
 40
0.0
 40
0.0
 40
0.0
 40
0.0
 40
0.5002863468
 40
1.0
 40
1.0
 40
1.0
 40
1.0
 10
-960.5016259552
 20
387.2966685266
 30
0.0
 10
-960.5016259552
 20
390.4646297892
 30
0.0
 10
-959.7418927092
 20
396.8251752467
 30
0.0
 10
-957.2706249998
 20
402.7746830429
 30
0.0
 10
-955.602993951
 20
405.4639248304
 30
0.0
  0
SPLINE
  5
663
100
AcDbEntity
  8
0
100
AcDbSpline
 62
7
  6
CONTINUOUS
 70
0
 71
3
 72
14
 73
10
 74
0
 42
0.0000001
 43
0.0000001
 44
0.0000000001
 40
0.0
 40
0.0
 40
0.0
 40
0.0
 40
0.0934234542
 40
0.1938158015
 40
0.3030488057
 40
0.4221731632
 40
0.6914667876
 40
0.8423274306
 40
1.0
 40
1.0
 40
1.0
 40
1.0
 10
-790.5016259552
 20
410.9443471729
 30
0.0
 10
-790.5016259552
 20
410.0603575233
 30
0.0
 10
-790.7530217484
 20
408.2214822275
 30
0.0
 10
-791.77272929
 20
405.5217459627
 30
0.0
 10
-793.4111300855
 20
402.8566814707
 30
0.0
 10
-796.5324979031
 20
399.3098211685
 30
0.0
 10
-800.8657662394
 20
396.3858488822
 30
0.0
 10
-806.0790463612
 20
394.6492506134
 30
0.0
 10
-809.009699538
 20
394.323749744
 30
0.0
 10
-810.5016259552
 20
394.323749744
 30
0.0
  0
SPLINE
  5
664
100
AcDbEntity
  8
0
100
AcDbSpline
 62
7
  6
CONTINUOUS
 70
0
 71
3
 72
14
 73
10
 74
0
 42
0.0000001
 43
0.0000001
 44
0.0000000001
 40
0.0
 40
0.0
 40
0.0
 40
0.0
 40
0.1576729493
 40
0.3085351044
 40
0.57783034
 40
0.6969543782
 40
0.8061864924
 40
0.9065773672
 40
1.0
 40
1.0
 40
1.0
 40
1.0
 10
-890.5016259552
 20
394.323749744
 30
0.0
 10
-891.9935560293
 20
394.323749744
 30
0.0
 10
-894.9242270232
 20
394.6492547783
 30
0.0
 10
-900.1375381972
 20
396.3858675315
 30
0.0
 10
-904.4708207598
 20
399.3098711903
 30
0.0
 10
-907.5921750085
 20
402.8567491209
 30
0.0
 10
-909.2305469422
 20
405.5218012506
 30
0.0
 10
-910.2502370573
 20
408.2215113356
 30
0.0
 10
-910.5016259552
 20
410.0603652592
 30
0.0
 10
-910.5016259552
 20
410.9443471729
 30
0.0
  0
SPLINE
  5
665
100
AcDbEntity
  8
0
100
AcDbSpline
 62
9
  6
CONTINUOUS
 70
0
 71
3
 72
14
 73
10
 74
0
 42
0.0000001
 43
0.0000001
 44
0.0000000001
 40
0.0
 40
0.0
 40
0.0
 40
0.0
 40
0.0645423975
 40
0.1430291621
 40
0.2420437641
 40
0.3625727167
 40
0.5028373868
 40
0.6592618002
 40
1.0
 40
1.0
 40
1.0
 40
1.0
 10
-960.5016276557
 20
72.1623197975
 30
0.0
 10
-960.5016274511
 20
72.0654222339
 30
0.0
 10
-960.5688609566
 20
71.8499300549
 30
0.0
 10
-960.8190159045
 20
71.5774723938
 30
0.0
 10
-961.1983816247
 20
71.3347626737
 30
0.0
 10
-961.6972846283
 20
71.1231223717
 30
0.0
 10
-962.3003529037
 20
70.9495355868
 30
0.0
 10
-963.2416668741
 20
70.7721527063
 30
0.0
 10
-963.9900753671
 20
70.7226503347
 30
0.0
 10
-964.5016259552
 20
70.7226501368
 30
0.0
  0
SPLINE
  5
666
100
AcDbEntity
  8
0
100
AcDbSpline
 62
9
  6
CONTINUOUS
 70
0
 71
3
 72
9
 73
5
 74
0
 42
0.0000001
 43
0.0000001
 44
0.0000000001
 40
0.0
 40
0.0
 40
0.0
 40
0.0
 40
0.2557950577
 40
1.0
 40
1.0
 40
1.0
 40
1.0
 10
-963.7813303446
 20
65.4639248304
 30
0.0
 10
-963.8927802739
 20
65.9031841608
 30
0.0
 10
-964.2898593041
 20
67.6291615788
 30
0.0
 10
-964.5014874085
 20
69.4041855237
 30
0.0
 10
-964.5016259552
 20
70.7226509232
 30
0.0
  0
SPLINE
  5
667
100
AcDbEntity
  8
0
100
AcDbSpline
 62
9
  6
CONTINUOUS
 70
0
 71
3
 72
27
 73
23
 74
0
 42
0.0000001
 43
0.0000001
 44
0.0000000001
 40
0.0
 40
0.0
 40
0.0
 40
0.0
 40
0.0001680693
 40
0.0006737682
 40
0.00151799
 40
0.00270163
 40
0.0060907544
 40
0.0108489481
 40
0.0169932933
 40
0.024548289
 40
0.0335389624
 40
0.0439959381
 40
0.0694867695
 40
0.1014326234
 40
0.1404042809
 40
0.1871635002
 40
0.2427107825
 40
0.3083344491
 40
0.476528253
 40
0.706823396
 40
0.8474604138
 40
1.0
 40
1.0
 40
1.0
 40
1.0
 10
-954.3960607155
 20
35.4639217604
 30
0.0
 10
-954.3946577886
 20
35.4628466968
 30
0.0
 10
-954.3988322667
 20
35.4768413918
 30
0.0
 10
-954.3963766374
 20
35.4860642894
 30
0.0
 10
-954.4003133987
 20
35.51644231
 30
0.0
 10
-954.4032470584
 20
35.5709361159
 30
0.0
 10
-954.4116014013
 20
35.6705129212
 30
0.0
 10
-954.4229285197
 20
35.8195090365
 30
0.0
 10
-954.4392315846
 20
36.0132737214
 30
0.0
 10
-954.4605540556
 20
36.2508113826
 30
0.0
 10
-954.4880601318
 20
36.5334915174
 30
0.0
 10
-954.5375643566
 20
37.0034662515
 30
0.0
 10
-954.623651771
 20
37.7123236343
 30
0.0
 10
-954.7697245785
 20
38.7157177854
 30
0.0
 10
-954.9828493414
 20
39.9349544717
 30
0.0
 10
-955.2857514103
 20
41.3897674886
 30
0.0
 10
-955.7063677853
 20
43.1053570876
 30
0.0
 10
-956.5394622094
 20
46.0328732778
 30
0.0
 10
-958.15255352
 20
50.6439303437
 30
0.0
 10
-960.3259305785
 20
55.8816989184
 30
0.0
 10
-962.3939772335
 20
60.9819577518
 30
0.0
 10
-963.3867004705
 20
63.9090638804
 30
0.0
 10
-963.7813303446
 20
65.4639248304
 30
0.0
  0
SPLINE
  5
668
100
AcDbEntity
  8
0
100
AcDbSpline
 62
9
  6
CONTINUOUS
 70
0
 71
3
 72
15
 73
11
 74
0
 42
0.0000001
 43
0.0000001
 44
0.0000000001
 40
0.0
 40
0.0
 40
0.0
 40
0.0
 40
0.1194354469
 40
0.2398744965
 40
0.3619421264
 40
0.4860345347
 40
0.6122345477
 40
0.7402974911
 40
0.8697898973
 40
1.0
 40
1.0
 40
1.0
 40
1.0
 10
-750.5016259552
 20
400.4639248469
 30
0.0
 10
-750.5024692768
 20
401.9620490915
 30
0.0
 10
-750.8269092266
 20
404.9805140493
 30
0.0
 10
-752.2663351034
 20
409.3202209549
 30
0.0
 10
-754.6000499554
 20
413.3202343392
 30
0.0
 10
-757.7343712166
 20
416.8242568573
 30
0.0
 10
-761.5474944742
 20
419.6984809137
 30
0.0
 10
-765.8930817885
 20
421.8340142902
 30
0.0
 10
-770.6030938244
 20
423.1480223224
 30
0.0
 10
-773.8683508464
 20
423.4437916069
 30
0.0
 10
-775.5016259552
 20
423.4438510043
 30
0.0
  0
SPLINE
  5
669
100
AcDbEntity
  8
0
100
AcDbSpline
 62
9
  6
CONTINUOUS
 70
0
 71
3
 72
18
 73
14
 74
0
 42
0.0000001
 43
0.0000001
 44
0.0000000001
 40
0.0
 40
0.0
 40
0.0
 40
0.0
 40
0.1949656124
 40
0.382510138
 40
0.5553514023
 40
0.7069101772
 40
0.8313240703
 40
0.8818123148
 40
0.9238035671
 40
0.9568939478
 40
0.9807616995
 40
0.9951652539
 40
1.0
 40
1.0
 40
1.0
 40
1.0
 10
1855.2113071412
 20
400.4639248304
 30
0.0
 10
1855.2931998534
 20
402.0883367859
 30
0.0
 10
1855.4359157643
 20
405.2762058687
 30
0.0
 10
1855.6539455887
 20
409.9040127251
 30
0.0
 10
1855.8533012629
 20
414.1701893028
 30
0.0
 10
1856.0260451721
 20
417.9103720377
 30
0.0
 10
1856.1526516331
 20
420.6308873425
 30
0.0
 10
1856.2363409737
 20
422.4383513879
 30
0.0
 10
1856.2842239352
 20
423.4848154086
 30
0.0
 10
1856.3232336489
 20
424.3093429532
 30
0.0
 10
1856.3482909777
 20
424.9041982019
 30
0.0
 10
1856.3689957683
 20
425.2631390546
 30
0.0
 10
1856.3721096594
 20
425.4237558877
 30
0.0
 10
1856.3757578252
 20
425.463923791
 30
0.0
  0
SPLINE
  5
66A
100
AcDbEntity
  8
0
100
AcDbSpline
 62
9
  6
CONTINUOUS
 70
0
 71
3
 72
21
 73
17
 74
0
 42
0.0000001
 43
0.0000001
 44
0.0000000001
 40
0.0
 40
0.0
 40
0.0
 40
0.0
 40
0.0012122383
 40
0.0048307711
 40
0.0108432077
 40
0.0192371574
 40
0.0431067441
 40
0.076196556
 40
0.1181870197
 40
0.1686752396
 40
0.2271587342
 40
0.2930894059
 40
0.4446481482
 40
0.6174895496
 40
0.8050342181
 40
1.0
 40
1.0
 40
1.0
 40
1.0
 10
1736.375731654
 20
425.4639248304
 30
0.0
 10
1736.3747785824
 20
425.4538569024
 30
0.0
 10
1736.3800586516
 20
425.4135154397
 30
0.0
 10
1736.3809378331
 20
425.3232346841
 30
0.0
 10
1736.3897335479
 20
425.1729786117
 30
0.0
 10
1736.4033294464
 20
424.8540334914
 30
0.0
 10
1736.429249412
 20
424.3093889461
 30
0.0
 10
1736.4668423666
 20
423.484797124
 30
0.0
 10
1736.515257999
 20
422.4383672266
 30
0.0
 10
1736.5733526135
 20
421.1803296147
 30
0.0
 10
1736.640949864
 20
419.7227949362
 30
0.0
 10
1736.74801257
 20
417.4230185608
 30
0.0
 10
1736.8981278318
 20
414.170197129
 30
0.0
 10
1737.0975269033
 20
409.9040209831
 30
0.0
 10
1737.3155432507
 20
405.2762095995
 30
0.0
 10
1737.4582830448
 20
402.0883391792
 30
0.0
 10
1737.5401561668
 20
400.4639248304
 30
0.0
  0
SPLINE
  5
66B
100
AcDbEntity
  8
0
100
AcDbSpline
 62
9
  6
CONTINUOUS
 70
0
 71
3
 72
28
 73
24
 74
0
 42
0.0000001
 43
0.0000001
 44
0.0000000001
 40
0.0
 40
0.0
 40
0.0
 40
0.0
 40
0.194947142
 40
0.3824748235
 40
0.4711462175
 40
0.5553059549
 40
0.6341382011
 40
0.7068643193
 40
0.772798983
 40
0.8312887317
 40
0.8817846845
 40
0.923783461
 40
0.9414651829
 40
0.9568811246
 40
0.9699914068
 40
0.9807570044
 40
0.9891532545
 40
0.992458871
 40
0.9951674188
 40
0.9972773509
 40
0.9987871203
 40
0.9996951813
 40
1.0
 40
1.0
 40
1.0
 40
1.0
 10
1737.5401561595
 20
400.4639248469
 30
0.0
 10
1736.8893363425
 20
401.9546405449
 30
0.0
 10
1735.600788759
 20
404.874224566
 30
0.0
 10
1734.0322649339
 20
408.4788906088
 30
0.0
 10
1732.8386910893
 20
411.2385827459
 30
0.0
 10
1732.0061947314
 20
413.1663240057
 30
0.0
 10
1731.2284713737
 20
414.9727985296
 30
0.0
 10
1730.5132434477
 20
416.6406171864
 30
0.0
 10
1729.866633237
 20
418.1531786367
 30
0.0
 10
1729.2940011903
 20
419.4956435331
 30
0.0
 10
1728.8004966715
 20
420.6547355898
 30
0.0
 10
1728.44081445
 20
421.5007335412
 30
0.0
 10
1728.1958645201
 20
422.0774590346
 30
0.0
 10
1728.0452285392
 20
422.4323571624
 30
0.0
 10
1727.9172434447
 20
422.7341981199
 30
0.0
 10
1727.8121510987
 20
422.9820765044
 30
0.0
 10
1727.7391796915
 20
423.1548407288
 30
0.0
 10
1727.6921707072
 20
423.2653749834
 30
0.0
 10
1727.6660856043
 20
423.3282198823
 30
0.0
 10
1727.6446553663
 20
423.3757655488
 30
0.0
 10
1727.6318426732
 20
423.4129984096
 30
0.0
 10
1727.6195696152
 20
423.4295994707
 30
0.0
 10
1727.6191067449
 20
423.4433791472
 30
0.0
 10
1727.6166075664
 20
423.4438510043
 30
0.0
  0
SPLINE
  5
66C
100
AcDbEntity
  8
0
100
AcDbSpline
 62
9
  6
CONTINUOUS
 70
0
 71
3
 72
28
 73
24
 74
0
 42
0.0000001
 43
0.0000001
 44
0.0000000001
 40
0.0
 40
0.0
 40
0.0
 40
0.0
 40
0.0003048189
 40
0.00121288
 40
0.0027226494
 40
0.0048325815
 40
0.0075411294
 40
0.0108467458
 40
0.0192429957
 40
0.0300085932
 40
0.0431188754
 40
0.0585348171
 40
0.0762165391
 40
0.1182153156
 40
0.1687112683
 40
0.2272010169
 40
0.2931356809
 40
0.3658617993
 40
0.4446940453
 40
0.5288537825
 40
0.6175251767
 40
0.8050528581
 40
1.0
 40
1.0
 40
1.0
 40
1.0
 10
1865.1348557415
 20
423.4438510043
 30
0.0
 10
1865.1323565745
 20
423.4433790774
 30
0.0
 10
1865.1318936656
 20
423.4295995686
 30
0.0
 10
1865.1196206384
 20
423.4129983421
 30
0.0
 10
1865.1068079217
 20
423.3757655748
 30
0.0
 10
1865.0853776901
 20
423.328219868
 30
0.0
 10
1865.0592925827
 20
423.2653749867
 30
0.0
 10
1865.012283601
 20
423.1548407266
 30
0.0
 10
1864.9393121995
 20
422.9820765074
 30
0.0
 10
1864.8342198736
 20
422.7341981151
 30
0.0
 10
1864.7062348062
 20
422.4323571477
 30
0.0
 10
1864.5555988464
 20
422.0774590102
 30
0.0
 10
1864.3106489247
 20
421.5007335127
 30
0.0
 10
1863.9509666086
 20
420.6547356027
 30
0.0
 10
1863.4574619136
 20
419.4956436227
 30
0.0
 10
1862.8848299511
 20
418.1531786898
 30
0.0
 10
1862.2382201988
 20
416.6406170402
 30
0.0
 10
1861.5229924097
 20
414.9727983223
 30
0.0
 10
1860.7452682288
 20
413.1663241545
 30
0.0
 10
1859.912771103
 20
411.23858323
 30
0.0
 10
1858.7192000839
 20
408.4788898736
 30
0.0
 10
1857.1506749825
 20
404.874224381
 30
0.0
 10
1855.8621090123
 20
401.9546483817
 30
0.0
 10
1855.2113071485
 20
400.463924847
 30
0.0
  0
SPLINE
  5
66D
100
AcDbEntity
  8
0
100
AcDbSpline
 62
9
  6
CONTINUOUS
 70
0
 71
3
 72
16
 73
12
 74
0
 42
0.0000001
 43
0.0000001
 44
0.0000000001
 40
0.0
 40
0.0
 40
0.0
 40
0.0
 40
0.0082827553
 40
0.0240828046
 40
0.081947678
 40
0.1744671054
 40
0.2981898995
 40
0.4486811786
 40
0.620360466
 40
0.8068808616
 40
1.0
 40
1.0
 40
1.0
 40
1.0
 10
1856.3757316352
 20
425.4638045621
 30
0.0
 10
1856.3868655117
 20
425.4638026791
 30
0.0
 10
1856.4128480183
 20
425.4917372198
 30
0.0
 10
1856.4492275699
 20
425.5918816001
 30
0.0
 10
1856.4942803129
 20
425.8152289991
 30
0.0
 10
1856.5372541295
 20
426.179092766
 30
0.0
 10
1856.5777011925
 20
426.6713866645
 30
0.0
 10
1856.6106528453
 20
427.2695845914
 30
0.0
 10
1856.635597461
 20
427.9530620994
 30
0.0
 10
1856.6508029026
 20
428.6939951216
 30
0.0
 10
1856.6543068878
 20
429.2043294902
 30
0.0
 10
1856.6543061543
 20
429.4639248305
 30
0.0
  0
SPLINE
  5
66E
100
AcDbEntity
  8
0
100
AcDbSpline
 62
9
  6
CONTINUOUS
 70
0
 71
3
 72
21
 73
17
 74
0
 42
0.0000001
 43
0.0000001
 44
0.0000000001
 40
0.0
 40
0.0
 40
0.0
 40
0.0
 40
0.0012251491
 40
0.0048592888
 40
0.0108849744
 40
0.0192803015
 40
0.0430901121
 40
0.0761083463
 40
0.1180942059
 40
0.1685674256
 40
0.2269878492
 40
0.2928152941
 40
0.4442576482
 40
0.6172088365
 40
0.8052348887
 40
1.0
 40
1.0
 40
1.0
 40
1.0
 10
1865.1348514474
 20
423.4438421901
 30
0.0
 10
1865.1333851616
 20
423.4445565641
 30
0.0
 10
1865.1401643563
 20
423.4527336213
 30
0.0
 10
1865.1418694603
 20
423.4638942943
 30
0.0
 10
1865.1542187251
 20
423.4869249191
 30
0.0
 10
1865.1742900928
 20
423.5323569827
 30
0.0
 10
1865.2124449534
 20
423.6113818286
 30
0.0
 10
1865.2685416838
 20
423.7298885858
 30
0.0
 10
1865.3409114288
 20
423.8806346592
 30
0.0
 10
1865.4278739605
 20
424.0616349887
 30
0.0
 10
1865.5288836808
 20
424.2711881119
 30
0.0
 10
1865.6884718358
 20
424.601696135
 30
0.0
 10
1865.914819558
 20
425.0693030322
 30
0.0
 10
1866.2125651679
 20
425.6830828491
 30
0.0
 10
1866.5359687301
 20
426.3485222786
 30
0.0
 10
1866.7590113751
 20
426.8067329242
 30
0.0
 10
1866.8725688804
 20
427.0398362391
 30
0.0
  0
SPLINE
  5
66F
100
AcDbEntity
  8
0
100
AcDbSpline
 62
9
  6
CONTINUOUS
 70
0
 71
3
 72
23
 73
19
 74
0
 42
0.0000001
 43
0.0000001
 44
0.0000000001
 40
0.0
 40
0.0
 40
0.0
 40
0.0
 40
0.1363568098
 40
0.2720838948
 40
0.4067087133
 40
0.5397583652
 40
0.6706081785
 40
0.7348997885
 40
0.7981012084
 40
0.8597131184
 40
0.8896256473
 40
0.9186212981
 40
0.9462064748
 40
0.9713342495
 40
0.9822797207
 40
0.9913982178
 40
0.997691045
 40
1.0
 40
1.0
 40
1.0
 40
1.0
 10
1866.8725688814
 20
427.0398362391
 30
0.0
 10
1870.6169947819
 20
425.1638083117
 30
0.0
 10
1877.9401463656
 20
421.1151691398
 30
0.0
 10
1888.3546368472
 20
414.1932518109
 30
0.0
 10
1898.0894207312
 20
406.5053587185
 30
0.0
 10
1907.0475259856
 20
398.1439713948
 30
0.0
 10
1913.8240574217
 20
390.6634150241
 30
0.0
 10
1918.7567672652
 20
384.4453482446
 30
0.0
 10
1922.1607605187
 20
379.7366628522
 30
0.0
 10
1924.7646136529
 20
375.7588608928
 30
0.0
 10
1926.6767828154
 20
372.5889300181
 30
0.0
 10
1927.9921916068
 20
370.2805255382
 30
0.0
 10
1929.1791486735
 20
368.0690765432
 30
0.0
 10
1930.0617314342
 20
366.3240875436
 30
0.0
 10
1930.6640705827
 20
365.073606802
 30
0.0
 10
1931.011406915
 20
364.3422305056
 30
0.0
 10
1931.233217889
 20
363.8453724292
 30
0.0
 10
1931.349380594
 20
363.6077691592
 30
0.0
 10
1931.3756925728
 20
363.5419130207
 30
0.0
  0
SPLINE
  5
670
100
AcDbEntity
  8
0
100
AcDbSpline
 62
9
  6
CONTINUOUS
 70
0
 71
3
 72
15
 73
11
 74
0
 42
0.0000001
 43
0.0000001
 44
0.0000000001
 40
0.0
 40
0.0
 40
0.0
 40
0.0
 40
0.1245016175
 40
0.2490566544
 40
0.3737531405
 40
0.498635623
 40
0.6237284471
 40
0.7490217694
 40
0.8744638449
 40
1.0
 40
1.0
 40
1.0
 40
1.0
 10
1049.8865645686
 20
-277.7866534194
 30
0.0
 10
1049.8865719514
 20
-278.045982356
 30
0.0
 10
1049.9380998209
 20
-278.5662112981
 30
0.0
 10
1050.1671483804
 20
-279.315327936
 30
0.0
 10
1050.5390774795
 20
-280.0059710176
 30
0.0
 10
1051.0396969709
 20
-280.6112171624
 30
0.0
 10
1051.6497337152
 20
-281.107922787
 30
0.0
 10
1052.3458442015
 20
-281.4769647231
 30
0.0
 10
1053.1008790884
 20
-281.704256561
 30
0.0
 10
1053.6250807562
 20
-281.755384546
 30
0.0
 10
1053.8865645686
 20
-281.7553949144
 30
0.0
  0
SPLINE
  5
671
100
AcDbEntity
  8
0
100
AcDbSpline
 62
9
  6
CONTINUOUS
 70
0
 71
3
 72
11
 73
7
 74
0
 42
0.0000001
 43
0.0000001
 44
0.0000000001
 40
0.0
 40
0.0
 40
0.0
 40
0.0
 40
0.1637100438
 40
0.4006069181
 40
0.68777431
 40
1.0
 40
1.0
 40
1.0
 40
1.0
 10
1119.1464315018
 20
-282.7098339955
 30
0.0
 10
1119.1785029423
 20
-282.5421256295
 30
0.0
 10
1119.2382221361
 20
-282.1282796014
 30
0.0
 10
1119.312760547
 20
-281.4147382354
 30
0.0
 10
1119.3701641543
 20
-280.5441623498
 30
0.0
 10
1119.3865549365
 20
-279.9189595619
 30
0.0
 10
1119.3865550234
 20
-279.593312324
 30
0.0
  0
SPLINE
  5
672
100
AcDbEntity
  8
0
100
AcDbSpline
 62
9
  6
CONTINUOUS
 70
0
 71
3
 72
11
 73
7
 74
0
 42
0.0000001
 43
0.0000001
 44
0.0000000001
 40
0.0
 40
0.0
 40
0.0
 40
0.0
 40
0.3123150576
 40
0.599625108
 40
0.836601476
 40
1.0
 40
1.0
 40
1.0
 40
1.0
 10
1119.3865550243
 20
-367.593312324
 30
0.0
 10
1119.3865549364
 20
-367.2675854841
 30
0.0
 10
1119.369794072
 20
-366.642163402
 30
0.0
 10
1119.3114571228
 20
-365.7713711843
 30
0.0
 10
1119.2365690482
 20
-365.057974018
 30
0.0
 10
1119.1773521849
 20
-364.6443774462
 30
0.0
 10
1119.1464316102
 20
-364.4767907074
 30
0.0
  0
SPLINE
  5
673
100
AcDbEntity
  8
0
100
AcDbSpline
 62
9
  6
CONTINUOUS
 70
0
 71
3
 72
9
 73
5
 74
0
 42
0.0000001
 43
0.0000001
 44
0.0000000001
 40
0.0
 40
0.0
 40
0.0
 40
0.0
 40
0.4956959773
 40
1.0
 40
1.0
 40
1.0
 40
1.0
 10
1119.1464316102
 20
-364.4767907074
 30
0.0
 10
1119.1371591053
 20
-364.4265336772
 30
0.0
 10
1119.1038481883
 20
-364.3267089286
 30
0.0
 10
1119.0371794062
 20
-364.245035368
 30
0.0
 10
1118.9987009812
 20
-364.2100688716
 30
0.0
  0
SPLINE
  5
674
100
AcDbEntity
  8
0
100
AcDbSpline
 62
9
  6
CONTINUOUS
 70
0
 71
3
 72
9
 73
5
 74
0
 42
0.0000001
 43
0.0000001
 44
0.0000000001
 40
0.0
 40
0.0
 40
0.0
 40
0.0
 40
0.2400483714
 40
1.0
 40
1.0
 40
1.0
 40
1.0
 10
1118.9724863683
 20
-364.1876833038
 30
0.0
 10
1118.965843848
 20
-364.1823463283
 30
0.0
 10
1118.937694846
 20
-364.1607092474
 30
0.0
 10
1118.9077641915
 20
-364.1414322155
 30
0.0
 10
1118.8843942234
 20
-364.1279585658
 30
0.0
  0
SPLINE
  5
675
100
AcDbEntity
  8
0
100
AcDbSpline
 62
9
  6
CONTINUOUS
 70
0
 71
3
 72
9
 73
5
 74
0
 42
0.0000001
 43
0.0000001
 44
0.0000000001
 40
0.0
 40
0.0
 40
0.0
 40
0.0
 40
0.2616297948
 40
1.0
 40
1.0
 40
1.0
 40
1.0
 10
1118.8844763061
 20
-283.0586187521
 30
0.0
 10
1118.8927411759
 20
-283.05385249
 30
0.0
 10
1118.9240121753
 20
-283.0350948883
 30
0.0
 10
1118.9539481612
 20
-283.0140551069
 30
0.0
 10
1118.9748613933
 20
-282.997095341
 30
0.0
  0
SPLINE
  5
676
100
AcDbEntity
  8
0
100
AcDbSpline
 62
9
  6
CONTINUOUS
 70
0
 71
3
 72
9
 73
5
 74
0
 42
0.0000001
 43
0.0000001
 44
0.0000000001
 40
0.0
 40
0.0
 40
0.0
 40
0.0
 40
0.5029782956
 40
1.0
 40
1.0
 40
1.0
 40
1.0
 10
1118.9991885333
 20
-282.9762035001
 30
0.0
 10
1119.0374539139
 20
-282.9413625257
 30
0.0
 10
1119.1037677497
 20
-282.8596360981
 30
0.0
 10
1119.1368264426
 20
-282.7600616668
 30
0.0
 10
1119.1464315018
 20
-282.7098339955
 30
0.0
  0
SPLINE
  5
677
100
AcDbEntity
  8
0
100
AcDbSpline
 62
9
  6
CONTINUOUS
 70
0
 71
3
 72
11
 73
7
 74
0
 42
0.0000001
 43
0.0000001
 44
0.0000000001
 40
0.0
 40
0.0
 40
0.0
 40
0.0
 40
0.2499364461
 40
0.4999140573
 40
0.7499420178
 40
1.0
 40
1.0
 40
1.0
 40
1.0
 10
1053.8865645686
 20
-368.3844944919
 30
0.0
 10
1053.7555330645
 20
-368.3845045138
 30
0.0
 10
1053.4904781645
 20
-368.4382985032
 30
0.0
 10
1053.1580672187
 20
-368.6665725209
 30
0.0
 10
1052.9377426884
 20
-369.0039385093
 30
0.0
 10
1052.8865741722
 20
-369.268876008
 30
0.0
 10
1052.8865645686
 20
-369.3999712285
 30
0.0
  0
SPLINE
  5
678
100
AcDbEntity
  8
0
100
AcDbSpline
 62
9
  6
CONTINUOUS
 70
0
 71
3
 72
11
 73
7
 74
0
 42
0.0000001
 43
0.0000001
 44
0.0000000001
 40
0.0
 40
0.0
 40
0.0
 40
0.0
 40
0.2500083417
 40
0.5000052994
 40
0.7499996279
 40
1.0
 40
1.0
 40
1.0
 40
1.0
 10
1081.3582786779
 20
-369.5723092513
 30
0.0
 10
1081.136596781
 20
-369.3835135903
 30
0.0
 10
1080.6592979421
 20
-369.0438067157
 30
0.0
 10
1079.8661055418
 20
-368.6675967733
 30
0.0
 10
1079.0191611423
 20
-368.4364403292
 30
0.0
 10
1078.4355128456
 20
-368.3845042022
 30
0.0
 10
1078.1443406295
 20
-368.3844944919
 30
0.0
  0
SPLINE
  5
679
100
AcDbEntity
  8
0
100
AcDbSpline
 62
9
  6
CONTINUOUS
 70
0
 71
3
 72
11
 73
7
 74
0
 42
0.0000001
 43
0.0000001
 44
0.0000000001
 40
0.0
 40
0.0
 40
0.0
 40
0.0
 40
0.2500043589
 40
0.5000039987
 40
0.7500015826
 40
1.0
 40
1.0
 40
1.0
 40
1.0
 10
1114.8865645686
 20
-400.3122213913
 30
0.0
 10
1114.8865514114
 20
-399.9477049846
 30
0.0
 10
1114.8071181335
 20
-399.2162351396
 30
0.0
 10
1114.4548869
 20
-398.1722019778
 30
0.0
 10
1113.8862698917
 20
-397.2283752585
 30
0.0
 10
1113.3790304225
 20
-396.695270968
 30
0.0
 10
1113.100502617
 20
-396.4601366297
 30
0.0
  0
SPLINE
  5
67A
100
AcDbEntity
  8
0
100
AcDbSpline
 62
9
  6
CONTINUOUS
 70
0
 71
3
 72
11
 73
7
 74
0
 42
0.0000001
 43
0.0000001
 44
0.0000000001
 40
0.0
 40
0.0
 40
0.0
 40
0.0
 40
0.2499984174
 40
0.4999960013
 40
0.7499956411
 40
1.0
 40
1.0
 40
1.0
 40
1.0
 10
1113.100502617
 20
-250.7264880182
 30
0.0
 10
1113.379030423
 20
-250.4913536805
 30
0.0
 10
1113.8862698914
 20
-249.9582493891
 30
0.0
 10
1114.4548869001
 20
-249.0144226702
 30
0.0
 10
1114.8071181335
 20
-247.9703895082
 30
0.0
 10
1114.8865514114
 20
-247.2389196633
 30
0.0
 10
1114.8865645686
 20
-246.8744032566
 30
0.0
  0
SPLINE
  5
67B
100
AcDbEntity
  8
0
100
AcDbSpline
 62
9
  6
CONTINUOUS
 70
0
 71
3
 72
11
 73
7
 74
0
 42
0.0000001
 43
0.0000001
 44
0.0000000001
 40
0.0
 40
0.0
 40
0.0
 40
0.0
 40
0.2500003721
 40
0.4999947006
 40
0.7499916583
 40
1.0
 40
1.0
 40
1.0
 40
1.0
 10
1078.1443406295
 20
-278.802130156
 30
0.0
 10
1078.4355128456
 20
-278.8021204456
 30
0.0
 10
1079.0191611423
 20
-278.7501843188
 30
0.0
 10
1079.8661055419
 20
-278.5190278747
 30
0.0
 10
1080.6592979417
 20
-278.1428179317
 30
0.0
 10
1081.1365967819
 20
-277.8031110586
 30
0.0
 10
1081.3582786779
 20
-277.6143153966
 30
0.0
  0
SPLINE
  5
67C
100
AcDbEntity
  8
0
100
AcDbSpline
 62
9
  6
CONTINUOUS
 70
0
 71
3
 72
11
 73
7
 74
0
 42
0.0000001
 43
0.0000001
 44
0.0000000001
 40
0.0
 40
0.0
 40
0.0
 40
0.0
 40
0.2500579822
 40
0.5000859427
 40
0.7500635539
 40
1.0
 40
1.0
 40
1.0
 40
1.0
 10
1052.8865645686
 20
-277.7866534194
 30
0.0
 10
1052.8865741722
 20
-277.9177486399
 30
0.0
 10
1052.9377426884
 20
-278.1826861386
 30
0.0
 10
1053.1580672187
 20
-278.520052127
 30
0.0
 10
1053.4904781645
 20
-278.7483261446
 30
0.0
 10
1053.7555330645
 20
-278.8021201342
 30
0.0
 10
1053.8865645686
 20
-278.802130156
 30
0.0
  0
LINE
  5
67D
100
AcDbEntity
  8
0
100
AcDbLine
 62
9
  6
CONTINUOUS
 10
1119.386564572
 20
-409.3437966627
 11
1119.3865645719
 21
-393.593312324
  0
LINE
  5
67E
100
AcDbEntity
  8
0
100
AcDbLine
 62
9
  6
CONTINUOUS
 10
1119.386564572
 20
-253.593312323
 11
1119.3865645718
 21
-237.8428279849
  0
SPLINE
  5
67F
100
AcDbEntity
  8
0
100
AcDbSpline
 62
9
  6
CONTINUOUS
 70
0
 71
3
 72
15
 73
11
 74
0
 42
0.0000001
 43
0.0000001
 44
0.0000000001
 40
0.0
 40
0.0
 40
0.0
 40
0.0
 40
0.1255361551
 40
0.2509782306
 40
0.3762715529
 40
0.501364377
 40
0.6262468595
 40
0.7509433456
 40
0.8754983825
 40
1.0
 40
1.0
 40
1.0
 40
1.0
 10
1053.8865645686
 20
-365.4312297336
 30
0.0
 10
1053.6250807562
 20
-365.431240102
 30
0.0
 10
1053.1008790884
 20
-365.4823680868
 30
0.0
 10
1052.3458442015
 20
-365.7096599248
 30
0.0
 10
1051.6497337152
 20
-366.0787018608
 30
0.0
 10
1051.0396969709
 20
-366.5754074855
 30
0.0
 10
1050.5390774795
 20
-367.1806536303
 30
0.0
 10
1050.1671483805
 20
-367.8712967119
 30
0.0
 10
1049.9380998207
 20
-368.6204133498
 30
0.0
 10
1049.8865719518
 20
-369.1406422919
 30
0.0
 10
1049.8865645686
 20
-369.3999712285
 30
0.0
  0
SPLINE
  5
680
100
AcDbEntity
  8
0
100
AcDbSpline
 62
9
  6
CONTINUOUS
 70
0
 71
3
 72
9
 73
5
 74
0
 42
0.0000001
 43
0.0000001
 44
0.0000000001
 40
0.0
 40
0.0
 40
0.0
 40
0.0
 40
0.5000734791
 40
1.0
 40
1.0
 40
1.0
 40
1.0
 10
1266.0394300817
 20
-366.093312324
 30
0.0
 10
1265.6840677152
 20
-361.0030116694
 30
0.0
 10
1264.4263980018
 20
-350.8549001594
 30
0.0
 10
1261.923755392
 20
-340.9199045016
 30
0.0
 10
1260.2726497186
 20
-336.093312324
 30
0.0
  0
SPLINE
  5
681
100
AcDbEntity
  8
0
100
AcDbSpline
 62
7
  6
CONTINUOUS
 70
0
 71
3
 72
13
 73
9
 74
0
 42
0.0000001
 43
0.0000001
 44
0.0000000001
 40
0.0
 40
0.0
 40
0.0
 40
0.0
 40
0.090597362
 40
0.1931771391
 40
0.306932121
 40
0.4306390849
 40
0.7026883102
 40
1.0
 40
1.0
 40
1.0
 40
1.0
 10
1337.4879325644
 20
-226.093312324
 30
0.0
 10
1336.7818019105
 20
-226.093312324
 30
0.0
 10
1335.2762108245
 20
-226.2960916072
 30
0.0
 10
1332.9850726401
 20
-227.0036245627
 30
0.0
 10
1330.5551892122
 20
-228.0735957616
 30
0.0
 10
1327.0666349917
 20
-229.9779273792
 30
0.0
 10
1322.5935718396
 20
-233.0270245584
 30
0.0
 10
1319.142826157
 20
-235.8224324223
 30
0.0
 10
1317.3865645686
 20
-237.3341882364
 30
0.0
  0
SPLINE
  5
682
100
AcDbEntity
  8
0
100
AcDbSpline
 62
7
  6
CONTINUOUS
 70
0
 71
3
 72
13
 73
9
 74
0
 42
0.0000001
 43
0.0000001
 44
0.0000000001
 40
0.0
 40
0.0
 40
0.0
 40
0.0
 40
0.2973139626
 40
0.5693656591
 40
0.69307334
 40
0.806826848
 40
0.909403765
 40
1.0
 40
1.0
 40
1.0
 40
1.0
 10
1317.3865645686
 20
-374.8524364115
 30
0.0
 10
1319.1428395788
 20
-376.3642037788
 30
0.0
 10
1322.5936147721
 20
-379.1596346345
 30
0.0
 10
1327.066718812
 20
-382.2087464921
 30
0.0
 10
1330.5552865399
 20
-384.1130830893
 30
0.0
 10
1332.9851539314
 20
-385.1830192891
 30
0.0
 10
1335.2762493544
 20
-385.8905458664
 30
0.0
 10
1336.7818106961
 20
-386.093312324
 30
0.0
 10
1337.4879325644
 20
-386.093312324
 30
0.0
  0
SPLINE
  5
683
100
AcDbEntity
  8
0
100
AcDbSpline
 62
9
  6
CONTINUOUS
 70
0
 71
3
 72
17
 73
13
 74
0
 42
0.0000001
 43
0.0000001
 44
0.0000000001
 40
0.0
 40
0.0
 40
0.0
 40
0.0
 40
0.1700266505
 40
0.3345608765
 40
0.4883357845
 40
0.6269301115
 40
0.7470358424
 40
0.7996785841
 40
0.8473599716
 40
0.9292603838
 40
0.9655048073
 40
1.0
 40
1.0
 40
1.0
 40
1.0
 10
1157.3865645686
 20
-374.8524364115
 30
0.0
 10
1155.7587892269
 20
-374.8521228609
 30
0.0
 10
1152.5543850513
 20
-374.7312103329
 30
0.0
 10
1147.9058154572
 20
-374.1892509341
 30
0.0
 10
1143.6146091966
 20
-373.3073078484
 30
0.0
 10
1139.8408918741
 20
-372.1186707949
 30
0.0
 10
1137.1266171854
 20
-370.854185551
 30
0.0
 10
1135.3575165713
 20
-369.6947155049
 30
0.0
 10
1134.0145842492
 20
-368.5810874475
 30
0.0
 10
1132.990248077
 20
-367.3173629334
 30
0.0
 10
1132.4730511032
 20
-365.9386789548
 30
0.0
 10
1132.3869920738
 20
-365.259132388
 30
0.0
 10
1132.3865645686
 20
-364.9288878185
 30
0.0
  0
SPLINE
  5
684
100
AcDbEntity
  8
0
100
AcDbSpline
 62
9
  6
CONTINUOUS
 70
0
 71
3
 72
19
 73
15
 74
0
 42
0.0000001
 43
0.0000001
 44
0.0000000001
 40
0.0
 40
0.0
 40
0.0
 40
0.0
 40
0.2041044827
 40
0.3948941649
 40
0.566909514
 40
0.7151087985
 40
0.8352188271
 40
0.8836557857
 40
0.9238671032
 40
0.9556017273
 40
0.97865562
 40
0.9869333453
 40
0.9931137977
 40
1.0
 40
1.0
 40
1.0
 40
1.0
 10
1152.3750737613
 20
-246.1167317256
 30
0.0
 10
1151.0082232889
 20
-246.1296162756
 30
0.0
 10
1148.3637712777
 20
-246.1650483614
 30
0.0
 10
1144.5680083171
 20
-246.2499841509
 30
0.0
 10
1141.1475290843
 20
-246.3628196749
 30
0.0
 10
1138.2017379169
 20
-246.5007338784
 30
0.0
 10
1136.0846818352
 20
-246.6370081409
 30
0.0
 10
1134.6919954048
 20
-246.7627234467
 30
0.0
 10
1133.8912110382
 20
-246.8535079899
 30
0.0
 10
1133.260645932
 20
-246.947131303
 30
0.0
 10
1132.8480335553
 20
-247.0266787223
 30
0.0
 10
1132.6032272906
 20
-247.0992033577
 30
0.0
 10
1132.477358538
 20
-247.1487530972
 30
0.0
 10
1132.3870371911
 20
-247.21162157
 30
0.0
 10
1132.3865645686
 20
-247.2577368367
 30
0.0
  0
SPLINE
  5
685
100
AcDbEntity
  8
0
100
AcDbSpline
 62
9
  6
CONTINUOUS
 70
0
 71
3
 72
15
 73
11
 74
0
 42
0.0000001
 43
0.0000001
 44
0.0000000001
 40
0.0
 40
0.0
 40
0.0
 40
0.0
 40
0.0738271089
 40
0.1573146714
 40
0.2565256404
 40
0.3740152802
 40
0.5094956731
 40
0.6611002964
 40
0.8258138893
 40
1.0
 40
1.0
 40
1.0
 40
1.0
 10
1132.3865645686
 20
-247.2577368295
 30
0.0
 10
1132.3873165163
 20
-246.6745492564
 30
0.0
 10
1132.6734777691
 20
-245.4225374872
 30
0.0
 10
1133.8492111622
 20
-243.7309477379
 30
0.0
 10
1135.6820468559
 20
-242.1971977244
 30
0.0
 10
1138.1137957171
 20
-240.8235489084
 30
0.0
 10
1141.0903552896
 20
-239.6397475323
 30
0.0
 10
1144.5309860849
 20
-238.6721034645
 30
0.0
 10
1148.3409536236
 20
-237.9456435583
 30
0.0
 10
1151.0034669094
 20
-237.6419076904
 30
0.0
 10
1152.3750671127
 20
-237.532441087
 30
0.0
  0
SPLINE
  5
686
100
AcDbEntity
  8
0
100
AcDbSpline
 62
9
  6
CONTINUOUS
 70
0
 71
3
 72
14
 73
10
 74
0
 42
0.0000001
 43
0.0000001
 44
0.0000000001
 40
0.0
 40
0.0
 40
0.0
 40
0.0
 40
0.3281887887
 40
0.4799193316
 40
0.6173877078
 40
0.7377105949
 40
0.8398256589
 40
0.925303162
 40
1.0
 40
1.0
 40
1.0
 40
1.0
 10
1198.3874658546
 20
-374.8524321174
 30
0.0
 10
1198.899033499
 20
-374.8509735317
 30
0.0
 10
1199.6502109466
 20
-374.9095961795
 30
0.0
 10
1200.5900380505
 20
-375.1225908211
 30
0.0
 10
1201.1945962978
 20
-375.3328267068
 30
0.0
 10
1201.6954148348
 20
-375.5906852517
 30
0.0
 10
1202.0770911139
 20
-375.8882418958
 30
0.0
 10
1202.3242491073
 20
-376.2225803098
 30
0.0
 10
1202.3870310776
 20
-376.4737153364
 30
0.0
 10
1202.3874412677
 20
-376.5901495504
 30
0.0
  0
SPLINE
  5
687
100
AcDbEntity
  8
0
100
AcDbSpline
 62
9
  6
CONTINUOUS
 70
0
 71
3
 72
14
 73
10
 74
0
 42
0.0000001
 43
0.0000001
 44
0.0000000001
 40
0.0
 40
0.0
 40
0.0
 40
0.0
 40
0.3281921895
 40
0.4799238094
 40
0.6173924047
 40
0.7377145477
 40
0.8398281047
 40
0.9253039199
 40
1.0
 40
1.0
 40
1.0
 40
1.0
 10
1266.3856632842
 20
-374.8523784472
 30
0.0
 10
1265.8740844383
 20
-374.8509178969
 30
0.0
 10
1265.1228908575
 20
-374.9095414586
 30
0.0
 10
1264.1830467299
 20
-375.1225449222
 30
0.0
 10
1263.5784825556
 20
-375.3327893494
 30
0.0
 10
1263.0776650978
 20
-375.5906577917
 30
0.0
 10
1262.6959971011
 20
-375.8882248798
 30
0.0
 10
1262.4488554167
 20
-376.2225751138
 30
0.0
 10
1262.3860933572
 20
-376.4737151573
 30
0.0
 10
1262.3856931401
 20
-376.5901495689
 30
0.0
  0
SPLINE
  5
688
100
AcDbEntity
  8
0
100
AcDbSpline
 62
9
  6
CONTINUOUS
 70
0
 71
3
 72
20
 73
16
 74
0
 42
0.0000001
 43
0.0000001
 44
0.0000000001
 40
0.0
 40
0.0
 40
0.0
 40
0.0
 40
0.0067298775
 40
0.0131051294
 40
0.021725814
 40
0.0458470945
 40
0.0790306302
 40
0.1209960339
 40
0.1713672687
 40
0.2296702958
 40
0.2953768114
 40
0.4464042598
 40
0.6186627859
 40
0.8056189042
 40
1.0
 40
1.0
 40
1.0
 40
1.0
 10
1132.3865645686
 20
-364.9288878112
 30
0.0
 10
1132.3871438953
 20
-364.9852053592
 30
0.0
 10
1132.511431145
 20
-365.0544802474
 30
0.0
 10
1132.6714484741
 20
-365.109951106
 30
0.0
 10
1132.9950714801
 20
-365.1926504975
 30
0.0
 10
1133.5350323426
 20
-365.2841319672
 30
0.0
 10
1134.3611775752
 20
-365.3903623642
 30
0.0
 10
1135.4061344042
 20
-365.4910881994
 30
0.0
 10
1136.6634897215
 20
-365.5866807712
 30
0.0
 10
1138.1200321305
 20
-365.6762726443
 30
0.0
 10
1140.418857244
 20
-365.7928667154
 30
0.0
 10
1143.6721429299
 20
-365.9129247701
 30
0.0
 10
1147.9410719279
 20
-366.0157192764
 30
0.0
 10
1152.573602494
 20
-366.0790708706
 30
0.0
 10
1155.7649298071
 20
-366.0933236839
 30
0.0
 10
1157.3916527248
 20
-366.0933385658
 30
0.0
  0
SPLINE
  5
689
100
AcDbEntity
  8
0
100
AcDbSpline
 62
9
  6
CONTINUOUS
 70
0
 71
3
 72
29
 73
25
 74
0
 42
0.0000001
 43
0.0000001
 44
0.0000000001
 40
0.0
 40
0.0
 40
0.0
 40
0.0
 40
0.0698961602
 40
0.1366132333
 40
0.1999821062
 40
0.2600349982
 40
0.3171560168
 40
0.372494697
 40
0.4004334457
 40
0.429664421
 40
0.4620908849
 40
0.4804052364
 40
0.5000033475
 40
0.5195996742
 40
0.5379120615
 40
0.5703367689
 40
0.5995674702
 40
0.6275060733
 40
0.6828446819
 40
0.7399656367
 40
0.8000184455
 40
0.8633872036
 40
0.9301040766
 40
1.0
 40
1.0
 40
1.0
 40
1.0
 10
1198.3874658546
 20
-374.8524364115
 30
0.0
 10
1198.4011536447
 20
-378.6431126203
 30
0.0
 10
1198.7324596868
 20
-386.0548214412
 30
0.0
 10
1200.1184876833
 20
-396.8241246735
 30
0.0
 10
1202.3309329057
 20
-406.910644338
 30
0.0
 10
1205.3672539771
 20
-416.2398100013
 30
0.0
 10
1209.3049163631
 20
-424.7530298075
 30
0.0
 10
1213.5597996873
 20
-431.1294026536
 30
0.0
 10
1217.7753854136
 20
-435.5635523925
 30
0.0
 10
1221.6252662002
 20
-438.5636983369
 30
0.0
 10
1225.5565040962
 20
-440.5033412168
 30
0.0
 10
1229.2640753926
 20
-441.4587441625
 30
0.0
 10
1232.387014103
 20
-441.733517492
 30
0.0
 10
1235.509847675
 20
-441.458681363
 30
0.0
 10
1239.217057963
 20
-440.5030790594
 30
0.0
 10
1243.148057283
 20
-438.5635073759
 30
0.0
 10
1246.9978840462
 20
-435.5634724204
 30
0.0
 10
1251.2133779662
 20
-431.1292714057
 30
0.0
 10
1255.4682826052
 20
-424.752940698
 30
0.0
 10
1259.4059100152
 20
-416.2397117671
 30
0.0
 10
1262.4422155028
 20
-406.9105587129
 30
0.0
 10
1264.6546538082
 20
-396.8240590164
 30
0.0
 10
1266.0406709469
 20
-386.054784857
 30
0.0
 10
1266.3719772537
 20
-378.6430997841
 30
0.0
 10
1266.3856632825
 20
-374.8524364115
 30
0.0
  0
SPLINE
  5
68A
100
AcDbEntity
  8
0
100
AcDbSpline
 62
9
  6
CONTINUOUS
 70
0
 71
3
 72
9
 73
5
 74
0
 42
0.0000001
 43
0.0000001
 44
0.0000000001
 40
0.0
 40
0.0
 40
0.0
 40
0.0
 40
0.4999256716
 40
1.0
 40
1.0
 40
1.0
 40
1.0
 10
1204.5004794185
 20
-336.093312324
 30
0.0
 10
1202.849322621
 20
-340.9198778811
 30
0.0
 10
1200.3467599385
 20
-350.8549004646
 30
0.0
 10
1199.0890570083
 20
-361.0030026479
 30
0.0
 10
1198.7336990554
 20
-366.093312324
 30
0.0
  0
ELLIPSE
  5
68B
100
AcDbEntity
  8
02___PRT_ALL_AXES
100
AcDbEllipse
 62
7
  6
CONTINUOUS
 10
183.8569069262
 20
65.4639248304
 30
0.0
 11
65.0
 21
0.0
 31
0.0
 40
0.4615384615
 41
0.0
 42
6.2831853072
  0
ELLIPSE
  5
68C
100
AcDbEntity
  8
02___PRT_ALL_AXES
100
AcDbEllipse
 62
7
  6
CONTINUOUS
 10
1232.3865645686
 20
-376.093312324
 30
0.0
 11
0.0
 21
65.0
 31
0.0
 40
0.4615384615
 41
7.1911078103
 42
11.6584481112
  0
ENDSEC
  0
SECTION
  2
OBJECTS
  0
DICTIONARY
  5
C
100
AcDbDictionary
280
0
281
1
  3
ACAD_GROUP
350
D
  3
ACAD_MLINESTYLE
350
17
  3
ACAD_LAYOUT
350
1A
  3
ACAD_PLOTSETTINGS
350
19
  3
ACAD_PLOTSTYLENAME
350
E
  0
DICTIONARY
  5
D
102
{ACAD_REACTORS
330
C
102
}
100
AcDbDictionary
280
0
281
1
  0
ACDBDICTIONARYWDFLT
  5
E
102
{ACAD_REACTORS
330
C
102
}
100
AcDbDictionary
281
1
  3
Normal
350
F
100
AcDbDictionaryWithDefault
340
F
  0
DICTIONARY
  5
17
102
{ACAD_REACTORS
330
C
102
}
100
AcDbDictionary
280
0
281
1
  3
Standard
350
18
  0
DICTIONARY
  5
19
102
{ACAD_REACTORS
330
C
102
}
100
AcDbDictionary
281
1
  0
DICTIONARY
  5
1A
102
{ACAD_REACTORS
330
C
102
}
100
AcDbDictionary
281
1
  3
Model
350
68D
  3
Layout1
350
68E
  0
ACDBPLACEHOLDER
  5
F
102
{ACAD_REACTORS
330
E
102
}
  0
MLINESTYLE
  5
18
102
{ACAD_REACTORS
330
17
102
}
100
AcDbMlineStyle
  2
STANDARD
 70
0
  3

 62
256
 51
90.0
 52
90.0
 71
2
 49
0.5
 62
256
  6
BYLAYER
 49
-0.5
 62
256
  6
BYLAYER
  0
LAYOUT
  5
68D
102
{ACAD_REACTORS
330
1A
102
}
100
AcDbPlotSettings
  1

  2
none_device
  4

  6

 40
0.0
 41
0.0
 42
0.0
 43
0.0
 44
210.0
 45
297.0
 46
0.0
 47
0.0
 48
0.0
 49
0.0
140
0.0
141
0.0
142
1.0
143
1.0
 70
1024
 72
1
 73
0
 74
0
  7

 75
0
147
1.0
148
0.0
149
0.0
100
AcDbLayout
  1
Model
 70
0
 71
0
 10
0.0
 20
0.0
 11
210.0
 21
297.0
 12
0.0
 22
0.0
 32
0.0
 14
0.0
 24
0.0
 34
0.0
 15
0.0
 25
0.0
 35
0.0
146
0.0
 13
0.0
 23
0.0
 33
0.0
 16
1.0
 26
0.0
 36
0.0
 17
0.0
 27
1.0
 37
0.0
 76
0
330
21A
345
0
346
0
  0
LAYOUT
  5
68E
102
{ACAD_REACTORS
330
1A
102
}
100
AcDbPlotSettings
  1

  2
none_device
  4

  6

 40
0.0
 41
0.0
 42
0.0
 43
0.0
 44
210.0
 45
297.0
 46
0.0
 47
0.0
 48
0.0
 49
0.0
140
0.0
141
0.0
142
1.0
143
1.0
 70
0
 72
1
 73
0
 74
0
  7

 75
0
147
1.0
148
0.0
149
0.0
100
AcDbLayout
  1
Layout1
 70
0
 71
1
 10
0.0
 20
0.0
 11
210.0
 21
297.0
 12
0.0
 22
0.0
 32
0.0
 14
0.0
 24
0.0
 34
0.0
 15
0.0
 25
0.0
 35
0.0
146
0.0
 13
0.0
 23
0.0
 33
0.0
 16
1.0
 26
0.0
 36
0.0
 17
0.0
 27
1.0
 37
0.0
 76
0
330
21B
345
0
346
0
  0
ENDSEC
  0
EOF
